  0
SECTION
  2
HEADER
  9
$ACADVER
  1
AC1014
  9
$ACADMAINTVER
 70
     9
  9
$DWGCODEPAGE
  3
ANSI_1252
  9
$INSBASE
 10
0.0
 20
0.0
 30
0.0
  9
$EXTMIN
 10
0.5853560379578397
 20
0.2222723885834735
 30
0.0
  9
$EXTMAX
 10
4.070575359704967
 20
1.692731834535187
 30
0.0
  9
$LIMMIN
 10
0.0
 20
0.0
  9
$LIMMAX
 10
12.0
 20
9.0
  9
$ORTHOMODE
 70
     0
  9
$REGENMODE
 70
     1
  9
$FILLMODE
 70
     1
  9
$QTEXTMODE
 70
     0
  9
$MIRRTEXT
 70
     0
  9
$DRAGMODE
 70
     2
  9
$LTSCALE
 40
1.0
  9
$OSMODE
 70
    39
  9
$ATTMODE
 70
     1
  9
$TEXTSIZE
 40
0.125
  9
$TRACEWID
 40
0.05
  9
$TEXTSTYLE
  7
ROMANS
  9
$CLAYER
  8
DIM
  9
$CELTYPE
  6
BYLAYER
  9
$CECOLOR
 62
   256
  9
$CELTSCALE
 40
1.0
  9
$DELOBJ
 70
     1
  9
$DISPSILH
 70
     1
  9
$DIMSCALE
 40
1.0
  9
$DIMASZ
 40
0.125
  9
$DIMEXO
 40
0.125
  9
$DIMDLI
 40
0.3
  9
$DIMRND
 40
0.0
  9
$DIMDLE
 40
0.0
  9
$DIMEXE
 40
0.125
  9
$DIMTP
 40
2.0
  9
$DIMTM
 40
2.0
  9
$DIMTXT
 40
0.125
  9
$DIMCEN
 40
-0.125
  9
$DIMTSZ
 40
0.0
  9
$DIMTOL
 70
     1
  9
$DIMLIM
 70
     0
  9
$DIMTIH
 70
     1
  9
$DIMTOH
 70
     1
  9
$DIMSE1
 70
     0
  9
$DIMSE2
 70
     0
  9
$DIMTAD
 70
     0
  9
$DIMZIN
 70
     4
  9
$DIMBLK
  1

  9
$DIMASO
 70
     1
  9
$DIMSHO
 70
     1
  9
$DIMPOST
  1

  9
$DIMAPOST
  1

  9
$DIMALT
 70
     0
  9
$DIMALTD
 70
     2
  9
$DIMALTF
 40
25.4
  9
$DIMLFAC
 40
0.5
  9
$DIMTOFL
 70
     0
  9
$DIMTVP
 40
0.0
  9
$DIMTIX
 70
     0
  9
$DIMSOXD
 70
     0
  9
$DIMSAH
 70
     0
  9
$DIMBLK1
  1

  9
$DIMBLK2
  1

  9
$DIMSTYLE
  2
STANDARD
  9
$DIMCLRD
 70
     0
  9
$DIMCLRE
 70
     0
  9
$DIMCLRT
 70
     0
  9
$DIMTFAC
 40
1.0
  9
$DIMGAP
 40
0.09
  9
$DIMJUST
 70
     0
  9
$DIMSD1
 70
     0
  9
$DIMSD2
 70
     0
  9
$DIMTOLJ
 70
     1
  9
$DIMTZIN
 70
     4
  9
$DIMALTZ
 70
     0
  9
$DIMALTTZ
 70
     0
  9
$DIMFIT
 70
     3
  9
$DIMUPT
 70
     0
  9
$DIMUNIT
 70
     2
  9
$DIMDEC
 70
     3
  9
$DIMTDEC
 70
     3
  9
$DIMALTU
 70
     2
  9
$DIMALTTD
 70
     2
  9
$DIMTXSTY
  7
ROMANS
  9
$DIMAUNIT
 70
     0
  9
$LUNITS
 70
     2
  9
$LUPREC
 70
     4
  9
$SKETCHINC
 40
0.1
  9
$FILLETRAD
 40
0.5
  9
$AUNITS
 70
     0
  9
$AUPREC
 70
     0
  9
$MENU
  1
.
  9
$ELEVATION
 40
0.0
  9
$PELEVATION
 40
0.0
  9
$THICKNESS
 40
0.0
  9
$LIMCHECK
 70
     0
  9
$BLIPMODE
 70
     0
  9
$CHAMFERA
 40
0.5
  9
$CHAMFERB
 40
0.5
  9
$CHAMFERC
 40
1.0
  9
$CHAMFERD
 40
0.0
  9
$SKPOLY
 70
     0
  9
$TDCREATE
 40
2451107.388147361
  9
$TDUPDATE
 40
2452458.320138900
  9
$TDINDWG
 40
0.7588462963
  9
$TDUSRTIMER
 40
0.7588462963
  9
$USRTIMER
 70
     1
  9
$ANGBASE
 50
0.0
  9
$ANGDIR
 70
     0
  9
$PDMODE
 70
    35
  9
$PDSIZE
 40
-8.0
  9
$PLINEWID
 40
0.0
  9
$COORDS
 70
     2
  9
$SPLFRAME
 70
     0
  9
$SPLINETYPE
 70
     6
  9
$SPLINESEGS
 70
     8
  9
$ATTDIA
 70
     0
  9
$ATTREQ
 70
     1
  9
$HANDLING
 70
 22529
  9
$HANDSEED
  5
19DA
  9
$SURFTAB1
 70
     6
  9
$SURFTAB2
 70
     6
  9
$SURFTYPE
 70
     6
  9
$SURFU
 70
     6
  9
$SURFV
 70
     6
  9
$UCSNAME
  2

  9
$UCSORG
 10
0.0
 20
0.0
 30
0.0
  9
$UCSXDIR
 10
1.0
 20
0.0
 30
0.0
  9
$UCSYDIR
 10
0.0
 20
1.0
 30
0.0
  9
$PUCSNAME
  2

  9
$PUCSORG
 10
0.0
 20
0.0
 30
0.0
  9
$PUCSXDIR
 10
1.0
 20
0.0
 30
0.0
  9
$PUCSYDIR
 10
0.0
 20
1.0
 30
0.0
  9
$USERI1
 70
     0
  9
$USERI2
 70
     0
  9
$USERI3
 70
     0
  9
$USERI4
 70
     0
  9
$USERI5
 70
     0
  9
$USERR1
 40
0.0
  9
$USERR2
 40
0.0
  9
$USERR3
 40
0.0
  9
$USERR4
 40
0.0
  9
$USERR5
 40
0.0
  9
$WORLDVIEW
 70
     1
  9
$SHADEDGE
 70
     3
  9
$SHADEDIF
 70
    70
  9
$TILEMODE
 70
     1
  9
$MAXACTVP
 70
    48
  9
$PINSBASE
 10
0.0
 20
0.0
 30
0.0
  9
$PLIMCHECK
 70
     0
  9
$PEXTMIN
 10
1.000000000000000E+20
 20
1.000000000000000E+20
 30
1.000000000000000E+20
  9
$PEXTMAX
 10
-1.000000000000000E+20
 20
-1.000000000000000E+20
 30
-1.000000000000000E+20
  9
$PLIMMIN
 10
0.0
 20
0.0
  9
$PLIMMAX
 10
12.0
 20
9.0
  9
$UNITMODE
 70
     0
  9
$VISRETAIN
 70
     1
  9
$PLINEGEN
 70
     1
  9
$PSLTSCALE
 70
     1
  9
$TREEDEPTH
 70
  3020
  9
$PICKSTYLE
 70
     1
  9
$CMLSTYLE
  2
STANDARD
  9
$CMLJUST
 70
     0
  9
$CMLSCALE
 40
1.0
  9
$PROXYGRAPHICS
 70
     1
  9
$MEASUREMENT
 70
     0
  0
ENDSEC
  0
SECTION
  2
CLASSES
  0
CLASS
  1
LWPOLYLINE
  2
AcDbPolyline
  3
AutoCAD 2000
 90
        0
280
     0
281
     1
  0
CLASS
  1
DICTIONARYVAR
  2
AcDbDictionaryVar
  3
AutoCAD 2000
 90
        0
280
     0
281
     0
  0
CLASS
  1
ACDBDICTIONARYWDFLT
  2
AcDbDictionaryWithDefault
  3
AutoCAD 2000
 90
        0
280
     0
281
     0
  0
CLASS
  1
ACDBPLACEHOLDER
  2
AcDbPlaceHolder
  3
AutoCAD 2000
 90
        0
280
     0
281
     0
  0
CLASS
  1
LAYOUT
  2
AcDbLayout
  3
AutoCAD 2000
 90
        0
280
     0
281
     0
  0
CLASS
  1
LONG_TRANSACTION
  2
AcDbLongTransaction
  3
AutoCAD 2000
 90
        0
280
     0
281
     0
  0
CLASS
  1
LWPOLYLINE
  2
AcDbPolyline
  3
AutoCAD 2000
 90
        0
280
     0
281
     1
  0
CLASS
  1
HATCH
  2
AcDbHatch
  3
AutoCAD 2000
 90
        0
280
     0
281
     1
  0
CLASS
  1
XRECORD
  2
AcDbXrecord
  3
AutoCAD 2000
 90
        0
280
     0
281
     0
  0
ENDSEC
  0
SECTION
  2
TABLES
  0
TABLE
  2
VPORT
  5
8
330
0
100
AcDbSymbolTable
 70
     2
  0
VPORT
  5
19B5
330
8
100
AcDbSymbolTableRecord
100
AcDbViewportTableRecord
  2
*ACTIVE
 70
     0
 10
0.0
 20
0.0
 11
1.0
 21
1.0
 12
1.324850666237174
 22
-4.521921969989806
 13
0.0
 23
0.0
 14
0.5
 24
0.5
 15
0.5
 25
0.5
 16
0.0
 26
0.0
 36
1.0
 17
3.926160451945129
 27
5.479511252948558
 37
-0.0300717933567791
 40
2.164226148719873
 41
4.320930232558139
 42
50.0
 43
0.0
 44
0.0
 50
0.0
 51
0.0
 71
     0
 72
  2000
 73
     1
 74
     1
 75
     0
 76
     0
 77
     0
 78
     0
  0
ENDTAB
  0
TABLE
  2
LTYPE
  5
5
330
0
100
AcDbSymbolTable
 70
     1
  0
LTYPE
  5
12
330
5
100
AcDbSymbolTableRecord
100
AcDbLinetypeTableRecord
  2
BYBLOCK
 70
     0
  3

 72
    65
 73
     0
 40
0.0
  0
LTYPE
  5
13
330
5
100
AcDbSymbolTableRecord
100
AcDbLinetypeTableRecord
  2
BYLAYER
 70
     0
  3

 72
    65
 73
     0
 40
0.0
  0
LTYPE
  5
14
330
5
100
AcDbSymbolTableRecord
100
AcDbLinetypeTableRecord
  2
CONTINUOUS
 70
     0
  3
Solid line
 72
    65
 73
     0
 40
0.0
  0
ENDTAB
  0
TABLE
  2
LAYER
  5
2
330
0
100
AcDbSymbolTable
 70
     3
  0
LAYER
  5
E
330
2
100
AcDbSymbolTableRecord
100
AcDbLayerTableRecord
  2
0
 70
     0
 62
     7
  6
CONTINUOUS
  0
LAYER
  5
59
330
2
100
AcDbSymbolTableRecord
100
AcDbLayerTableRecord
  2
TEXT
 70
     0
 62
     3
  6
CONTINUOUS
  0
LAYER
  5
B83
330
2
100
AcDbSymbolTableRecord
100
AcDbLayerTableRecord
  2
DIM
 70
     0
 62
     4
  6
CONTINUOUS
  0
ENDTAB
  0
TABLE
  2
STYLE
  5
3
330
0
100
AcDbSymbolTable
 70
     3
  0
STYLE
  5
F
330
3
100
AcDbSymbolTableRecord
100
AcDbTextStyleTableRecord
  2
STANDARD
 70
     0
 40
0.0
 41
1.0
 50
0.0
 71
     0
 42
0.2
  3
txt
  4

  0
STYLE
  5
5B
330
3
100
AcDbSymbolTableRecord
100
AcDbTextStyleTableRecord
  2
ROMANS
 70
     0
 40
0.0
 41
1.0
 50
0.0
 71
     0
 42
0.125
  3
romans.shx
  4

  0
STYLE
  5
18A4
330
3
100
AcDbSymbolTableRecord
100
AcDbTextStyleTableRecord
  2
ITALICC
 70
     0
 40
0.0
 41
1.0
 50
0.0
 71
     0
 42
0.125
  3
italicc
  4

  0
ENDTAB
  0
TABLE
  2
VIEW
  5
6
330
0
100
AcDbSymbolTable
 70
     0
  0
ENDTAB
  0
TABLE
  2
UCS
  5
7
330
0
100
AcDbSymbolTable
 70
     0
  0
ENDTAB
  0
TABLE
  2
APPID
  5
9
330
0
100
AcDbSymbolTable
 70
     2
  0
APPID
  5
10
330
9
100
AcDbSymbolTableRecord
100
AcDbRegAppTableRecord
  2
ACAD
 70
     0
  0
APPID
  5
68C
330
9
100
AcDbSymbolTableRecord
100
AcDbRegAppTableRecord
  2
AME_SOLVIEW
 70
     0
  0
ENDTAB
  0
TABLE
  2
DIMSTYLE
  5
A
330
0
100
AcDbSymbolTable
 70
     1
  0
DIMSTYLE
105
1D
330
A
100
AcDbSymbolTableRecord
100
AcDbDimStyleTableRecord
  2
STANDARD
 70
     0
  3

  4

  5

  6

  7

 40
1.0
 41
0.125
 42
0.125
 43
0.3
 44
0.125
 45
0.0
 46
0.0
 47
2.0
 48
2.0
140
0.125
141
-0.125
142
0.0
143
25.4
144
0.5
145
0.0
146
1.0
147
0.09
 71
     1
 72
     0
 73
     1
 74
     1
 75
     0
 76
     0
 77
     0
 78
     4
170
     0
171
     2
172
     0
173
     0
174
     0
175
     0
176
     0
177
     0
178
     0
270
     2
271
     3
272
     3
273
     2
274
     2
340
5B
275
     0
280
     0
281
     0
282
     0
283
     1
284
     4
285
     0
286
     0
287
     3
288
     0
  0
ENDTAB
  0
TABLE
  2
BLOCK_RECORD
  5
1
330
0
100
AcDbSymbolTable
 70
     0
  0
BLOCK_RECORD
  5
18
102
{ACAD_XDICTIONARY
360
19D8
102
}
330
1
100
AcDbSymbolTableRecord
100
AcDbBlockTableRecord
  2
*MODEL_SPACE
  0
BLOCK_RECORD
  5
15
102
{ACAD_XDICTIONARY
360
19D6
102
}
330
1
100
AcDbSymbolTableRecord
100
AcDbBlockTableRecord
  2
*PAPER_SPACE
  0
ENDTAB
  0
ENDSEC
  0
SECTION
  2
BLOCKS
  0
BLOCK
  5
19
330
18
100
AcDbEntity
  8
0
100
AcDbBlockBegin
  2
*MODEL_SPACE
 70
     0
 10
0.0
 20
0.0
 30
0.0
  3
*MODEL_SPACE
  1

  0
ENDBLK
  5
1A
330
18
100
AcDbEntity
  8
0
100
AcDbBlockEnd
  0
BLOCK
  5
16
330
15
100
AcDbEntity
 67
     1
  8
0
100
AcDbBlockBegin
  2
*PAPER_SPACE
 70
     0
 10
0.0
 20
0.0
 30
0.0
  3
*PAPER_SPACE
  1

  0
ENDBLK
  5
17
330
15
100
AcDbEntity
 67
     1
  8
0
100
AcDbBlockEnd
  0
ENDSEC
  0
SECTION
  2
ENTITIES
  0
LWPOLYLINE
  5
12BD
330
18
100
AcDbEntity
  8
0
  6
CONTINUOUS
100
AcDbPolyline
 90
       21
 70
   129
 43
0.0
 10
0.690552001064213
 20
1.145299678113476
 10
0.7670886875372302
 20
0.9605237716112196
 10
1.706080163980966
 20
1.349466776106949
 42
-0.0984914033571616
 10
1.753915593026601
 20
1.358981834543038
 10
2.253594592407161
 20
1.358981834543042
 10
2.753273591787718
 20
1.35898183454304
 42
-0.0984914033571628
 10
2.801109020833354
 20
1.349466776106951
 10
3.740100497277092
 20
0.9605237716112199
 10
3.816637183750109
 20
1.145299678113476
 10
2.527043731200777
 20
1.679466776106952
 42
0.0984914033571635
 10
2.479208302155141
 20
1.688981834543041
 10
2.340494592407162
 20
1.688981834543041
 42
0.5773678843182434
 10
2.327504607705904
 20
1.666481148077051
 10
2.376584577108418
 20
1.581482521009034
 42
-0.5773678843182401
 10
2.36359459240716
 20
1.558981834543043
 10
2.14359459240716
 20
1.558981834543042
 42
-0.5773678843182454
 10
2.130604607705903
 20
1.581482521009033
 10
2.179684577108418
 20
1.666481148077051
 42
0.5773678843182438
 10
2.16669459240716
 20
1.688981834543041
 10
2.027980882659179
 20
1.68898183454304
 42
0.0984914033571632
 10
1.980145453613544
 20
1.679466776106951
  0
TEXT
  5
1929
330
18
100
AcDbEntity
  8
TEXT
100
AcDbText
 10
1.575361426708791
 20
0.680290992666055
 30
0.0
 40
0.125
  1
PART #110638
  7
ITALICC
 72
     1
 11
2.328337617184982
 21
0.680290992666055
 31
0.0
100
AcDbText
  0
LINE
  5
192A
330
18
100
AcDbEntity
  8
TEXT
100
AcDbLine
 10
2.296071116137045
 20
0.4359373066462214
 30
0.0
 11
2.372719097429603
 21
0.4359373066462214
 31
0.0
  0
LINE
  5
192B
330
18
100
AcDbEntity
  8
TEXT
100
AcDbLine
 10
2.368239210103102
 20
0.5002140013029868
 30
0.0
 11
2.300739492453586
 21
0.5002140013029868
 31
0.0
  0
LWPOLYLINE
  5
192C
330
18
100
AcDbEntity
  8
TEXT
100
AcDbPolyline
 90
        5
 70
     0
 43
0.0001332181640625
 10
0.6589590736023703
 20
0.3769871995451739
 10
0.6722808900086191
 20
0.3769871995451739
 10
0.6722808900086191
 20
0.4136221946623638
 10
0.7089158851258089
 20
0.4136221946623638
 10
0.7089158851258089
 20
0.4269440110686107
  0
LWPOLYLINE
  5
192D
330
18
100
AcDbEntity
  8
TEXT
100
AcDbPolyline
 90
        3
 70
     0
 43
0.0006660908203125
 10
0.6989245228211183
 20
0.4735703684904893
 10
0.6123327161804935
 20
0.4735703684904893
 10
0.6123327161804935
 20
0.3869785618498627
  0
LWPOLYLINE
  5
192E
330
18
100
AcDbEntity
  8
TEXT
100
AcDbPolyline
 90
        3
 70
     0
 43
0.0006660908203125
 10
0.6989245228211183
 20
0.5002140013029904
 10
0.585689083367996
 20
0.5002140013029904
 10
0.585689083367996
 20
0.3869785618498627
  0
LWPOLYLINE
  5
192F
330
18
100
AcDbEntity
  8
TEXT
100
AcDbPolyline
 90
        5
 70
     0
 43
0.0001332181640625
 10
0.7089158851258089
 20
0.3070476634123631
 10
0.7089158851258089
 20
0.3203694798186136
 10
0.6722808900086208
 20
0.3203694798186136
 10
0.6722808900086208
 20
0.3570044749357999
 10
0.6589590736023703
 20
0.3570044749357999
  0
LWPOLYLINE
  5
1930
330
18
100
AcDbEntity
  8
TEXT
100
AcDbPolyline
 90
        3
 70
     0
 43
0.0006660908203125
 10
0.6123327161804935
 20
0.3470131126311147
 10
0.6123327161804935
 20
0.2604213059904881
 10
0.6989245228211183
 20
0.2604213059904881
  0
LWPOLYLINE
  5
1931
330
18
100
AcDbEntity
  8
TEXT
100
AcDbPolyline
 90
        3
 70
     0
 43
0.0006660908203125
 10
0.585689083367996
 20
0.3470131126311147
 10
0.585689083367996
 20
0.233777673177987
 10
0.6989245228211183
 20
0.233777673177987
  0
LWPOLYLINE
  5
1932
330
18
100
AcDbEntity
  8
TEXT
100
AcDbPolyline
 90
        2
 70
     0
 43
0.0001332181640625
 10
0.6123327161804935
 20
0.3470131126311147
 10
0.6722808900086208
 20
0.3570044749357999
  0
LWPOLYLINE
  5
1933
330
18
100
AcDbEntity
  8
TEXT
100
AcDbPolyline
 90
        2
 70
     0
 43
0.0001332181640625
 10
0.6589590736023703
 20
0.3570044749357999
 10
0.585689083367996
 20
0.3470131126311147
  0
LWPOLYLINE
  5
1934
330
18
100
AcDbEntity
  8
TEXT
100
AcDbPolyline
 90
        2
 70
     0
 43
0.0006660908203125
 10
0.6123327161804935
 20
0.3470131126311147
 10
0.585689083367996
 20
0.3470131126311147
  0
LWPOLYLINE
  5
1935
330
18
100
AcDbEntity
  8
TEXT
100
AcDbPolyline
 90
        2
 70
     0
 43
0.0001332181640625
 10
0.6123327161804935
 20
0.2604213059904881
 10
0.6722808900086208
 20
0.3203694798186136
  0
LWPOLYLINE
  5
1936
330
18
100
AcDbEntity
  8
TEXT
100
AcDbPolyline
 90
        2
 70
     0
 43
0.0006660908203125
 10
0.6123327161804935
 20
0.3869785618498627
 10
0.585689083367996
 20
0.3869785618498627
  0
LWPOLYLINE
  5
1937
330
18
100
AcDbEntity
  8
TEXT
100
AcDbPolyline
 90
        2
 70
     0
 43
0.0001332181640625
 10
0.585689083367996
 20
0.3869785618498627
 10
0.6589590736023703
 20
0.3769871995451739
  0
LWPOLYLINE
  5
1938
330
18
100
AcDbEntity
  8
TEXT
100
AcDbPolyline
 90
        2
 70
     0
 43
0.0001332181640625
 10
0.6123327161804935
 20
0.3869785618498627
 10
0.6722808900086191
 20
0.3769871995451739
  0
LWPOLYLINE
  5
1939
330
18
100
AcDbEntity
  8
TEXT
100
AcDbPolyline
 90
        2
 70
     0
 43
0.0001332181640625
 10
0.6123327161804935
 20
0.4735703684904893
 10
0.6722808900086191
 20
0.4136221946623638
  0
LWPOLYLINE
  5
193A
330
18
100
AcDbEntity
  8
TEXT
100
AcDbPolyline
 90
        5
 70
     0
 43
0.0001332181640625
 10
0.7788554212586197
 20
0.3570044749357999
 10
0.7655336048523709
 20
0.3570044749357999
 10
0.7655336048523709
 20
0.3203694798186136
 10
0.7288986097351811
 20
0.3203694798186136
 10
0.7288986097351811
 20
0.3070476634123631
  0
LWPOLYLINE
  5
193B
330
18
100
AcDbEntity
  8
TEXT
100
AcDbPolyline
 90
        2
 70
     0
 43
0.0001332181640625
 10
0.8254817786804945
 20
0.3470131126311147
 10
0.7655336048523709
 20
0.3570044749357999
  0
LWPOLYLINE
  5
193C
330
18
100
AcDbEntity
  8
TEXT
100
AcDbPolyline
 90
        2
 70
     0
 43
0.0001332181640625
 10
0.8521254114929956
 20
0.3470131126311147
 10
0.7788554212586197
 20
0.3570044749357999
  0
LWPOLYLINE
  5
193D
330
18
100
AcDbEntity
  8
TEXT
100
AcDbPolyline
 90
        3
 70
     0
 43
0.0006660908203125
 10
0.7388899720398699
 20
0.233777673177987
 10
0.8521254114929956
 20
0.233777673177987
 10
0.8521254114929956
 20
0.3470131126311147
  0
LWPOLYLINE
  5
193E
330
18
100
AcDbEntity
  8
TEXT
100
AcDbPolyline
 90
        3
 70
     0
 43
0.0006660908203125
 10
0.7388899720398699
 20
0.2604213059904881
 10
0.8254817786804945
 20
0.2604213059904881
 10
0.8254817786804945
 20
0.3470131126311147
  0
LWPOLYLINE
  5
193F
330
18
100
AcDbEntity
  8
TEXT
100
AcDbPolyline
 90
        2
 70
     0
 43
0.0001332181640625
 10
0.8254817786804945
 20
0.2604213059904881
 10
0.7655336048523709
 20
0.3203694798186136
  0
LWPOLYLINE
  5
1940
330
18
100
AcDbEntity
  8
TEXT
100
AcDbPolyline
 90
        2
 70
     0
 43
0.0006660908203125
 10
0.7388899720398699
 20
0.2604213059904881
 10
0.7388899720398699
 20
0.233777673177987
  0
LWPOLYLINE
  5
1941
330
18
100
AcDbEntity
  8
TEXT
100
AcDbPolyline
 90
        2
 70
     0
 43
0.0001332181640625
 10
0.7288986097351811
 20
0.3070476634123631
 10
0.7388899720398699
 20
0.233777673177987
  0
LWPOLYLINE
  5
1942
330
18
100
AcDbEntity
  8
TEXT
100
AcDbPolyline
 90
        2
 70
     0
 43
0.0001332181640625
 10
0.7388899720398699
 20
0.2604213059904881
 10
0.7288986097351811
 20
0.3203694798186136
  0
LWPOLYLINE
  5
1943
330
18
100
AcDbEntity
  8
TEXT
100
AcDbPolyline
 90
        2
 70
     0
 43
0.0001332181640625
 10
0.6989245228211183
 20
0.233777673177987
 10
0.7089158851258089
 20
0.3070476634123631
  0
LWPOLYLINE
  5
1944
330
18
100
AcDbEntity
  8
TEXT
100
AcDbPolyline
 90
        2
 70
     0
 43
0.0001332181640625
 10
0.6989245228211183
 20
0.2604213059904881
 10
0.7089158851258089
 20
0.3203694798186136
  0
LWPOLYLINE
  5
1945
330
18
100
AcDbEntity
  8
TEXT
100
AcDbPolyline
 90
        2
 70
     0
 43
0.0006660908203125
 10
0.6989245228211183
 20
0.2604213059904881
 10
0.6989245228211183
 20
0.233777673177987
  0
LWPOLYLINE
  5
1946
330
18
100
AcDbEntity
  8
TEXT
100
AcDbPolyline
 90
        2
 70
     0
 43
0.0006660908203125
 10
0.8254817786804945
 20
0.3470131126311147
 10
0.8521254114929956
 20
0.3470131126311147
  0
LWPOLYLINE
  5
1947
330
18
100
AcDbEntity
  8
TEXT
100
AcDbPolyline
 90
        2
 70
     0
 43
0.0001332181640625
 10
0.8254817786804945
 20
0.4735703684904893
 10
0.7655336048523709
 20
0.4136221946623638
  0
LWPOLYLINE
  5
1948
330
18
100
AcDbEntity
  8
TEXT
100
AcDbPolyline
 90
        2
 70
     0
 43
0.0001332181640625
 10
0.8254817786804945
 20
0.3869785618498627
 10
0.7655336048523709
 20
0.3769871995451739
  0
LWPOLYLINE
  5
1949
330
18
100
AcDbEntity
  8
TEXT
100
AcDbPolyline
 90
        2
 70
     0
 43
0.0001332181640625
 10
0.7788554212586197
 20
0.3769871995451739
 10
0.8521254114929956
 20
0.3869785618498627
  0
LWPOLYLINE
  5
194A
330
18
100
AcDbEntity
  8
TEXT
100
AcDbPolyline
 90
        3
 70
     0
 43
0.0006660908203125
 10
0.8254817786804945
 20
0.3869785618498627
 10
0.8254817786804945
 20
0.4735703684904893
 10
0.7388899720398699
 20
0.4735703684904893
  0
LWPOLYLINE
  5
194B
330
18
100
AcDbEntity
  8
TEXT
100
AcDbPolyline
 90
        3
 70
     0
 43
0.0006660908203125
 10
0.8521254114929956
 20
0.3869785618498627
 10
0.8521254114929956
 20
0.5002140013029904
 10
0.7388899720398699
 20
0.5002140013029904
  0
LWPOLYLINE
  5
194C
330
18
100
AcDbEntity
  8
TEXT
100
AcDbPolyline
 90
        2
 70
     0
 43
0.0001332181640625
 10
0.7388899720398699
 20
0.5002140013029904
 10
0.7288986097351811
 20
0.4269440110686107
  0
LWPOLYLINE
  5
194D
330
18
100
AcDbEntity
  8
TEXT
100
AcDbPolyline
 90
        2
 70
     0
 43
0.0001332181640625
 10
0.7388899720398699
 20
0.4735703684904893
 10
0.7288986097351811
 20
0.4136221946623638
  0
LWPOLYLINE
  5
194E
330
18
100
AcDbEntity
  8
TEXT
100
AcDbPolyline
 90
        2
 70
     0
 43
0.0006660908203125
 10
0.7388899720398699
 20
0.4735703684904893
 10
0.7388899720398699
 20
0.5002140013029904
  0
LWPOLYLINE
  5
194F
330
18
100
AcDbEntity
  8
TEXT
100
AcDbPolyline
 90
        5
 70
     0
 43
0.0001332181640625
 10
0.7288986097351811
 20
0.4269440110686107
 10
0.7288986097351811
 20
0.4136221946623638
 10
0.7655336048523709
 20
0.4136221946623638
 10
0.7655336048523709
 20
0.3769871995451739
 10
0.7788554212586197
 20
0.3769871995451739
  0
LWPOLYLINE
  5
1950
330
18
100
AcDbEntity
  8
TEXT
100
AcDbPolyline
 90
        2
 70
     0
 43
0.0001332181640625
 10
0.6989245228211183
 20
0.4735703684904893
 10
0.7089158851258089
 20
0.4136221946623638
  0
LWPOLYLINE
  5
1951
330
18
100
AcDbEntity
  8
TEXT
100
AcDbPolyline
 90
        2
 70
     0
 43
0.0001332181640625
 10
0.7089158851258089
 20
0.4269440110686107
 10
0.6989245228211183
 20
0.5002140013029904
  0
LWPOLYLINE
  5
1952
330
18
100
AcDbEntity
  8
TEXT
100
AcDbPolyline
 90
        2
 70
     0
 43
0.0006660908203125
 10
0.6989245228211183
 20
0.4735703684904893
 10
0.6989245228211183
 20
0.5002140013029904
  0
LWPOLYLINE
  5
1953
330
18
100
AcDbEntity
  8
TEXT
100
AcDbPolyline
 90
        2
 70
     0
 43
0.0006660908203125
 10
0.8254817786804945
 20
0.3869785618498627
 10
0.8521254114929956
 20
0.3869785618498627
  0
LWPOLYLINE
  5
1954
330
18
100
AcDbEntity
  8
TEXT
100
AcDbPolyline
 90
        2
 70
     0
 43
0.0
 10
1.570905332241625
 20
0.2852923105294041
 42
0.3318488747599744
 10
1.640024624806939
 20
0.2337409683144758
 42
-6.868794160588311
  0
LINE
  5
1955
330
18
100
AcDbEntity
  8
TEXT
100
AcDbLine
 10
1.638885051310743
 20
0.5682254790417974
 30
0.0
 11
1.572076338744378
 21
0.5682254790417974
 31
0.0
  0
LINE
  5
1956
330
18
100
AcDbEntity
  8
TEXT
100
AcDbLine
 10
1.292733971125284
 20
0.5002140013029868
 30
0.0
 11
1.117002218226772
 21
0.5002140013029868
 31
0.0
  0
ARC
  5
1957
330
18
100
AcDbEntity
  8
TEXT
100
AcDbCircle
 10
1.187839684585322
 20
0.3169367766750328
 30
0.0
 40
0.0831958083605586
100
AcDbArc
 50
270.0
 51
90.0
  0
LINE
  5
1958
330
18
100
AcDbEntity
  8
TEXT
100
AcDbLine
 10
1.122239548341021
 20
0.4359373066462214
 30
0.0
 11
1.289145202369991
 21
0.4359373066462214
 31
0.0
  0
LINE
  5
1959
330
18
100
AcDbEntity
  8
TEXT
100
AcDbLine
 10
1.192780058491601
 20
0.3020979746479151
 30
0.0
 11
1.034914758780267
 21
0.3020979746479151
 31
0.0
  0
LINE
  5
195A
330
18
100
AcDbEntity
  8
TEXT
100
AcDbLine
 10
1.034914758780269
 20
0.2337409683144758
 30
0.0
 11
1.187839684585322
 21
0.2337409683144758
 31
0.0
  0
ARC
  5
195B
330
18
100
AcDbEntity
  8
TEXT
100
AcDbCircle
 10
1.117002218226773
 20
0.4181265418564851
 30
0.0
 40
0.0820874594465043
100
AcDbArc
 50
90.0
 51
270.0
  0
LINE
  5
195C
330
18
100
AcDbEntity
  8
TEXT
100
AcDbLine
 10
1.034914758780267
 20
0.3020979746479151
 30
0.0
 11
1.034914758780269
 21
0.2337409683144758
 31
0.0
  0
LINE
  5
195D
330
18
100
AcDbEntity
  8
TEXT
100
AcDbLine
 10
1.117002218226772
 20
0.3360390824099797
 30
0.0
 11
1.192780058491601
 21
0.3360390824099797
 31
0.0
  0
ARC
  5
195E
330
18
100
AcDbEntity
  8
TEXT
100
AcDbCircle
 10
1.192780058491602
 20
0.3190685285289492
 30
0.0
 40
0.0169705538810321
100
AcDbArc
 50
270.0
 51
90.0
  0
LINE
  5
195F
330
18
100
AcDbEntity
  8
TEXT
100
AcDbLine
 10
1.187839684585322
 20
0.4001325850355935
 30
0.0
 11
1.122239548341021
 21
0.4001325850355935
 31
0.0
  0
ARC
  5
1960
330
18
100
AcDbEntity
  8
TEXT
100
AcDbCircle
 10
1.122239548341021
 20
0.4180349458409092
 30
0.0
 40
0.017902360805315
100
AcDbArc
 50
90.0
 51
270.0
  0
LINE
  5
1961
330
18
100
AcDbEntity
  8
TEXT
100
AcDbLine
 10
1.483205863145136
 20
0.3993420051898662
 30
0.0
 11
1.424575542113198
 21
0.5002140013029868
 31
0.0
  0
LINE
  5
1962
330
18
100
AcDbEntity
  8
TEXT
100
AcDbLine
 10
1.343031809850097
 20
0.2337409683144758
 30
0.0
 11
1.439672060925091
 21
0.2340116074127581
 31
0.0
  0
LWPOLYLINE
  5
1963
330
18
100
AcDbEntity
  8
TEXT
100
AcDbPolyline
 90
        6
 70
     1
 43
0.0
 10
1.385555613425247
 20
0.4359373066462214
 10
1.355239019205038
 20
0.4359373066462214
 10
1.355239019205038
 20
0.312826308591327
 42
0.407328721240804
 10
1.366782670366515
 20
0.3010073939149409
 10
1.427404369411246
 20
0.3010073939149409
 10
1.444869709818564
 20
0.33381962295842
  0
LINE
  5
1964
330
18
100
AcDbEntity
  8
TEXT
100
AcDbLine
 10
1.289145202369991
 20
0.4359373066462214
 30
0.0
 11
1.289145202369991
 21
0.2935333596525256
 31
0.0
  0
ARC
  5
1965
330
18
100
AcDbEntity
  8
TEXT
100
AcDbCircle
 10
1.349261220343743
 20
0.2935333596525256
 30
0.0
 40
0.0601160179737537
100
AcDbArc
 50
180.0000000000003
 51
264.0521544866073
  0
LINE
  5
1966
330
18
100
AcDbEntity
  8
TEXT
100
AcDbLine
 10
1.352776575969291
 20
0.534601918897125
 30
0.0
 11
1.292733971125284
 21
0.534601918897125
 31
0.0
  0
LINE
  5
1967
330
18
100
AcDbEntity
  8
TEXT
100
AcDbLine
 10
1.292733971125284
 20
0.534601918897125
 30
0.0
 11
1.292733971125284
 21
0.5002140013029868
 31
0.0
  0
LINE
  5
1968
330
18
100
AcDbEntity
  8
TEXT
100
AcDbLine
 10
1.352776575969291
 20
0.5002140013029868
 30
0.0
 11
1.352776575969291
 21
0.534601918897125
 31
0.0
  0
LINE
  5
1969
330
18
100
AcDbEntity
  8
TEXT
100
AcDbLine
 10
1.424575542113198
 20
0.5002140013029868
 30
0.0
 11
1.352776575969291
 21
0.5002140013029868
 31
0.0
  0
LINE
  5
196A
330
18
100
AcDbEntity
  8
TEXT
100
AcDbLine
 10
1.473605626148182
 20
0.2536994744194887
 30
0.0
 11
1.570905332241626
 21
0.4180496853547569
 31
0.0
  0
LINE
  5
196B
330
18
100
AcDbEntity
  8
TEXT
100
AcDbLine
 10
1.570905332241626
 20
0.4180496853547569
 30
0.0
 11
1.570905332241626
 21
0.2852923105294005
 31
0.0
  0
ARC
  5
196C
330
18
100
AcDbEntity
  8
TEXT
100
AcDbCircle
 10
1.439562066235968
 20
0.2732886905881715
 30
0.0
 40
0.0392772371940762
100
AcDbArc
 50
270.1604552698595
 51
330.0831797321295
  0
LINE
  5
196D
330
18
100
AcDbEntity
  8
TEXT
100
AcDbLine
 10
1.541954425951002
 20
0.5002140013029868
 30
0.0
 11
1.483205863145136
 21
0.3993420051898662
 31
0.0
  0
LINE
  5
196E
330
18
100
AcDbEntity
  8
TEXT
100
AcDbLine
 10
1.572076338744378
 20
0.5682254790417974
 30
0.0
 11
1.572076338744378
 21
0.5002140013029868
 31
0.0
  0
LINE
  5
196F
330
18
100
AcDbEntity
  8
TEXT
100
AcDbLine
 10
1.572076338744378
 20
0.5002140013029868
 30
0.0
 11
1.541954425951002
 21
0.5002140013029868
 31
0.0
  0
LWPOLYLINE
  5
1970
330
18
100
AcDbEntity
  8
TEXT
100
AcDbPolyline
 90
        4
 70
     0
 43
0.0
 10
1.924162460364536
 20
0.4283835174801114
 10
1.924162460364536
 20
0.2337409683144758
 10
1.992640743652394
 20
0.2337409683144758
 10
1.992640743652394
 20
0.2772319132649139
 42
-1.714843617202739
  0
LWPOLYLINE
  5
1971
330
18
100
AcDbEntity
  8
TEXT
100
AcDbPolyline
 90
        2
 70
     0
 43
0.0
 10
1.959296810908746
 20
0.5002140013029904
 42
-0.3277054968067132
 10
1.995078501621911
 20
0.4718914555333465
 42
6.667889725900311
  0
LWPOLYLINE
  5
1972
330
18
100
AcDbEntity
  8
TEXT
100
AcDbPolyline
 90
        2
 70
     0
 43
0.0
 10
1.787863238329519
 20
0.4359373066462214
 42
-0.4142135623731017
 10
1.795417027495632
 20
0.4283835174801114
 42
-0.9999999999999998
  0
LINE
  5
1973
330
18
100
AcDbEntity
  8
TEXT
100
AcDbLine
 10
1.805214961379539
 20
0.5002140013029868
 30
0.0
 11
1.671196905448403
 21
0.5002140013029868
 31
0.0
  0
LINE
  5
1974
330
18
100
AcDbEntity
  8
TEXT
100
AcDbLine
 10
1.738027958506372
 20
0.2337409683144758
 30
0.0
 11
1.738027958506372
 21
0.4359373066462214
 31
0.0
  0
LINE
  5
1975
330
18
100
AcDbEntity
  8
TEXT
100
AcDbLine
 10
1.671196905448403
 20
0.5002140013029868
 30
0.0
 11
1.671196905448403
 21
0.2993497945705785
 31
0.0
  0
LINE
  5
1976
330
18
100
AcDbEntity
  8
TEXT
100
AcDbLine
 10
1.638885051310743
 20
0.316128806417475
 30
0.0
 11
1.638885051310743
 21
0.5682254790417974
 31
0.0
  0
LINE
  5
1977
330
18
100
AcDbEntity
  8
TEXT
100
AcDbLine
 10
1.640024624806938
 20
0.2337409683144758
 30
0.0
 11
1.738027958506372
 21
0.2337409683144758
 31
0.0
  0
LINE
  5
1978
330
18
100
AcDbEntity
  8
TEXT
100
AcDbLine
 10
1.671196905448403
 20
0.2993497945705785
 30
0.0
 11
1.654203268563802
 21
0.2993497945705785
 31
0.0
  0
ARC
  5
1979
330
18
100
AcDbEntity
  8
TEXT
100
AcDbCircle
 10
1.654203268563801
 20
0.314731600814004
 30
0.0
 40
0.0153818062434269
100
AcDbArc
 50
174.7883570302258
 51
270.0
  0
LINE
  5
197A
330
18
100
AcDbEntity
  8
TEXT
100
AcDbLine
 10
1.738027958506372
 20
0.4359373066462214
 30
0.0
 11
1.78786323832952
 21
0.4359373066462214
 31
0.0
  0
LINE
  5
197B
330
18
100
AcDbEntity
  8
TEXT
100
AcDbLine
 10
1.795417027495633
 20
0.4283835174801114
 30
0.0
 11
1.795417027495633
 21
0.2337409683144758
 31
0.0
  0
LINE
  5
197C
330
18
100
AcDbEntity
  8
TEXT
100
AcDbLine
 10
1.862475074277473
 20
0.2337409683144758
 30
0.0
 11
1.862475074277473
 21
0.4359373066462214
 31
0.0
  0
LINE
  5
197D
330
18
100
AcDbEntity
  8
TEXT
100
AcDbLine
 10
1.795417027495633
 20
0.2337409683144758
 30
0.0
 11
1.862475074277473
 21
0.2337409683144758
 31
0.0
  0
LWPOLYLINE
  5
197E
330
18
100
AcDbEntity
  8
TEXT
100
AcDbPolyline
 90
        3
 70
     0
 43
0.0
 10
1.959296810908746
 20
0.5002140013029904
 10
1.840996652092702
 20
0.5002140013029904
 10
1.840996652092702
 20
0.4730465045420944
 42
-1.960274751411753
  0
LINE
  5
197F
330
18
100
AcDbEntity
  8
TEXT
100
AcDbLine
 10
1.862475074277473
 20
0.4359373066462214
 30
0.0
 11
1.916608671198424
 21
0.4359373066462214
 31
0.0
  0
LWPOLYLINE
  5
1980
330
18
100
AcDbEntity
  8
TEXT
100
AcDbPolyline
 90
        2
 70
     0
 43
0.0
 10
1.80521496137954
 20
0.5002140013029904
 42
-0.3328679258950098
 10
1.840996652092702
 20
0.4730465045420944
 42
6.772930709997214
  0
LWPOLYLINE
  5
1981
330
18
100
AcDbEntity
  8
TEXT
100
AcDbPolyline
 90
        2
 70
     0
 43
0.0
 10
1.916608671198423
 20
0.4359373066462214
 42
-0.4142135623731017
 10
1.924162460364536
 20
0.4283835174801114
 42
-0.9999999999999998
  0
ARC
  5
1982
330
18
100
AcDbEntity
  8
TEXT
100
AcDbCircle
 10
2.127883471061903
 20
0.4586304341820844
 30
0.0
 40
0.0416329381542859
100
AcDbArc
 50
26.56974201007528
 51
87.20939649401342
  0
LWPOLYLINE
  5
1983
330
18
100
AcDbEntity
  8
TEXT
100
AcDbPolyline
 90
        2
 70
     0
 43
0.0
 10
2.03571667652003
 20
0.2337409683144758
 10
2.169734094151406
 20
0.2337409683144758
 42
0.9999999999999998
  0
LWPOLYLINE
  5
1984
330
18
100
AcDbEntity
  8
TEXT
100
AcDbPolyline
 90
        4
 70
     1
 43
0.0
 10
2.149611629081514
 20
0.336704946298501
 10
2.060951310421655
 20
0.336704946298501
 42
0.9999999999999998
 10
2.060951310421655
 20
0.2943064057946403
 10
2.149611629081514
 20
0.2943064057946403
 42
1.0
  0
LWPOLYLINE
  5
1985
330
18
100
AcDbEntity
  8
TEXT
100
AcDbPolyline
 90
        2
 70
     0
 43
0.0
 10
1.992640743652394
 20
0.2772319132649139
 42
0.2901071551932823
 10
2.03571667652003
 20
0.2337409683144758
 42
5.328517124445801
  0
LINE
  5
1986
330
18
100
AcDbEntity
  8
TEXT
100
AcDbLine
 10
2.129910410838971
 20
0.5002140013029868
 30
0.0
 11
1.995078501621912
 21
0.5002140013029868
 31
0.0
  0
LINE
  5
1987
330
18
100
AcDbEntity
  8
TEXT
100
AcDbLine
 10
2.054392598015231
 20
0.398662333184089
 30
0.0
 11
2.136680587798614
 21
0.398662333184089
 31
0.0
  0
LINE
  5
1988
330
18
100
AcDbEntity
  8
TEXT
100
AcDbLine
 10
2.100879512494493
 20
0.4359373066462214
 30
0.0
 11
1.993673239107203
 21
0.4359373066462214
 31
0.0
  0
LINE
  5
1989
330
18
100
AcDbEntity
  8
TEXT
100
AcDbLine
 10
1.995078501621912
 20
0.5002140013029868
 30
0.0
 11
1.995078501621912
 21
0.4718914555333429
 31
0.0
  0
ARC
  5
198A
330
18
100
AcDbEntity
  8
TEXT
100
AcDbCircle
 10
2.05439259801523
 20
0.3309767520399705
 30
0.0
 40
0.0676855811441166
100
AcDbArc
 50
90.0
 51
153.7768192527749
  0
LINE
  5
198B
330
18
100
AcDbEntity
  8
TEXT
100
AcDbLine
 10
1.993673239107203
 20
0.4359373066462214
 30
0.0
 11
1.993673239107203
 21
0.3608849005720147
 31
0.0
  0
LINE
  5
198C
330
18
100
AcDbEntity
  8
TEXT
100
AcDbLine
 10
2.136680587798614
 20
0.398662333184089
 30
0.0
 11
2.126415827385049
 21
0.4199128727567834
 31
0.0
  0
ARC
  5
198D
330
18
100
AcDbEntity
  8
TEXT
100
AcDbCircle
 10
2.100879512494492
 20
0.4075779316462241
 30
0.0
 40
0.028359375
100
AcDbArc
 50
25.78218179591245
 51
90.0
  0
LINE
  5
198E
330
18
100
AcDbEntity
  8
TEXT
100
AcDbLine
 10
2.271165240854386
 20
0.2337409683144758
 30
0.0
 11
2.27116524085438
 21
0.4110314737459442
 31
0.0
  0
LWPOLYLINE
  5
198F
330
18
100
AcDbEntity
  8
TEXT
100
AcDbPolyline
 90
        2
 70
     0
 43
0.0
 10
2.212810027019051
 20
0.2337409683144758
 10
2.271165240854385
 20
0.2337409683144758
  0
LWPOLYLINE
  5
1990
330
18
100
AcDbEntity
  8
TEXT
100
AcDbPolyline
 90
        2
 70
     0
 43
0.0
 10
2.212810027019051
 20
0.2772319132649139
 42
-0.2901071551932486
 10
2.169734094151406
 20
0.2337409683144758
 42
-5.328517124445184
  0
LWPOLYLINE
  5
1991
330
18
100
AcDbEntity
  8
TEXT
100
AcDbPolyline
 90
        2
 70
     0
 43
0.0
 10
2.212810027019051
 20
0.2772319132649139
 10
2.212810027019051
 20
0.2337409683144758
  0
LINE
  5
1992
330
18
100
AcDbEntity
  8
TEXT
100
AcDbLine
 10
2.272767256013513
 20
0.5002140013029868
 30
0.0
 11
2.208870349714012
 21
0.5002140013029868
 31
0.0
  0
LINE
  5
1993
330
18
100
AcDbEntity
  8
TEXT
100
AcDbLine
 10
2.208870349714012
 20
0.5002140013029868
 30
0.0
 11
2.208870349714012
 21
0.3950020227495594
 31
0.0
  0
LINE
  5
1994
330
18
100
AcDbEntity
  8
TEXT
100
AcDbLine
 10
2.208870349714012
 20
0.3950020227495594
 30
0.0
 11
2.16511957853211
 21
0.4772522987457047
 31
0.0
  0
ARC
  5
1995
330
18
100
AcDbEntity
  8
TEXT
100
AcDbCircle
 10
2.296071116137044
 20
0.4110314313635586
 30
0.0
 40
0.0249058752826653
100
AcDbArc
 50
89.99971217465335
 51
179.9999999999985
  0
ARC
  5
1996
330
18
100
AcDbEntity
  8
TEXT
100
AcDbCircle
 10
2.303960073076622
 20
0.468968274020722
 30
0.0
 40
0.0314112657011332
100
AcDbArc
 50
95.88484768694724
 51
173.2388340632136
  0
LINE
  5
1997
330
18
100
AcDbEntity
  8
TEXT
100
AcDbLine
 10
2.272767256013513
 20
0.4726663514421121
 30
0.0
 11
2.272767256013513
 21
0.5002140013029868
 31
0.0
  0
TEXT
  5
1998
330
18
100
AcDbEntity
  8
TEXT
100
AcDbText
 10
2.741642775435304
 20
0.326626776959972
 30
0.0
 40
0.0522247191011236
  1
Minneapolis, MN 55432-0008
 41
1.11444212721585
 72
     5
 11
4.070575359704967
 21
0.326626776959972
 31
0.0
100
AcDbText
  0
TEXT
  5
1999
330
18
100
AcDbEntity
  8
TEXT
100
AcDbText
 10
2.741642775435304
 20
0.4198852039262642
 30
0.0
 40
0.0522247191011236
  1
6536 Main St. N.E. * P.O. Box 32008
 41
0.8388932496075355
 72
     5
 11
4.070575359704967
 21
0.4198852039262642
 31
0.0
100
AcDbText
  0
TEXT
  5
199A
330
18
100
AcDbEntity
  8
TEXT
100
AcDbText
 10
2.741642775435304
 20
0.5131436308925564
 30
0.0
 40
0.0522247191011236
  1
Stylmark  Incorporated
 41
1.221428571428571
 72
     5
 11
4.070575359704967
 21
0.5131436308925564
 31
0.0
100
AcDbText
  0
TEXT
  5
199B
330
18
100
AcDbEntity
  8
TEXT
100
AcDbText
 10
2.741642775435304
 20
0.2333683499936798
 30
0.0
 40
0.0522247191011236
  1
Phone  1-800-328-2495
 41
1.272321428571429
 72
     5
 11
4.070575359704967
 21
0.2333683499936798
 31
0.0
100
AcDbText
  0
LINE
  5
199C
330
18
100
AcDbEntity
  8
TEXT
100
AcDbLine
 10
2.494086963972288
 20
0.3903207583620132
 30
0.0
 11
2.558644079937994
 21
0.5002140013029868
 31
0.0
  0
LINE
  5
199D
330
18
100
AcDbEntity
  8
TEXT
100
AcDbLine
 10
2.558644079937994
 20
0.5002140013029868
 30
0.0
 11
2.483652247208367
 21
0.5002140013029868
 31
0.0
  0
LINE
  5
199E
330
18
100
AcDbEntity
  8
TEXT
100
AcDbLine
 10
2.513000814959693
 20
0.2337409683144758
 30
0.0
 11
2.589579187335899
 21
0.2337409683144758
 31
0.0
  0
LINE
  5
199F
330
18
100
AcDbEntity
  8
TEXT
100
AcDbLine
 10
2.589579187335899
 20
0.2337409683144758
 30
0.0
 11
2.494086963972288
 21
0.3903207583620132
 31
0.0
  0
LINE
  5
19A0
330
18
100
AcDbEntity
  8
TEXT
100
AcDbLine
 10
2.437097281748228
 20
0.2337409683144758
 30
0.0
 11
2.437097281748228
 21
0.365320536790656
 31
0.0
  0
LINE
  5
19A1
330
18
100
AcDbEntity
  8
TEXT
100
AcDbLine
 10
2.437097281748228
 20
0.365320536790656
 30
0.0
 11
2.513000814959693
 21
0.2337409683144758
 31
0.0
  0
LINE
  5
19A2
330
18
100
AcDbEntity
  8
TEXT
100
AcDbLine
 10
2.372719097429603
 20
0.4359373066462214
 30
0.0
 11
2.372719097429608
 21
0.2337409683144758
 31
0.0
  0
LINE
  5
19A3
330
18
100
AcDbEntity
  8
TEXT
100
AcDbLine
 10
2.372719097429608
 20
0.2337409683144758
 30
0.0
 11
2.437097281748228
 21
0.2337409683144758
 31
0.0
  0
LINE
  5
19A4
330
18
100
AcDbEntity
  8
TEXT
100
AcDbLine
 10
2.436554088652381
 20
0.5656782070705875
 30
0.0
 11
2.368239210103108
 21
0.5656782070705875
 31
0.0
  0
LINE
  5
19A5
330
18
100
AcDbEntity
  8
TEXT
100
AcDbLine
 10
2.368239210103108
 20
0.5656782070705875
 30
0.0
 11
2.368239210103102
 21
0.5002140013029868
 31
0.0
  0
LINE
  5
19A6
330
18
100
AcDbEntity
  8
TEXT
100
AcDbLine
 10
2.483652247208365
 20
0.5002140013029868
 30
0.0
 11
2.436554088652381
 21
0.4243486748914487
 31
0.0
  0
LINE
  5
19A7
330
18
100
AcDbEntity
  8
TEXT
100
AcDbLine
 10
2.436554088652381
 20
0.4243486748914487
 30
0.0
 11
2.436554088652381
 21
0.5656782070705875
 31
0.0
  0
VIEWPORT
  5
689
330
15
100
AcDbEntity
 67
     1
  8
0
100
AcDbViewport
 10
6.497041420118343
 20
4.5
 30
0.0
 40
12.99408284023668
 41
9.0
 68
     1
 69
     1
1001
ACAD
1000
MVIEW
1002
{
1070
    16
1010
0.0
1020
0.0
1030
0.0
1010
0.0
1020
0.0
1030
1.0
1040
0.0
1040
9.0
1040
6.497041420118343
1040
4.5
1040
50.0
1040
0.0
1040
0.0
1070
     0
1070
 20000
1070
     1
1070
     1
1070
     0
1070
     0
1070
     0
1070
     0
1040
0.0
1040
0.0
1040
0.0
1040
0.5
1040
0.5
1040
0.5
1040
0.5
1070
     0
1002
{
1002
}
1002
}
  0
ENDSEC
  0
SECTION
  2
OBJECTS
  0
DICTIONARY
  5
C
330
0
100
AcDbDictionary
  3
ACAD_GROUP
350
D
  3
ACAD_LAYOUT
350
19AC
  3
ACAD_MLINESTYLE
350
1B
  3
ACAD_PLOTSETTINGS
350
19AD
  3
ACAD_PLOTSTYLENAME
350
19AA
  3
ACDBHEADERROUNDTRIPXREC
350
19B6
  3
ACDBVARIABLEDICTIONARY
350
5A3
  0
DICTIONARY
  5
19D8
330
18
100
AcDbDictionary
280
     1
  3
ACAD_LAYOUTSELFREF
360
19D9
  0
DICTIONARY
  5
19D6
330
15
100
AcDbDictionary
280
     1
  3
ACAD_LAYOUTSELFREF
360
19D7
  0
DICTIONARY
  5
D
102
{ACAD_REACTORS
330
C
102
}
330
C
100
AcDbDictionary
  3
*A1
350
5D
  3
*A2
350
218
  3
*A3
350
9BF
  3
*A4
350
B78
  3
*A5
350
13E2
  3
*A6
350
159B
  0
DICTIONARY
  5
19AC
102
{ACAD_REACTORS
330
C
102
}
330
C
100
AcDbDictionary
  0
DICTIONARY
  5
1B
102
{ACAD_REACTORS
330
C
102
}
330
C
100
AcDbDictionary
  3
STANDARD
350
1C
  0
DICTIONARY
  5
19AD
102
{ACAD_REACTORS
330
C
102
}
330
C
100
AcDbDictionary
  0
ACDBDICTIONARYWDFLT
  5
19AA
102
{ACAD_REACTORS
330
C
102
}
330
C
100
AcDbDictionary
281
     1
  3
Normal
350
19AB
100
AcDbDictionaryWithDefault
340
19AB
  0
DICTIONARY
  5
19B6
102
{ACAD_REACTORS
330
C
102
}
330
C
100
AcDbDictionary
  3
CEPSNTYPE
350
19C0
  3
FINGERPRINTGUID
350
19C1
  3
HYPERLINKBASE
350
19B9
  3
INSUNITS
350
19BF
  3
LAYOUTDICT
350
19BB
  3
LWETCUNION
350
19BE
  3
PLOTSETDICT
350
19BC
  3
PLOTSTYLNAMDICT
350
19BD
  3
PSVPSCALE
350
19C3
  3
PUCSBASE
350
19C6
  3
PUCSORGBACK
350
19CC
  3
PUCSORGBOTTOM
350
19C8
  3
PUCSORGFRONT
350
19CB
  3
PUCSORGLEFT
350
19C9
  3
PUCSORGRIGHT
350
19CA
  3
PUCSORGTOP
350
19C7
  3
PUCSORTHOREF
350
19C4
  3
PUCSORTHOVIEW
350
19C5
  3
STYLESHEET
350
19BA
  3
TSTACKALIGN
350
19B7
  3
TSTACKSIZE
350
19B8
  3
UCSBASE
350
19CF
  3
UCSORGBACK
350
19D5
  3
UCSORGBOTTOM
350
19D1
  3
UCSORGFRONT
350
19D4
  3
UCSORGLEFT
350
19D2
  3
UCSORGRIGHT
350
19D3
  3
UCSORGTOP
350
19D0
  3
UCSORTHOREF
350
19CD
  3
UCSORTHOVIEW
350
19CE
  3
VERSIONGUID
350
19C2
  0
DICTIONARY
  5
5A3
102
{ACAD_REACTORS
330
C
102
}
330
C
100
AcDbDictionary
  3
DIMASSOC
350
19B4
  3
SORTENTS
350
5A4
  0
XRECORD
  5
19D9
102
{ACAD_REACTORS
330
19D8
102
}
330
19D8
100
AcDbXrecord
340
18
  0
XRECORD
  5
19D7
102
{ACAD_REACTORS
330
19D6
102
}
330
19D6
100
AcDbXrecord
340
15
  0
GROUP
  5
5D
102
{ACAD_REACTORS
330
D
102
}
330
D
100
AcDbGroup
300
BORDER FRAME 10-1-95
 70
     3
 71
     1
  0
GROUP
  5
218
102
{ACAD_REACTORS
330
D
102
}
330
D
100
AcDbGroup
300

 70
     1
 71
     1
  0
GROUP
  5
9BF
102
{ACAD_REACTORS
330
D
102
}
330
D
100
AcDbGroup
300
BORDER FRAME 10-1-95
 70
     3
 71
     1
  0
GROUP
  5
B78
102
{ACAD_REACTORS
330
D
102
}
330
D
100
AcDbGroup
300

 70
     1
 71
     1
  0
GROUP
  5
13E2
102
{ACAD_REACTORS
330
D
102
}
330
D
100
AcDbGroup
300
BORDER FRAME 10-1-95
 70
     3
 71
     1
  0
GROUP
  5
159B
102
{ACAD_REACTORS
330
D
102
}
330
D
100
AcDbGroup
300

 70
     1
 71
     1
  0
MLINESTYLE
  5
1C
102
{ACAD_REACTORS
330
1B
102
}
330
1B
100
AcDbMlineStyle
  2
STANDARD
 70
     0
  3

 62
   256
 51
90.0
 52
90.0
 71
     2
 49
0.5
 62
   256
  6
BYLAYER
 49
-0.5
 62
   256
  6
BYLAYER
  0
ACDBPLACEHOLDER
  5
19AB
102
{ACAD_REACTORS
330
19AA
102
}
330
19AA
100
AcDbPlaceHolder
280
     0
  0
XRECORD
  5
19C0
102
{ACAD_REACTORS
330
19B6
102
}
330
19B6
100
AcDbXrecord
 90
        0
  0
XRECORD
  5
19C1
102
{ACAD_REACTORS
330
19B6
102
}
330
19B6
100
AcDbXrecord
  1
{F49DBE50-8DB8-11D6-88E6-0090279574E7}
  0
XRECORD
  5
19B9
102
{ACAD_REACTORS
330
19B6
102
}
330
19B6
100
AcDbXrecord
  1

  0
XRECORD
  5
19BF
102
{ACAD_REACTORS
330
19B6
102
}
330
19B6
100
AcDbXrecord
 90
        0
  0
XRECORD
  5
19BB
102
{ACAD_REACTORS
330
19B6
102
}
330
19B6
100
AcDbXrecord
340
19AC
  0
XRECORD
  5
19BE
102
{ACAD_REACTORS
330
19B6
102
}
330
19B6
100
AcDbXrecord
 90
    14877
  0
XRECORD
  5
19BC
102
{ACAD_REACTORS
330
19B6
102
}
330
19B6
100
AcDbXrecord
340
19AD
  0
XRECORD
  5
19BD
102
{ACAD_REACTORS
330
19B6
102
}
330
19B6
100
AcDbXrecord
340
19AA
  0
XRECORD
  5
19C3
102
{ACAD_REACTORS
330
19B6
102
}
330
19B6
100
AcDbXrecord
 40
0.0
  0
XRECORD
  5
19C6
102
{ACAD_REACTORS
330
19B6
102
}
330
19B6
100
AcDbXrecord
340
0
  0
XRECORD
  5
19CC
102
{ACAD_REACTORS
330
19B6
102
}
330
19B6
100
AcDbXrecord
 10
0.0
 20
0.0
 30
0.0
  0
XRECORD
  5
19C8
102
{ACAD_REACTORS
330
19B6
102
}
330
19B6
100
AcDbXrecord
 10
0.0
 20
0.0
 30
0.0
  0
XRECORD
  5
19CB
102
{ACAD_REACTORS
330
19B6
102
}
330
19B6
100
AcDbXrecord
 10
0.0
 20
0.0
 30
0.0
  0
XRECORD
  5
19C9
102
{ACAD_REACTORS
330
19B6
102
}
330
19B6
100
AcDbXrecord
 10
0.0
 20
0.0
 30
0.0
  0
XRECORD
  5
19CA
102
{ACAD_REACTORS
330
19B6
102
}
330
19B6
100
AcDbXrecord
 10
0.0
 20
0.0
 30
0.0
  0
XRECORD
  5
19C7
102
{ACAD_REACTORS
330
19B6
102
}
330
19B6
100
AcDbXrecord
 10
0.0
 20
0.0
 30
0.0
  0
XRECORD
  5
19C4
102
{ACAD_REACTORS
330
19B6
102
}
330
19B6
100
AcDbXrecord
340
0
  0
XRECORD
  5
19C5
102
{ACAD_REACTORS
330
19B6
102
}
330
19B6
100
AcDbXrecord
 70
     0
  0
XRECORD
  5
19BA
102
{ACAD_REACTORS
330
19B6
102
}
330
19B6
100
AcDbXrecord
  1

  0
XRECORD
  5
19B7
102
{ACAD_REACTORS
330
19B6
102
}
330
19B6
100
AcDbXrecord
 90
        1
  0
XRECORD
  5
19B8
102
{ACAD_REACTORS
330
19B6
102
}
330
19B6
100
AcDbXrecord
 90
       70
  0
XRECORD
  5
19CF
102
{ACAD_REACTORS
330
19B6
102
}
330
19B6
100
AcDbXrecord
340
0
  0
XRECORD
  5
19D5
102
{ACAD_REACTORS
330
19B6
102
}
330
19B6
100
AcDbXrecord
 10
0.0
 20
0.0
 30
0.0
  0
XRECORD
  5
19D1
102
{ACAD_REACTORS
330
19B6
102
}
330
19B6
100
AcDbXrecord
 10
0.0
 20
0.0
 30
0.0
  0
XRECORD
  5
19D4
102
{ACAD_REACTORS
330
19B6
102
}
330
19B6
100
AcDbXrecord
 10
0.0
 20
0.0
 30
0.0
  0
XRECORD
  5
19D2
102
{ACAD_REACTORS
330
19B6
102
}
330
19B6
100
AcDbXrecord
 10
0.0
 20
0.0
 30
0.0
  0
XRECORD
  5
19D3
102
{ACAD_REACTORS
330
19B6
102
}
330
19B6
100
AcDbXrecord
 10
0.0
 20
0.0
 30
0.0
  0
XRECORD
  5
19D0
102
{ACAD_REACTORS
330
19B6
102
}
330
19B6
100
AcDbXrecord
 10
0.0
 20
0.0
 30
0.0
  0
XRECORD
  5
19CD
102
{ACAD_REACTORS
330
19B6
102
}
330
19B6
100
AcDbXrecord
340
0
  0
XRECORD
  5
19CE
102
{ACAD_REACTORS
330
19B6
102
}
330
19B6
100
AcDbXrecord
 70
     0
  0
XRECORD
  5
19C2
102
{ACAD_REACTORS
330
19B6
102
}
330
19B6
100
AcDbXrecord
  1
{F49DBE52-8DB8-11D6-88E6-0090279574E7}
  0
DICTIONARYVAR
  5
19B4
102
{ACAD_REACTORS
330
5A3
102
}
330
5A3
100
DictionaryVariables
280
     0
  1
1
  0
DICTIONARYVAR
  5
5A4
102
{ACAD_REACTORS
330
5A3
102
}
330
5A3
100
DictionaryVariables
280
     0
  1
96
  0
ENDSEC
  0
EOF
