  0
SECTION
  2
HEADER
  9
$ACADVER
  1
AC1014
  9
$ACADMAINTVER
 70
     9
  9
$DWGCODEPAGE
  3
ANSI_1252
  9
$INSBASE
 10
0.0
 20
0.0
 30
0.0
  9
$EXTMIN
 10
0.7219198420905457
 20
0.3530610429085927
 30
0.0
  9
$EXTMAX
 10
4.444757899892805
 20
2.319436795757689
 30
0.0
  9
$LIMMIN
 10
0.0
 20
0.0
  9
$LIMMAX
 10
12.0
 20
9.0
  9
$ORTHOMODE
 70
     0
  9
$REGENMODE
 70
     1
  9
$FILLMODE
 70
     1
  9
$QTEXTMODE
 70
     0
  9
$MIRRTEXT
 70
     0
  9
$DRAGMODE
 70
     2
  9
$LTSCALE
 40
1.0
  9
$OSMODE
 70
    39
  9
$ATTMODE
 70
     1
  9
$TEXTSIZE
 40
0.125
  9
$TRACEWID
 40
0.05
  9
$TEXTSTYLE
  7
ROMANS
  9
$CLAYER
  8
DIM
  9
$CELTYPE
  6
BYLAYER
  9
$CECOLOR
 62
   256
  9
$CELTSCALE
 40
1.0
  9
$DELOBJ
 70
     1
  9
$DISPSILH
 70
     1
  9
$DIMSCALE
 40
1.0
  9
$DIMASZ
 40
0.125
  9
$DIMEXO
 40
0.125
  9
$DIMDLI
 40
0.38
  9
$DIMRND
 40
0.0
  9
$DIMDLE
 40
0.0
  9
$DIMEXE
 40
0.125
  9
$DIMTP
 40
0.0
  9
$DIMTM
 40
0.0
  9
$DIMTXT
 40
0.125
  9
$DIMCEN
 40
-0.125
  9
$DIMTSZ
 40
0.0
  9
$DIMTOL
 70
     0
  9
$DIMLIM
 70
     0
  9
$DIMTIH
 70
     1
  9
$DIMTOH
 70
     1
  9
$DIMSE1
 70
     0
  9
$DIMSE2
 70
     0
  9
$DIMTAD
 70
     0
  9
$DIMZIN
 70
     4
  9
$DIMBLK
  1

  9
$DIMASO
 70
     1
  9
$DIMSHO
 70
     1
  9
$DIMPOST
  1

  9
$DIMAPOST
  1

  9
$DIMALT
 70
     0
  9
$DIMALTD
 70
     2
  9
$DIMALTF
 40
25.4
  9
$DIMLFAC
 40
0.25
  9
$DIMTOFL
 70
     0
  9
$DIMTVP
 40
0.0
  9
$DIMTIX
 70
     0
  9
$DIMSOXD
 70
     0
  9
$DIMSAH
 70
     0
  9
$DIMBLK1
  1

  9
$DIMBLK2
  1

  9
$DIMSTYLE
  2
QUARTER
  9
$DIMCLRD
 70
     0
  9
$DIMCLRE
 70
     0
  9
$DIMCLRT
 70
     0
  9
$DIMTFAC
 40
1.0
  9
$DIMGAP
 40
0.09
  9
$DIMJUST
 70
     0
  9
$DIMSD1
 70
     0
  9
$DIMSD2
 70
     0
  9
$DIMTOLJ
 70
     1
  9
$DIMTZIN
 70
     4
  9
$DIMALTZ
 70
     0
  9
$DIMALTTZ
 70
     0
  9
$DIMFIT
 70
     3
  9
$DIMUPT
 70
     0
  9
$DIMUNIT
 70
     2
  9
$DIMDEC
 70
     3
  9
$DIMTDEC
 70
     3
  9
$DIMALTU
 70
     2
  9
$DIMALTTD
 70
     2
  9
$DIMTXSTY
  7
ROMANS
  9
$DIMAUNIT
 70
     0
  9
$LUNITS
 70
     2
  9
$LUPREC
 70
     4
  9
$SKETCHINC
 40
0.1
  9
$FILLETRAD
 40
1.0
  9
$AUNITS
 70
     0
  9
$AUPREC
 70
     0
  9
$MENU
  1
.
  9
$ELEVATION
 40
0.0
  9
$PELEVATION
 40
0.0
  9
$THICKNESS
 40
0.0
  9
$LIMCHECK
 70
     0
  9
$BLIPMODE
 70
     0
  9
$CHAMFERA
 40
0.5
  9
$CHAMFERB
 40
0.5
  9
$CHAMFERC
 40
1.0
  9
$CHAMFERD
 40
0.0
  9
$SKPOLY
 70
     0
  9
$TDCREATE
 40
2451107.388147361
  9
$TDUPDATE
 40
2452458.320042696
  9
$TDINDWG
 40
0.7364120486
  9
$TDUSRTIMER
 40
0.7364120486
  9
$USRTIMER
 70
     1
  9
$ANGBASE
 50
0.0
  9
$ANGDIR
 70
     0
  9
$PDMODE
 70
    35
  9
$PDSIZE
 40
-9.0
  9
$PLINEWID
 40
0.0
  9
$COORDS
 70
     2
  9
$SPLFRAME
 70
     0
  9
$SPLINETYPE
 70
     6
  9
$SPLINESEGS
 70
     8
  9
$ATTDIA
 70
     0
  9
$ATTREQ
 70
     1
  9
$HANDLING
 70
 22529
  9
$HANDSEED
  5
2149
  9
$SURFTAB1
 70
     6
  9
$SURFTAB2
 70
     6
  9
$SURFTYPE
 70
     6
  9
$SURFU
 70
     6
  9
$SURFV
 70
     6
  9
$UCSNAME
  2

  9
$UCSORG
 10
0.0
 20
0.0
 30
0.0
  9
$UCSXDIR
 10
1.0
 20
0.0
 30
0.0
  9
$UCSYDIR
 10
0.0
 20
1.0
 30
0.0
  9
$PUCSNAME
  2

  9
$PUCSORG
 10
0.0
 20
0.0
 30
0.0
  9
$PUCSXDIR
 10
1.0
 20
0.0
 30
0.0
  9
$PUCSYDIR
 10
0.0
 20
1.0
 30
0.0
  9
$USERI1
 70
     0
  9
$USERI2
 70
     0
  9
$USERI3
 70
     0
  9
$USERI4
 70
     0
  9
$USERI5
 70
     0
  9
$USERR1
 40
0.0
  9
$USERR2
 40
0.0
  9
$USERR3
 40
0.0
  9
$USERR4
 40
0.0
  9
$USERR5
 40
0.0
  9
$WORLDVIEW
 70
     1
  9
$SHADEDGE
 70
     3
  9
$SHADEDIF
 70
    70
  9
$TILEMODE
 70
     1
  9
$MAXACTVP
 70
    48
  9
$PINSBASE
 10
0.0
 20
0.0
 30
0.0
  9
$PLIMCHECK
 70
     0
  9
$PEXTMIN
 10
1.000000000000000E+20
 20
1.000000000000000E+20
 30
1.000000000000000E+20
  9
$PEXTMAX
 10
-1.000000000000000E+20
 20
-1.000000000000000E+20
 30
-1.000000000000000E+20
  9
$PLIMMIN
 10
0.0
 20
0.0
  9
$PLIMMAX
 10
12.0
 20
9.0
  9
$UNITMODE
 70
     0
  9
$VISRETAIN
 70
     1
  9
$PLINEGEN
 70
     1
  9
$PSLTSCALE
 70
     1
  9
$TREEDEPTH
 70
  3020
  9
$PICKSTYLE
 70
     1
  9
$CMLSTYLE
  2
STANDARD
  9
$CMLJUST
 70
     0
  9
$CMLSCALE
 40
1.0
  9
$PROXYGRAPHICS
 70
     1
  9
$MEASUREMENT
 70
     0
  0
ENDSEC
  0
SECTION
  2
CLASSES
  0
CLASS
  1
LWPOLYLINE
  2
AcDbPolyline
  3
AutoCAD 2000
 90
        0
280
     0
281
     1
  0
CLASS
  1
DICTIONARYVAR
  2
AcDbDictionaryVar
  3
AutoCAD 2000
 90
        0
280
     0
281
     0
  0
CLASS
  1
ACDBDICTIONARYWDFLT
  2
AcDbDictionaryWithDefault
  3
AutoCAD 2000
 90
        0
280
     0
281
     0
  0
CLASS
  1
ACDBPLACEHOLDER
  2
AcDbPlaceHolder
  3
AutoCAD 2000
 90
        0
280
     0
281
     0
  0
CLASS
  1
LAYOUT
  2
AcDbLayout
  3
AutoCAD 2000
 90
        0
280
     0
281
     0
  0
CLASS
  1
LONG_TRANSACTION
  2
AcDbLongTransaction
  3
AutoCAD 2000
 90
        0
280
     0
281
     0
  0
CLASS
  1
LWPOLYLINE
  2
AcDbPolyline
  3
AutoCAD 2000
 90
        0
280
     0
281
     1
  0
CLASS
  1
HATCH
  2
AcDbHatch
  3
AutoCAD 2000
 90
        0
280
     0
281
     1
  0
CLASS
  1
XRECORD
  2
AcDbXrecord
  3
AutoCAD 2000
 90
        0
280
     0
281
     0
  0
ENDSEC
  0
SECTION
  2
TABLES
  0
TABLE
  2
VPORT
  5
8
330
0
100
AcDbSymbolTable
 70
     2
  0
VPORT
  5
2124
330
8
100
AcDbSymbolTableRecord
100
AcDbViewportTableRecord
  2
*ACTIVE
 70
     0
 10
0.0
 20
0.0
 11
1.0
 21
1.0
 12
1.778910532038497
 22
-4.143058444158125
 13
0.0
 23
0.0
 14
0.5
 24
0.5
 15
0.5
 25
0.5
 16
0.0
 26
0.0
 36
1.0
 17
3.926160451945129
 27
5.479511252948558
 37
-0.0300717933567791
 40
2.311244270630614
 41
4.320930232558139
 42
50.0
 43
0.0
 44
0.0
 50
0.0
 51
0.0
 71
     0
 72
  2000
 73
     1
 74
     1
 75
     0
 76
     0
 77
     0
 78
     0
  0
ENDTAB
  0
TABLE
  2
LTYPE
  5
5
330
0
100
AcDbSymbolTable
 70
     1
  0
LTYPE
  5
12
330
5
100
AcDbSymbolTableRecord
100
AcDbLinetypeTableRecord
  2
BYBLOCK
 70
     0
  3

 72
    65
 73
     0
 40
0.0
  0
LTYPE
  5
13
330
5
100
AcDbSymbolTableRecord
100
AcDbLinetypeTableRecord
  2
BYLAYER
 70
     0
  3

 72
    65
 73
     0
 40
0.0
  0
LTYPE
  5
14
330
5
100
AcDbSymbolTableRecord
100
AcDbLinetypeTableRecord
  2
CONTINUOUS
 70
     0
  3
Solid line
 72
    65
 73
     0
 40
0.0
  0
ENDTAB
  0
TABLE
  2
LAYER
  5
2
330
0
100
AcDbSymbolTable
 70
     3
  0
LAYER
  5
E
330
2
100
AcDbSymbolTableRecord
100
AcDbLayerTableRecord
  2
0
 70
     0
 62
     7
  6
CONTINUOUS
  0
LAYER
  5
59
330
2
100
AcDbSymbolTableRecord
100
AcDbLayerTableRecord
  2
TEXT
 70
     0
 62
     3
  6
CONTINUOUS
  0
LAYER
  5
B83
330
2
100
AcDbSymbolTableRecord
100
AcDbLayerTableRecord
  2
DIM
 70
     0
 62
     4
  6
CONTINUOUS
  0
ENDTAB
  0
TABLE
  2
STYLE
  5
3
330
0
100
AcDbSymbolTable
 70
     3
  0
STYLE
  5
F
330
3
100
AcDbSymbolTableRecord
100
AcDbTextStyleTableRecord
  2
STANDARD
 70
     0
 40
0.0
 41
1.0
 50
0.0
 71
     0
 42
0.2
  3
txt
  4

  0
STYLE
  5
5B
330
3
100
AcDbSymbolTableRecord
100
AcDbTextStyleTableRecord
  2
ROMANS
 70
     0
 40
0.0
 41
1.0
 50
0.0
 71
     0
 42
0.125
  3
romans.shx
  4

  0
STYLE
  5
2013
330
3
100
AcDbSymbolTableRecord
100
AcDbTextStyleTableRecord
  2
ITALICC
 70
     0
 40
0.0
 41
1.0
 50
0.0
 71
     0
 42
0.125
  3
italicc
  4

  0
ENDTAB
  0
TABLE
  2
VIEW
  5
6
330
0
100
AcDbSymbolTable
 70
     0
  0
ENDTAB
  0
TABLE
  2
UCS
  5
7
330
0
100
AcDbSymbolTable
 70
     0
  0
ENDTAB
  0
TABLE
  2
APPID
  5
9
330
0
100
AcDbSymbolTable
 70
     2
  0
APPID
  5
10
330
9
100
AcDbSymbolTableRecord
100
AcDbRegAppTableRecord
  2
ACAD
 70
     0
  0
APPID
  5
68C
330
9
100
AcDbSymbolTableRecord
100
AcDbRegAppTableRecord
  2
AME_SOLVIEW
 70
     0
  0
ENDTAB
  0
TABLE
  2
DIMSTYLE
  5
A
330
0
100
AcDbSymbolTable
 70
     2
  0
DIMSTYLE
105
1D
330
A
100
AcDbSymbolTableRecord
100
AcDbDimStyleTableRecord
  2
STANDARD
 70
     0
  3

  4

  5

  6

  7

 40
1.0
 41
0.125
 42
0.125
 43
0.3
 44
0.125
 45
0.0
 46
0.0
 47
0.01
 48
0.01
140
0.125
141
-0.125
142
0.0
143
25.4
144
0.5
145
0.0
146
1.0
147
0.09
 71
     1
 72
     0
 73
     0
 74
     0
 75
     0
 76
     0
 77
     0
 78
     4
170
     0
171
     2
172
     0
173
     0
174
     0
175
     0
176
     0
177
     0
178
     0
270
     2
271
     3
272
     3
273
     2
274
     2
340
5B
275
     0
280
     0
281
     0
282
     0
283
     1
284
     4
285
     0
286
     0
287
     3
288
     0
  0
DIMSTYLE
105
1CB3
330
A
100
AcDbSymbolTableRecord
100
AcDbDimStyleTableRecord
  2
QUARTER
 70
     0
  3

  4

  5

  6

  7

 40
1.0
 41
0.125
 42
0.125
 43
0.38
 44
0.125
 45
0.0
 46
0.0
 47
0.0
 48
0.0
140
0.125
141
-0.125
142
0.0
143
25.4
144
0.25
145
0.0
146
1.0
147
0.09
 71
     0
 72
     0
 73
     1
 74
     1
 75
     0
 76
     0
 77
     0
 78
     4
170
     0
171
     2
172
     0
173
     0
174
     0
175
     0
176
     0
177
     0
178
     0
270
     2
271
     3
272
     3
273
     2
274
     2
340
5B
275
     0
280
     0
281
     0
282
     0
283
     1
284
     4
285
     0
286
     0
287
     3
288
     0
  0
ENDTAB
  0
TABLE
  2
BLOCK_RECORD
  5
1
330
0
100
AcDbSymbolTable
 70
     0
  0
BLOCK_RECORD
  5
18
102
{ACAD_XDICTIONARY
360
2147
102
}
330
1
100
AcDbSymbolTableRecord
100
AcDbBlockTableRecord
  2
*MODEL_SPACE
  0
BLOCK_RECORD
  5
15
102
{ACAD_XDICTIONARY
360
2145
102
}
330
1
100
AcDbSymbolTableRecord
100
AcDbBlockTableRecord
  2
*PAPER_SPACE
  0
ENDTAB
  0
ENDSEC
  0
SECTION
  2
BLOCKS
  0
BLOCK
  5
19
330
18
100
AcDbEntity
  8
0
100
AcDbBlockBegin
  2
*MODEL_SPACE
 70
     0
 10
0.0
 20
0.0
 30
0.0
  3
*MODEL_SPACE
  1

  0
ENDBLK
  5
1A
330
18
100
AcDbEntity
  8
0
100
AcDbBlockEnd
  0
BLOCK
  5
16
330
15
100
AcDbEntity
 67
     1
  8
0
100
AcDbBlockBegin
  2
*PAPER_SPACE
 70
     0
 10
0.0
 20
0.0
 30
0.0
  3
*PAPER_SPACE
  1

  0
ENDBLK
  5
17
330
15
100
AcDbEntity
 67
     1
  8
0
100
AcDbBlockEnd
  0
ENDSEC
  0
SECTION
  2
ENTITIES
  0
LWPOLYLINE
  5
13E9
330
18
100
AcDbEntity
  8
0
  6
CONTINUOUS
100
AcDbPolyline
 90
       18
 70
   129
 43
0.0
 10
2.546998834870233
 20
1.433317634455368
 42
-0.1316524975873953
 10
2.544989215927
 20
1.425817634455368
 10
2.484008453813466
 20
1.320195856190456
 42
0.6370702608074917
 10
2.499603557535237
 20
1.297923739895273
 10
2.596998834870233
 20
1.315097155083016
 10
2.694394112205229
 20
1.297923739895273
 42
0.6370702608074929
 10
2.709989215926999
 20
1.320195856190456
 10
2.649008453813466
 20
1.425817634455368
 42
-0.1316524975873953
 10
2.646998834870232
 20
1.433317634455367
 10
2.646998834870232
 20
2.03734950470059
 42
-0.534511135950792
 10
2.688479337841186
 20
2.065065890675929
 10
4.368221213419786
 20
1.369294024525251
 10
4.444757899892805
 20
1.554069931027509
 10
2.596998834870232
 20
2.319436795757689
 10
0.7492397698476592
 20
1.554069931027509
 10
0.8257764563206766
 20
1.369294024525253
 10
2.50551833189928
 20
2.065065890675929
 42
-0.5345111359507912
 10
2.546998834870233
 20
2.03734950470059
  0
TEXT
  5
2098
330
18
100
AcDbEntity
  8
TEXT
100
AcDbText
 10
1.708949040365307
 20
0.8110796469911743
 30
0.0
 40
0.125
  1
PART #110637
  7
ITALICC
 72
     1
 11
2.464901421317688
 21
0.8110796469911743
 31
0.0
100
AcDbText
  0
LINE
  5
2099
330
18
100
AcDbEntity
  8
TEXT
100
AcDbLine
 10
2.432634920269751
 20
0.5667259609713407
 30
0.0
 11
2.509282901562309
 21
0.5667259609713407
 31
0.0
  0
LINE
  5
209A
330
18
100
AcDbEntity
  8
TEXT
100
AcDbLine
 10
2.504803014235808
 20
0.6310026556281061
 30
0.0
 11
2.437303296586292
 21
0.6310026556281061
 31
0.0
  0
LWPOLYLINE
  5
209B
330
18
100
AcDbEntity
  8
TEXT
100
AcDbPolyline
 90
        5
 70
     0
 43
0.0001332181640625
 10
0.7955228777350763
 20
0.5077758538702933
 10
0.8088446941413248
 20
0.5077758538702933
 10
0.8088446941413248
 20
0.5444108489874831
 10
0.8454796892585147
 20
0.5444108489874831
 10
0.8454796892585147
 20
0.55773266539373
  0
LWPOLYLINE
  5
209C
330
18
100
AcDbEntity
  8
TEXT
100
AcDbPolyline
 90
        3
 70
     0
 43
0.0006660908203125
 10
0.8354883269538241
 20
0.6043590228156086
 10
0.7488965203131995
 20
0.6043590228156086
 10
0.7488965203131995
 20
0.517767216174982
  0
LWPOLYLINE
  5
209D
330
18
100
AcDbEntity
  8
TEXT
100
AcDbPolyline
 90
        3
 70
     0
 43
0.0006660908203125
 10
0.8354883269538241
 20
0.6310026556281097
 10
0.722252887500702
 20
0.6310026556281097
 10
0.722252887500702
 20
0.517767216174982
  0
LWPOLYLINE
  5
209E
330
18
100
AcDbEntity
  8
TEXT
100
AcDbPolyline
 90
        5
 70
     0
 43
0.0001332181640625
 10
0.8454796892585147
 20
0.4378363177374825
 10
0.8454796892585147
 20
0.451158134143733
 10
0.8088446941413266
 20
0.451158134143733
 10
0.8088446941413266
 20
0.4877931292609193
 10
0.7955228777350763
 20
0.4877931292609193
  0
LWPOLYLINE
  5
209F
330
18
100
AcDbEntity
  8
TEXT
100
AcDbPolyline
 90
        3
 70
     0
 43
0.0006660908203125
 10
0.7488965203131995
 20
0.477801766956234
 10
0.7488965203131995
 20
0.3912099603156074
 10
0.8354883269538241
 20
0.3912099603156074
  0
LWPOLYLINE
  5
20A0
330
18
100
AcDbEntity
  8
TEXT
100
AcDbPolyline
 90
        3
 70
     0
 43
0.0006660908203125
 10
0.722252887500702
 20
0.477801766956234
 10
0.722252887500702
 20
0.3645663275031064
 10
0.8354883269538241
 20
0.3645663275031064
  0
LWPOLYLINE
  5
20A1
330
18
100
AcDbEntity
  8
TEXT
100
AcDbPolyline
 90
        2
 70
     0
 43
0.0001332181640625
 10
0.7488965203131995
 20
0.477801766956234
 10
0.8088446941413266
 20
0.4877931292609193
  0
LWPOLYLINE
  5
20A2
330
18
100
AcDbEntity
  8
TEXT
100
AcDbPolyline
 90
        2
 70
     0
 43
0.0001332181640625
 10
0.7955228777350763
 20
0.4877931292609193
 10
0.722252887500702
 20
0.477801766956234
  0
LWPOLYLINE
  5
20A3
330
18
100
AcDbEntity
  8
TEXT
100
AcDbPolyline
 90
        2
 70
     0
 43
0.0006660908203125
 10
0.7488965203131995
 20
0.477801766956234
 10
0.722252887500702
 20
0.477801766956234
  0
LWPOLYLINE
  5
20A4
330
18
100
AcDbEntity
  8
TEXT
100
AcDbPolyline
 90
        2
 70
     0
 43
0.0001332181640625
 10
0.7488965203131995
 20
0.3912099603156074
 10
0.8088446941413266
 20
0.451158134143733
  0
LWPOLYLINE
  5
20A5
330
18
100
AcDbEntity
  8
TEXT
100
AcDbPolyline
 90
        2
 70
     0
 43
0.0006660908203125
 10
0.7488965203131995
 20
0.517767216174982
 10
0.722252887500702
 20
0.517767216174982
  0
LWPOLYLINE
  5
20A6
330
18
100
AcDbEntity
  8
TEXT
100
AcDbPolyline
 90
        2
 70
     0
 43
0.0001332181640625
 10
0.722252887500702
 20
0.517767216174982
 10
0.7955228777350763
 20
0.5077758538702933
  0
LWPOLYLINE
  5
20A7
330
18
100
AcDbEntity
  8
TEXT
100
AcDbPolyline
 90
        2
 70
     0
 43
0.0001332181640625
 10
0.7488965203131995
 20
0.517767216174982
 10
0.8088446941413248
 20
0.5077758538702933
  0
LWPOLYLINE
  5
20A8
330
18
100
AcDbEntity
  8
TEXT
100
AcDbPolyline
 90
        2
 70
     0
 43
0.0001332181640625
 10
0.7488965203131995
 20
0.6043590228156086
 10
0.8088446941413248
 20
0.5444108489874831
  0
LWPOLYLINE
  5
20A9
330
18
100
AcDbEntity
  8
TEXT
100
AcDbPolyline
 90
        5
 70
     0
 43
0.0001332181640625
 10
0.9154192253913254
 20
0.4877931292609193
 10
0.9020974089850767
 20
0.4877931292609193
 10
0.9020974089850767
 20
0.451158134143733
 10
0.8654624138678869
 20
0.451158134143733
 10
0.8654624138678869
 20
0.4378363177374825
  0
LWPOLYLINE
  5
20AA
330
18
100
AcDbEntity
  8
TEXT
100
AcDbPolyline
 90
        2
 70
     0
 43
0.0001332181640625
 10
0.9620455828132005
 20
0.477801766956234
 10
0.9020974089850767
 20
0.4877931292609193
  0
LWPOLYLINE
  5
20AB
330
18
100
AcDbEntity
  8
TEXT
100
AcDbPolyline
 90
        2
 70
     0
 43
0.0001332181640625
 10
0.9886892156257015
 20
0.477801766956234
 10
0.9154192253913254
 20
0.4877931292609193
  0
LWPOLYLINE
  5
20AC
330
18
100
AcDbEntity
  8
TEXT
100
AcDbPolyline
 90
        3
 70
     0
 43
0.0006660908203125
 10
0.8754537761725757
 20
0.3645663275031064
 10
0.9886892156257015
 20
0.3645663275031064
 10
0.9886892156257015
 20
0.477801766956234
  0
LWPOLYLINE
  5
20AD
330
18
100
AcDbEntity
  8
TEXT
100
AcDbPolyline
 90
        3
 70
     0
 43
0.0006660908203125
 10
0.8754537761725757
 20
0.3912099603156074
 10
0.9620455828132005
 20
0.3912099603156074
 10
0.9620455828132005
 20
0.477801766956234
  0
LWPOLYLINE
  5
20AE
330
18
100
AcDbEntity
  8
TEXT
100
AcDbPolyline
 90
        2
 70
     0
 43
0.0001332181640625
 10
0.9620455828132005
 20
0.3912099603156074
 10
0.9020974089850767
 20
0.451158134143733
  0
LWPOLYLINE
  5
20AF
330
18
100
AcDbEntity
  8
TEXT
100
AcDbPolyline
 90
        2
 70
     0
 43
0.0006660908203125
 10
0.8754537761725757
 20
0.3912099603156074
 10
0.8754537761725757
 20
0.3645663275031064
  0
LWPOLYLINE
  5
20B0
330
18
100
AcDbEntity
  8
TEXT
100
AcDbPolyline
 90
        2
 70
     0
 43
0.0001332181640625
 10
0.8654624138678869
 20
0.4378363177374825
 10
0.8754537761725757
 20
0.3645663275031064
  0
LWPOLYLINE
  5
20B1
330
18
100
AcDbEntity
  8
TEXT
100
AcDbPolyline
 90
        2
 70
     0
 43
0.0001332181640625
 10
0.8754537761725757
 20
0.3912099603156074
 10
0.8654624138678869
 20
0.451158134143733
  0
LWPOLYLINE
  5
20B2
330
18
100
AcDbEntity
  8
TEXT
100
AcDbPolyline
 90
        2
 70
     0
 43
0.0001332181640625
 10
0.8354883269538241
 20
0.3645663275031064
 10
0.8454796892585147
 20
0.4378363177374825
  0
LWPOLYLINE
  5
20B3
330
18
100
AcDbEntity
  8
TEXT
100
AcDbPolyline
 90
        2
 70
     0
 43
0.0001332181640625
 10
0.8354883269538241
 20
0.3912099603156074
 10
0.8454796892585147
 20
0.451158134143733
  0
LWPOLYLINE
  5
20B4
330
18
100
AcDbEntity
  8
TEXT
100
AcDbPolyline
 90
        2
 70
     0
 43
0.0006660908203125
 10
0.8354883269538241
 20
0.3912099603156074
 10
0.8354883269538241
 20
0.3645663275031064
  0
LWPOLYLINE
  5
20B5
330
18
100
AcDbEntity
  8
TEXT
100
AcDbPolyline
 90
        2
 70
     0
 43
0.0006660908203125
 10
0.9620455828132005
 20
0.477801766956234
 10
0.9886892156257015
 20
0.477801766956234
  0
LWPOLYLINE
  5
20B6
330
18
100
AcDbEntity
  8
TEXT
100
AcDbPolyline
 90
        2
 70
     0
 43
0.0001332181640625
 10
0.9620455828132005
 20
0.6043590228156086
 10
0.9020974089850767
 20
0.5444108489874831
  0
LWPOLYLINE
  5
20B7
330
18
100
AcDbEntity
  8
TEXT
100
AcDbPolyline
 90
        2
 70
     0
 43
0.0001332181640625
 10
0.9620455828132005
 20
0.517767216174982
 10
0.9020974089850767
 20
0.5077758538702933
  0
LWPOLYLINE
  5
20B8
330
18
100
AcDbEntity
  8
TEXT
100
AcDbPolyline
 90
        2
 70
     0
 43
0.0001332181640625
 10
0.9154192253913254
 20
0.5077758538702933
 10
0.9886892156257015
 20
0.517767216174982
  0
LWPOLYLINE
  5
20B9
330
18
100
AcDbEntity
  8
TEXT
100
AcDbPolyline
 90
        3
 70
     0
 43
0.0006660908203125
 10
0.9620455828132005
 20
0.517767216174982
 10
0.9620455828132005
 20
0.6043590228156086
 10
0.8754537761725757
 20
0.6043590228156086
  0
LWPOLYLINE
  5
20BA
330
18
100
AcDbEntity
  8
TEXT
100
AcDbPolyline
 90
        3
 70
     0
 43
0.0006660908203125
 10
0.9886892156257015
 20
0.517767216174982
 10
0.9886892156257015
 20
0.6310026556281097
 10
0.8754537761725757
 20
0.6310026556281097
  0
LWPOLYLINE
  5
20BB
330
18
100
AcDbEntity
  8
TEXT
100
AcDbPolyline
 90
        2
 70
     0
 43
0.0001332181640625
 10
0.8754537761725757
 20
0.6310026556281097
 10
0.8654624138678869
 20
0.55773266539373
  0
LWPOLYLINE
  5
20BC
330
18
100
AcDbEntity
  8
TEXT
100
AcDbPolyline
 90
        2
 70
     0
 43
0.0001332181640625
 10
0.8754537761725757
 20
0.6043590228156086
 10
0.8654624138678869
 20
0.5444108489874831
  0
LWPOLYLINE
  5
20BD
330
18
100
AcDbEntity
  8
TEXT
100
AcDbPolyline
 90
        2
 70
     0
 43
0.0006660908203125
 10
0.8754537761725757
 20
0.6043590228156086
 10
0.8754537761725757
 20
0.6310026556281097
  0
LWPOLYLINE
  5
20BE
330
18
100
AcDbEntity
  8
TEXT
100
AcDbPolyline
 90
        5
 70
     0
 43
0.0001332181640625
 10
0.8654624138678869
 20
0.55773266539373
 10
0.8654624138678869
 20
0.5444108489874831
 10
0.9020974089850767
 20
0.5444108489874831
 10
0.9020974089850767
 20
0.5077758538702933
 10
0.9154192253913254
 20
0.5077758538702933
  0
LWPOLYLINE
  5
20BF
330
18
100
AcDbEntity
  8
TEXT
100
AcDbPolyline
 90
        2
 70
     0
 43
0.0001332181640625
 10
0.8354883269538241
 20
0.6043590228156086
 10
0.8454796892585147
 20
0.5444108489874831
  0
LWPOLYLINE
  5
20C0
330
18
100
AcDbEntity
  8
TEXT
100
AcDbPolyline
 90
        2
 70
     0
 43
0.0001332181640625
 10
0.8454796892585147
 20
0.55773266539373
 10
0.8354883269538241
 20
0.6310026556281097
  0
LWPOLYLINE
  5
20C1
330
18
100
AcDbEntity
  8
TEXT
100
AcDbPolyline
 90
        2
 70
     0
 43
0.0006660908203125
 10
0.8354883269538241
 20
0.6043590228156086
 10
0.8354883269538241
 20
0.6310026556281097
  0
LWPOLYLINE
  5
20C2
330
18
100
AcDbEntity
  8
TEXT
100
AcDbPolyline
 90
        2
 70
     0
 43
0.0006660908203125
 10
0.9620455828132005
 20
0.517767216174982
 10
0.9886892156257015
 20
0.517767216174982
  0
LWPOLYLINE
  5
20C3
330
18
100
AcDbEntity
  8
TEXT
100
AcDbPolyline
 90
        2
 70
     0
 43
0.0
 10
1.707469136374331
 20
0.4160809648545234
 42
0.3318488747599744
 10
1.776588428939644
 20
0.3645296226395951
 42
-6.868794160588311
  0
LINE
  5
20C4
330
18
100
AcDbEntity
  8
TEXT
100
AcDbLine
 10
1.775448855443449
 20
0.6990141333669167
 30
0.0
 11
1.708640142877084
 21
0.6990141333669167
 31
0.0
  0
LINE
  5
20C5
330
18
100
AcDbEntity
  8
TEXT
100
AcDbLine
 10
1.42929777525799
 20
0.6310026556281061
 30
0.0
 11
1.253566022359478
 21
0.6310026556281061
 31
0.0
  0
ARC
  5
20C6
330
18
100
AcDbEntity
  8
TEXT
100
AcDbCircle
 10
1.324403488718028
 20
0.4477254310001522
 30
0.0
 40
0.0831958083605586
100
AcDbArc
 50
270.0
 51
90.0
  0
LINE
  5
20C7
330
18
100
AcDbEntity
  8
TEXT
100
AcDbLine
 10
1.258803352473726
 20
0.5667259609713407
 30
0.0
 11
1.425709006502697
 21
0.5667259609713407
 31
0.0
  0
LINE
  5
20C8
330
18
100
AcDbEntity
  8
TEXT
100
AcDbLine
 10
1.329343862624307
 20
0.4328866289730345
 30
0.0
 11
1.171478562912973
 21
0.4328866289730345
 31
0.0
  0
LINE
  5
20C9
330
18
100
AcDbEntity
  8
TEXT
100
AcDbLine
 10
1.171478562912975
 20
0.3645296226395951
 30
0.0
 11
1.324403488718028
 21
0.3645296226395951
 31
0.0
  0
ARC
  5
20CA
330
18
100
AcDbEntity
  8
TEXT
100
AcDbCircle
 10
1.253566022359479
 20
0.5489151961816044
 30
0.0
 40
0.0820874594465043
100
AcDbArc
 50
90.0
 51
270.0
  0
LINE
  5
20CB
330
18
100
AcDbEntity
  8
TEXT
100
AcDbLine
 10
1.171478562912973
 20
0.4328866289730345
 30
0.0
 11
1.171478562912975
 21
0.3645296226395951
 31
0.0
  0
LINE
  5
20CC
330
18
100
AcDbEntity
  8
TEXT
100
AcDbLine
 10
1.253566022359478
 20
0.4668277367350991
 30
0.0
 11
1.329343862624307
 21
0.4668277367350991
 31
0.0
  0
ARC
  5
20CD
330
18
100
AcDbEntity
  8
TEXT
100
AcDbCircle
 10
1.329343862624308
 20
0.4498571828540685
 30
0.0
 40
0.0169705538810321
100
AcDbArc
 50
270.0
 51
90.0
  0
LINE
  5
20CE
330
18
100
AcDbEntity
  8
TEXT
100
AcDbLine
 10
1.324403488718028
 20
0.5309212393607128
 30
0.0
 11
1.258803352473726
 21
0.5309212393607128
 31
0.0
  0
ARC
  5
20CF
330
18
100
AcDbEntity
  8
TEXT
100
AcDbCircle
 10
1.258803352473727
 20
0.5488236001660285
 30
0.0
 40
0.017902360805315
100
AcDbArc
 50
90.0
 51
270.0
  0
LINE
  5
20D0
330
18
100
AcDbEntity
  8
TEXT
100
AcDbLine
 10
1.619769667277842
 20
0.5301306595149855
 30
0.0
 11
1.561139346245904
 21
0.6310026556281061
 31
0.0
  0
LINE
  5
20D1
330
18
100
AcDbEntity
  8
TEXT
100
AcDbLine
 10
1.479595613982803
 20
0.3645296226395951
 30
0.0
 11
1.576235865057797
 21
0.3648002617378774
 31
0.0
  0
LWPOLYLINE
  5
20D2
330
18
100
AcDbEntity
  8
TEXT
100
AcDbPolyline
 90
        6
 70
     1
 43
0.0
 10
1.522119417557953
 20
0.5667259609713407
 10
1.491802823337744
 20
0.5667259609713407
 10
1.491802823337744
 20
0.4436149629164463
 42
0.407328721240804
 10
1.503346474499221
 20
0.4317960482400603
 10
1.563968173543952
 20
0.4317960482400603
 10
1.58143351395127
 20
0.4646082772835394
  0
LINE
  5
20D3
330
18
100
AcDbEntity
  8
TEXT
100
AcDbLine
 10
1.425709006502697
 20
0.5667259609713407
 30
0.0
 11
1.425709006502697
 21
0.4243220139776449
 31
0.0
  0
ARC
  5
20D4
330
18
100
AcDbEntity
  8
TEXT
100
AcDbCircle
 10
1.485825024476449
 20
0.4243220139776449
 30
0.0
 40
0.0601160179737537
100
AcDbArc
 50
180.0000000000003
 51
264.0521544866073
  0
LINE
  5
20D5
330
18
100
AcDbEntity
  8
TEXT
100
AcDbLine
 10
1.489340380101997
 20
0.6653905732222443
 30
0.0
 11
1.42929777525799
 21
0.6653905732222443
 31
0.0
  0
LINE
  5
20D6
330
18
100
AcDbEntity
  8
TEXT
100
AcDbLine
 10
1.42929777525799
 20
0.6653905732222443
 30
0.0
 11
1.42929777525799
 21
0.6310026556281061
 31
0.0
  0
LINE
  5
20D7
330
18
100
AcDbEntity
  8
TEXT
100
AcDbLine
 10
1.489340380101997
 20
0.6310026556281061
 30
0.0
 11
1.489340380101997
 21
0.6653905732222443
 31
0.0
  0
LINE
  5
20D8
330
18
100
AcDbEntity
  8
TEXT
100
AcDbLine
 10
1.561139346245904
 20
0.6310026556281061
 30
0.0
 11
1.489340380101997
 21
0.6310026556281061
 31
0.0
  0
LINE
  5
20D9
330
18
100
AcDbEntity
  8
TEXT
100
AcDbLine
 10
1.610169430280888
 20
0.384488128744608
 30
0.0
 11
1.707469136374332
 21
0.5488383396798762
 31
0.0
  0
LINE
  5
20DA
330
18
100
AcDbEntity
  8
TEXT
100
AcDbLine
 10
1.707469136374332
 20
0.5488383396798762
 30
0.0
 11
1.707469136374332
 21
0.4160809648545199
 31
0.0
  0
ARC
  5
20DB
330
18
100
AcDbEntity
  8
TEXT
100
AcDbCircle
 10
1.576125870368674
 20
0.4040773449132909
 30
0.0
 40
0.0392772371940762
100
AcDbArc
 50
270.1604552698595
 51
330.0831797321295
  0
LINE
  5
20DC
330
18
100
AcDbEntity
  8
TEXT
100
AcDbLine
 10
1.678518230083708
 20
0.6310026556281061
 30
0.0
 11
1.619769667277842
 21
0.5301306595149855
 31
0.0
  0
LINE
  5
20DD
330
18
100
AcDbEntity
  8
TEXT
100
AcDbLine
 10
1.708640142877084
 20
0.6990141333669167
 30
0.0
 11
1.708640142877084
 21
0.6310026556281061
 31
0.0
  0
LINE
  5
20DE
330
18
100
AcDbEntity
  8
TEXT
100
AcDbLine
 10
1.708640142877084
 20
0.6310026556281061
 30
0.0
 11
1.678518230083708
 21
0.6310026556281061
 31
0.0
  0
LWPOLYLINE
  5
20DF
330
18
100
AcDbEntity
  8
TEXT
100
AcDbPolyline
 90
        4
 70
     0
 43
0.0
 10
2.060726264497242
 20
0.5591721718052307
 10
2.060726264497242
 20
0.3645296226395951
 10
2.1292045477851
 20
0.3645296226395951
 10
2.1292045477851
 20
0.4080205675900333
 42
-1.714843617202739
  0
LWPOLYLINE
  5
20E0
330
18
100
AcDbEntity
  8
TEXT
100
AcDbPolyline
 90
        2
 70
     0
 43
0.0
 10
2.095860615041452
 20
0.6310026556281097
 42
-0.3277054968067132
 10
2.131642305754617
 20
0.6026801098584658
 42
6.667889725900311
  0
LWPOLYLINE
  5
20E1
330
18
100
AcDbEntity
  8
TEXT
100
AcDbPolyline
 90
        2
 70
     0
 43
0.0
 10
1.924427042462225
 20
0.5667259609713407
 42
-0.4142135623731017
 10
1.931980831628338
 20
0.5591721718052307
 42
-0.9999999999999998
  0
LINE
  5
20E2
330
18
100
AcDbEntity
  8
TEXT
100
AcDbLine
 10
1.941778765512245
 20
0.6310026556281061
 30
0.0
 11
1.807760709581109
 21
0.6310026556281061
 31
0.0
  0
LINE
  5
20E3
330
18
100
AcDbEntity
  8
TEXT
100
AcDbLine
 10
1.874591762639078
 20
0.3645296226395951
 30
0.0
 11
1.874591762639078
 21
0.5667259609713407
 31
0.0
  0
LINE
  5
20E4
330
18
100
AcDbEntity
  8
TEXT
100
AcDbLine
 10
1.807760709581109
 20
0.6310026556281061
 30
0.0
 11
1.807760709581109
 21
0.4301384488956979
 31
0.0
  0
LINE
  5
20E5
330
18
100
AcDbEntity
  8
TEXT
100
AcDbLine
 10
1.775448855443449
 20
0.4469174607425943
 30
0.0
 11
1.775448855443449
 21
0.6990141333669167
 31
0.0
  0
LINE
  5
20E6
330
18
100
AcDbEntity
  8
TEXT
100
AcDbLine
 10
1.776588428939644
 20
0.3645296226395951
 30
0.0
 11
1.874591762639078
 21
0.3645296226395951
 31
0.0
  0
LINE
  5
20E7
330
18
100
AcDbEntity
  8
TEXT
100
AcDbLine
 10
1.807760709581109
 20
0.4301384488956979
 30
0.0
 11
1.790767072696508
 21
0.4301384488956979
 31
0.0
  0
ARC
  5
20E8
330
18
100
AcDbEntity
  8
TEXT
100
AcDbCircle
 10
1.790767072696507
 20
0.4455202551391233
 30
0.0
 40
0.0153818062434269
100
AcDbArc
 50
174.7883570302258
 51
270.0
  0
LINE
  5
20E9
330
18
100
AcDbEntity
  8
TEXT
100
AcDbLine
 10
1.874591762639078
 20
0.5667259609713407
 30
0.0
 11
1.924427042462226
 21
0.5667259609713407
 31
0.0
  0
LINE
  5
20EA
330
18
100
AcDbEntity
  8
TEXT
100
AcDbLine
 10
1.931980831628339
 20
0.5591721718052307
 30
0.0
 11
1.931980831628339
 21
0.3645296226395951
 31
0.0
  0
LINE
  5
20EB
330
18
100
AcDbEntity
  8
TEXT
100
AcDbLine
 10
1.999038878410179
 20
0.3645296226395951
 30
0.0
 11
1.999038878410179
 21
0.5667259609713407
 31
0.0
  0
LINE
  5
20EC
330
18
100
AcDbEntity
  8
TEXT
100
AcDbLine
 10
1.931980831628339
 20
0.3645296226395951
 30
0.0
 11
1.999038878410179
 21
0.3645296226395951
 31
0.0
  0
LWPOLYLINE
  5
20ED
330
18
100
AcDbEntity
  8
TEXT
100
AcDbPolyline
 90
        3
 70
     0
 43
0.0
 10
2.095860615041452
 20
0.6310026556281097
 10
1.977560456225408
 20
0.6310026556281097
 10
1.977560456225408
 20
0.6038351588672138
 42
-1.960274751411753
  0
LINE
  5
20EE
330
18
100
AcDbEntity
  8
TEXT
100
AcDbLine
 10
1.999038878410179
 20
0.5667259609713407
 30
0.0
 11
2.05317247533113
 21
0.5667259609713407
 31
0.0
  0
LWPOLYLINE
  5
20EF
330
18
100
AcDbEntity
  8
TEXT
100
AcDbPolyline
 90
        2
 70
     0
 43
0.0
 10
1.941778765512246
 20
0.6310026556281097
 42
-0.3328679258950098
 10
1.977560456225408
 20
0.6038351588672138
 42
6.772930709997214
  0
LWPOLYLINE
  5
20F0
330
18
100
AcDbEntity
  8
TEXT
100
AcDbPolyline
 90
        2
 70
     0
 43
0.0
 10
2.053172475331129
 20
0.5667259609713407
 42
-0.4142135623731017
 10
2.060726264497242
 20
0.5591721718052307
 42
-0.9999999999999998
  0
ARC
  5
20F1
330
18
100
AcDbEntity
  8
TEXT
100
AcDbCircle
 10
2.264447275194608
 20
0.5894190885072037
 30
0.0
 40
0.0416329381542859
100
AcDbArc
 50
26.56974201007528
 51
87.20939649401342
  0
LWPOLYLINE
  5
20F2
330
18
100
AcDbEntity
  8
TEXT
100
AcDbPolyline
 90
        2
 70
     0
 43
0.0
 10
2.172280480652736
 20
0.3645296226395951
 10
2.306297898284112
 20
0.3645296226395951
 42
0.9999999999999998
  0
LWPOLYLINE
  5
20F3
330
18
100
AcDbEntity
  8
TEXT
100
AcDbPolyline
 90
        4
 70
     1
 43
0.0
 10
2.28617543321422
 20
0.4674936006236204
 10
2.197515114554361
 20
0.4674936006236204
 42
0.9999999999999998
 10
2.197515114554361
 20
0.4250950601197597
 10
2.28617543321422
 20
0.4250950601197597
 42
1.0
  0
LWPOLYLINE
  5
20F4
330
18
100
AcDbEntity
  8
TEXT
100
AcDbPolyline
 90
        2
 70
     0
 43
0.0
 10
2.1292045477851
 20
0.4080205675900333
 42
0.2901071551932823
 10
2.172280480652736
 20
0.3645296226395951
 42
5.328517124445801
  0
LINE
  5
20F5
330
18
100
AcDbEntity
  8
TEXT
100
AcDbLine
 10
2.266474214971677
 20
0.6310026556281061
 30
0.0
 11
2.131642305754618
 21
0.6310026556281061
 31
0.0
  0
LINE
  5
20F6
330
18
100
AcDbEntity
  8
TEXT
100
AcDbLine
 10
2.190956402147937
 20
0.5294509875092084
 30
0.0
 11
2.27324439193132
 21
0.5294509875092084
 31
0.0
  0
LINE
  5
20F7
330
18
100
AcDbEntity
  8
TEXT
100
AcDbLine
 10
2.237443316627198
 20
0.5667259609713407
 30
0.0
 11
2.130237043239909
 21
0.5667259609713407
 31
0.0
  0
LINE
  5
20F8
330
18
100
AcDbEntity
  8
TEXT
100
AcDbLine
 10
2.131642305754618
 20
0.6310026556281061
 30
0.0
 11
2.131642305754618
 21
0.6026801098584622
 31
0.0
  0
ARC
  5
20F9
330
18
100
AcDbEntity
  8
TEXT
100
AcDbCircle
 10
2.190956402147936
 20
0.4617654063650898
 30
0.0
 40
0.0676855811441166
100
AcDbArc
 50
90.0
 51
153.7768192527749
  0
LINE
  5
20FA
330
18
100
AcDbEntity
  8
TEXT
100
AcDbLine
 10
2.130237043239909
 20
0.5667259609713407
 30
0.0
 11
2.130237043239909
 21
0.4916735548971341
 31
0.0
  0
LINE
  5
20FB
330
18
100
AcDbEntity
  8
TEXT
100
AcDbLine
 10
2.27324439193132
 20
0.5294509875092084
 30
0.0
 11
2.262979631517755
 21
0.5507015270819027
 31
0.0
  0
ARC
  5
20FC
330
18
100
AcDbEntity
  8
TEXT
100
AcDbCircle
 10
2.237443316627198
 20
0.5383665859713434
 30
0.0
 40
0.028359375
100
AcDbArc
 50
25.78218179591245
 51
90.0
  0
LINE
  5
20FD
330
18
100
AcDbEntity
  8
TEXT
100
AcDbLine
 10
2.407729044987092
 20
0.3645296226395951
 30
0.0
 11
2.407729044987086
 21
0.5418201280710635
 31
0.0
  0
LWPOLYLINE
  5
20FE
330
18
100
AcDbEntity
  8
TEXT
100
AcDbPolyline
 90
        2
 70
     0
 43
0.0
 10
2.349373831151757
 20
0.3645296226395951
 10
2.407729044987091
 20
0.3645296226395951
  0
LWPOLYLINE
  5
20FF
330
18
100
AcDbEntity
  8
TEXT
100
AcDbPolyline
 90
        2
 70
     0
 43
0.0
 10
2.349373831151757
 20
0.4080205675900333
 42
-0.2901071551932486
 10
2.306297898284112
 20
0.3645296226395951
 42
-5.328517124445184
  0
LWPOLYLINE
  5
2100
330
18
100
AcDbEntity
  8
TEXT
100
AcDbPolyline
 90
        2
 70
     0
 43
0.0
 10
2.349373831151757
 20
0.4080205675900333
 10
2.349373831151757
 20
0.3645296226395951
  0
LINE
  5
2101
330
18
100
AcDbEntity
  8
TEXT
100
AcDbLine
 10
2.409331060146219
 20
0.6310026556281061
 30
0.0
 11
2.345434153846718
 21
0.6310026556281061
 31
0.0
  0
LINE
  5
2102
330
18
100
AcDbEntity
  8
TEXT
100
AcDbLine
 10
2.345434153846718
 20
0.6310026556281061
 30
0.0
 11
2.345434153846718
 21
0.5257906770746788
 31
0.0
  0
LINE
  5
2103
330
18
100
AcDbEntity
  8
TEXT
100
AcDbLine
 10
2.345434153846718
 20
0.5257906770746788
 30
0.0
 11
2.301683382664816
 21
0.608040953070824
 31
0.0
  0
ARC
  5
2104
330
18
100
AcDbEntity
  8
TEXT
100
AcDbCircle
 10
2.43263492026975
 20
0.5418200856886779
 30
0.0
 40
0.0249058752826653
100
AcDbArc
 50
89.99971217465335
 51
179.9999999999985
  0
ARC
  5
2105
330
18
100
AcDbEntity
  8
TEXT
100
AcDbCircle
 10
2.440523877209328
 20
0.5997569283458413
 30
0.0
 40
0.0314112657011332
100
AcDbArc
 50
95.88484768694724
 51
173.2388340632136
  0
LINE
  5
2106
330
18
100
AcDbEntity
  8
TEXT
100
AcDbLine
 10
2.409331060146219
 20
0.6034550057672315
 30
0.0
 11
2.409331060146219
 21
0.6310026556281061
 31
0.0
  0
TEXT
  5
2107
330
18
100
AcDbEntity
  8
TEXT
100
AcDbText
 10
2.87820657956801
 20
0.4574154312850914
 30
0.0
 40
0.0522247191011236
  1
Minneapolis, MN 55432-0008
 41
1.11444212721585
 72
     5
 11
4.207139163837673
 21
0.4574154312850914
 31
0.0
100
AcDbText
  0
TEXT
  5
2108
330
18
100
AcDbEntity
  8
TEXT
100
AcDbText
 10
2.87820657956801
 20
0.5506738582513835
 30
0.0
 40
0.0522247191011236
  1
6536 Main St. N.E. * P.O. Box 32008
 41
0.8388932496075355
 72
     5
 11
4.207139163837673
 21
0.5506738582513835
 31
0.0
100
AcDbText
  0
TEXT
  5
2109
330
18
100
AcDbEntity
  8
TEXT
100
AcDbText
 10
2.87820657956801
 20
0.6439322852176757
 30
0.0
 40
0.0522247191011236
  1
Stylmark  Incorporated
 41
1.221428571428571
 72
     5
 11
4.207139163837673
 21
0.6439322852176757
 31
0.0
100
AcDbText
  0
TEXT
  5
210A
330
18
100
AcDbEntity
  8
TEXT
100
AcDbText
 10
2.87820657956801
 20
0.3641570043187992
 30
0.0
 40
0.0522247191011236
  1
Phone  1-800-328-2495
 41
1.272321428571429
 72
     5
 11
4.207139163837673
 21
0.3641570043187992
 31
0.0
100
AcDbText
  0
LINE
  5
210B
330
18
100
AcDbEntity
  8
TEXT
100
AcDbLine
 10
2.630650768104994
 20
0.5211094126871326
 30
0.0
 11
2.6952078840707
 21
0.6310026556281061
 31
0.0
  0
LINE
  5
210C
330
18
100
AcDbEntity
  8
TEXT
100
AcDbLine
 10
2.6952078840707
 20
0.6310026556281061
 30
0.0
 11
2.620216051341073
 21
0.6310026556281061
 31
0.0
  0
LINE
  5
210D
330
18
100
AcDbEntity
  8
TEXT
100
AcDbLine
 10
2.649564619092399
 20
0.3645296226395951
 30
0.0
 11
2.726142991468605
 21
0.3645296226395951
 31
0.0
  0
LINE
  5
210E
330
18
100
AcDbEntity
  8
TEXT
100
AcDbLine
 10
2.726142991468605
 20
0.3645296226395951
 30
0.0
 11
2.630650768104994
 21
0.5211094126871326
 31
0.0
  0
LINE
  5
210F
330
18
100
AcDbEntity
  8
TEXT
100
AcDbLine
 10
2.573661085880934
 20
0.3645296226395951
 30
0.0
 11
2.573661085880934
 21
0.4961091911157754
 31
0.0
  0
LINE
  5
2110
330
18
100
AcDbEntity
  8
TEXT
100
AcDbLine
 10
2.573661085880934
 20
0.4961091911157754
 30
0.0
 11
2.649564619092399
 21
0.3645296226395951
 31
0.0
  0
LINE
  5
2111
330
18
100
AcDbEntity
  8
TEXT
100
AcDbLine
 10
2.509282901562309
 20
0.5667259609713407
 30
0.0
 11
2.509282901562314
 21
0.3645296226395951
 31
0.0
  0
LINE
  5
2112
330
18
100
AcDbEntity
  8
TEXT
100
AcDbLine
 10
2.509282901562314
 20
0.3645296226395951
 30
0.0
 11
2.573661085880934
 21
0.3645296226395951
 31
0.0
  0
LINE
  5
2113
330
18
100
AcDbEntity
  8
TEXT
100
AcDbLine
 10
2.573117892785087
 20
0.6964668613957068
 30
0.0
 11
2.504803014235814
 21
0.6964668613957068
 31
0.0
  0
LINE
  5
2114
330
18
100
AcDbEntity
  8
TEXT
100
AcDbLine
 10
2.504803014235814
 20
0.6964668613957068
 30
0.0
 11
2.504803014235808
 21
0.6310026556281061
 31
0.0
  0
LINE
  5
2115
330
18
100
AcDbEntity
  8
TEXT
100
AcDbLine
 10
2.620216051341071
 20
0.6310026556281061
 30
0.0
 11
2.573117892785087
 21
0.555137329216568
 31
0.0
  0
LINE
  5
2116
330
18
100
AcDbEntity
  8
TEXT
100
AcDbLine
 10
2.573117892785087
 20
0.555137329216568
 30
0.0
 11
2.573117892785087
 21
0.6964668613957068
 31
0.0
  0
VIEWPORT
  5
689
330
15
100
AcDbEntity
 67
     1
  8
0
100
AcDbViewport
 10
6.497041420118343
 20
4.5
 30
0.0
 40
12.99408284023668
 41
9.0
 68
     1
 69
     1
1001
ACAD
1000
MVIEW
1002
{
1070
    16
1010
0.0
1020
0.0
1030
0.0
1010
0.0
1020
0.0
1030
1.0
1040
0.0
1040
9.0
1040
6.497041420118343
1040
4.5
1040
50.0
1040
0.0
1040
0.0
1070
     0
1070
 20000
1070
     1
1070
     1
1070
     0
1070
     0
1070
     0
1070
     0
1040
0.0
1040
0.0
1040
0.0
1040
0.5
1040
0.5
1040
0.5
1040
0.5
1070
     0
1002
{
1002
}
1002
}
  0
ENDSEC
  0
SECTION
  2
OBJECTS
  0
DICTIONARY
  5
C
330
0
100
AcDbDictionary
  3
ACAD_GROUP
350
D
  3
ACAD_LAYOUT
350
211B
  3
ACAD_MLINESTYLE
350
1B
  3
ACAD_PLOTSETTINGS
350
211C
  3
ACAD_PLOTSTYLENAME
350
2119
  3
ACDBHEADERROUNDTRIPXREC
350
2125
  3
ACDBVARIABLEDICTIONARY
350
5A3
  0
DICTIONARY
  5
2147
330
18
100
AcDbDictionary
280
     1
  3
ACAD_LAYOUTSELFREF
360
2148
  0
DICTIONARY
  5
2145
330
15
100
AcDbDictionary
280
     1
  3
ACAD_LAYOUTSELFREF
360
2146
  0
DICTIONARY
  5
D
102
{ACAD_REACTORS
330
C
102
}
330
C
100
AcDbDictionary
  3
*A1
350
5D
  3
*A10
350
F08
  3
*A11
350
11AD
  3
*A12
350
1519
  3
*A13
350
16D2
  3
*A14
350
1CB4
  3
*A2
350
1CB5
  3
*A3
350
1FB5
  3
*A4
350
218
  3
*A5
350
9BF
  3
*A6
350
B78
  3
*A7
350
F05
  3
*A8
350
F06
  3
*A9
350
F07
  0
DICTIONARY
  5
211B
102
{ACAD_REACTORS
330
C
102
}
330
C
100
AcDbDictionary
  0
DICTIONARY
  5
1B
102
{ACAD_REACTORS
330
C
102
}
330
C
100
AcDbDictionary
  3
STANDARD
350
1C
  0
DICTIONARY
  5
211C
102
{ACAD_REACTORS
330
C
102
}
330
C
100
AcDbDictionary
  0
ACDBDICTIONARYWDFLT
  5
2119
102
{ACAD_REACTORS
330
C
102
}
330
C
100
AcDbDictionary
281
     1
  3
Normal
350
211A
100
AcDbDictionaryWithDefault
340
211A
  0
DICTIONARY
  5
2125
102
{ACAD_REACTORS
330
C
102
}
330
C
100
AcDbDictionary
  3
CEPSNTYPE
350
212F
  3
FINGERPRINTGUID
350
2130
  3
HYPERLINKBASE
350
2128
  3
INSUNITS
350
212E
  3
LAYOUTDICT
350
212A
  3
LWETCUNION
350
212D
  3
PLOTSETDICT
350
212B
  3
PLOTSTYLNAMDICT
350
212C
  3
PSVPSCALE
350
2132
  3
PUCSBASE
350
2135
  3
PUCSORGBACK
350
213B
  3
PUCSORGBOTTOM
350
2137
  3
PUCSORGFRONT
350
213A
  3
PUCSORGLEFT
350
2138
  3
PUCSORGRIGHT
350
2139
  3
PUCSORGTOP
350
2136
  3
PUCSORTHOREF
350
2133
  3
PUCSORTHOVIEW
350
2134
  3
STYLESHEET
350
2129
  3
TSTACKALIGN
350
2126
  3
TSTACKSIZE
350
2127
  3
UCSBASE
350
213E
  3
UCSORGBACK
350
2144
  3
UCSORGBOTTOM
350
2140
  3
UCSORGFRONT
350
2143
  3
UCSORGLEFT
350
2141
  3
UCSORGRIGHT
350
2142
  3
UCSORGTOP
350
213F
  3
UCSORTHOREF
350
213C
  3
UCSORTHOVIEW
350
213D
  3
VERSIONGUID
350
2131
  0
DICTIONARY
  5
5A3
102
{ACAD_REACTORS
330
C
102
}
330
C
100
AcDbDictionary
  3
DIMASSOC
350
2123
  3
SORTENTS
350
5A4
  0
XRECORD
  5
2148
102
{ACAD_REACTORS
330
2147
102
}
330
2147
100
AcDbXrecord
340
18
  0
XRECORD
  5
2146
102
{ACAD_REACTORS
330
2145
102
}
330
2145
100
AcDbXrecord
340
15
  0
GROUP
  5
5D
102
{ACAD_REACTORS
330
D
102
}
330
D
100
AcDbGroup
300
BORDER FRAME 10-1-95
 70
     3
 71
     1
  0
GROUP
  5
F08
102
{ACAD_REACTORS
330
D
102
}
330
D
100
AcDbGroup
300

 70
     3
 71
     1
  0
GROUP
  5
11AD
102
{ACAD_REACTORS
330
D
102
}
330
D
100
AcDbGroup
300

 70
     1
 71
     1
  0
GROUP
  5
1519
102
{ACAD_REACTORS
330
D
102
}
330
D
100
AcDbGroup
300
BORDER FRAME 10-1-95
 70
     3
 71
     1
  0
GROUP
  5
16D2
102
{ACAD_REACTORS
330
D
102
}
330
D
100
AcDbGroup
300

 70
     1
 71
     1
  0
GROUP
  5
1CB4
102
{ACAD_REACTORS
330
D
102
}
330
D
100
AcDbGroup
300
BORDER FRAME 10-1-95
 70
     3
 71
     1
  0
GROUP
  5
1CB5
102
{ACAD_REACTORS
330
D
102
}
330
D
100
AcDbGroup
300

 70
     3
 71
     1
  0
GROUP
  5
1FB5
102
{ACAD_REACTORS
330
D
102
}
330
D
100
AcDbGroup
300

 70
     1
 71
     1
  0
GROUP
  5
218
102
{ACAD_REACTORS
330
D
102
}
330
D
100
AcDbGroup
300

 70
     1
 71
     1
  0
GROUP
  5
9BF
102
{ACAD_REACTORS
330
D
102
}
330
D
100
AcDbGroup
300
BORDER FRAME 10-1-95
 70
     3
 71
     1
  0
GROUP
  5
B78
102
{ACAD_REACTORS
330
D
102
}
330
D
100
AcDbGroup
300

 70
     1
 71
     1
  0
GROUP
  5
F05
102
{ACAD_REACTORS
330
D
102
}
330
D
100
AcDbGroup
300
BORDER FRAME 10-1-95
 70
     3
 71
     1
  0
GROUP
  5
F06
102
{ACAD_REACTORS
330
D
102
}
330
D
100
AcDbGroup
300

 70
     1
 71
     1
  0
GROUP
  5
F07
102
{ACAD_REACTORS
330
D
102
}
330
D
100
AcDbGroup
300
BORDER FRAME 10-1-95
 70
     3
 71
     1
  0
MLINESTYLE
  5
1C
102
{ACAD_REACTORS
330
1B
102
}
330
1B
100
AcDbMlineStyle
  2
STANDARD
 70
     0
  3

 62
   256
 51
90.0
 52
90.0
 71
     2
 49
0.5
 62
   256
  6
BYLAYER
 49
-0.5
 62
   256
  6
BYLAYER
  0
ACDBPLACEHOLDER
  5
211A
102
{ACAD_REACTORS
330
2119
102
}
330
2119
100
AcDbPlaceHolder
280
     0
  0
XRECORD
  5
212F
102
{ACAD_REACTORS
330
2125
102
}
330
2125
100
AcDbXrecord
 90
        0
  0
XRECORD
  5
2130
102
{ACAD_REACTORS
330
2125
102
}
330
2125
100
AcDbXrecord
  1
{EFA66250-8DB8-11D6-88E6-0090279574E7}
  0
XRECORD
  5
2128
102
{ACAD_REACTORS
330
2125
102
}
330
2125
100
AcDbXrecord
  1

  0
XRECORD
  5
212E
102
{ACAD_REACTORS
330
2125
102
}
330
2125
100
AcDbXrecord
 90
        0
  0
XRECORD
  5
212A
102
{ACAD_REACTORS
330
2125
102
}
330
2125
100
AcDbXrecord
340
211B
  0
XRECORD
  5
212D
102
{ACAD_REACTORS
330
2125
102
}
330
2125
100
AcDbXrecord
 90
    14877
  0
XRECORD
  5
212B
102
{ACAD_REACTORS
330
2125
102
}
330
2125
100
AcDbXrecord
340
211C
  0
XRECORD
  5
212C
102
{ACAD_REACTORS
330
2125
102
}
330
2125
100
AcDbXrecord
340
2119
  0
XRECORD
  5
2132
102
{ACAD_REACTORS
330
2125
102
}
330
2125
100
AcDbXrecord
 40
0.0
  0
XRECORD
  5
2135
102
{ACAD_REACTORS
330
2125
102
}
330
2125
100
AcDbXrecord
340
0
  0
XRECORD
  5
213B
102
{ACAD_REACTORS
330
2125
102
}
330
2125
100
AcDbXrecord
 10
0.0
 20
0.0
 30
0.0
  0
XRECORD
  5
2137
102
{ACAD_REACTORS
330
2125
102
}
330
2125
100
AcDbXrecord
 10
0.0
 20
0.0
 30
0.0
  0
XRECORD
  5
213A
102
{ACAD_REACTORS
330
2125
102
}
330
2125
100
AcDbXrecord
 10
0.0
 20
0.0
 30
0.0
  0
XRECORD
  5
2138
102
{ACAD_REACTORS
330
2125
102
}
330
2125
100
AcDbXrecord
 10
0.0
 20
0.0
 30
0.0
  0
XRECORD
  5
2139
102
{ACAD_REACTORS
330
2125
102
}
330
2125
100
AcDbXrecord
 10
0.0
 20
0.0
 30
0.0
  0
XRECORD
  5
2136
102
{ACAD_REACTORS
330
2125
102
}
330
2125
100
AcDbXrecord
 10
0.0
 20
0.0
 30
0.0
  0
XRECORD
  5
2133
102
{ACAD_REACTORS
330
2125
102
}
330
2125
100
AcDbXrecord
340
0
  0
XRECORD
  5
2134
102
{ACAD_REACTORS
330
2125
102
}
330
2125
100
AcDbXrecord
 70
     0
  0
XRECORD
  5
2129
102
{ACAD_REACTORS
330
2125
102
}
330
2125
100
AcDbXrecord
  1

  0
XRECORD
  5
2126
102
{ACAD_REACTORS
330
2125
102
}
330
2125
100
AcDbXrecord
 90
        1
  0
XRECORD
  5
2127
102
{ACAD_REACTORS
330
2125
102
}
330
2125
100
AcDbXrecord
 90
       70
  0
XRECORD
  5
213E
102
{ACAD_REACTORS
330
2125
102
}
330
2125
100
AcDbXrecord
340
0
  0
XRECORD
  5
2144
102
{ACAD_REACTORS
330
2125
102
}
330
2125
100
AcDbXrecord
 10
0.0
 20
0.0
 30
0.0
  0
XRECORD
  5
2140
102
{ACAD_REACTORS
330
2125
102
}
330
2125
100
AcDbXrecord
 10
0.0
 20
0.0
 30
0.0
  0
XRECORD
  5
2143
102
{ACAD_REACTORS
330
2125
102
}
330
2125
100
AcDbXrecord
 10
0.0
 20
0.0
 30
0.0
  0
XRECORD
  5
2141
102
{ACAD_REACTORS
330
2125
102
}
330
2125
100
AcDbXrecord
 10
0.0
 20
0.0
 30
0.0
  0
XRECORD
  5
2142
102
{ACAD_REACTORS
330
2125
102
}
330
2125
100
AcDbXrecord
 10
0.0
 20
0.0
 30
0.0
  0
XRECORD
  5
213F
102
{ACAD_REACTORS
330
2125
102
}
330
2125
100
AcDbXrecord
 10
0.0
 20
0.0
 30
0.0
  0
XRECORD
  5
213C
102
{ACAD_REACTORS
330
2125
102
}
330
2125
100
AcDbXrecord
340
0
  0
XRECORD
  5
213D
102
{ACAD_REACTORS
330
2125
102
}
330
2125
100
AcDbXrecord
 70
     0
  0
XRECORD
  5
2131
102
{ACAD_REACTORS
330
2125
102
}
330
2125
100
AcDbXrecord
  1
{EFA66252-8DB8-11D6-88E6-0090279574E7}
  0
DICTIONARYVAR
  5
2123
102
{ACAD_REACTORS
330
5A3
102
}
330
5A3
100
DictionaryVariables
280
     0
  1
1
  0
DICTIONARYVAR
  5
5A4
102
{ACAD_REACTORS
330
5A3
102
}
330
5A3
100
DictionaryVariables
280
     0
  1
96
  0
ENDSEC
  0
EOF
