  0
SECTION
  2
HEADER
  9
$ACADVER
  1
AC1014
  9
$ACADMAINTVER
 70
     9
  9
$DWGCODEPAGE
  3
ANSI_1252
  9
$INSBASE
 10
0.0
 20
0.0
 30
0.0
  9
$EXTMIN
 10
-0.1170339449185505
 20
0.1590803329120087
 30
0.0
  9
$EXTMAX
 10
3.368185376828577
 20
1.919583556984875
 30
0.0
  9
$LIMMIN
 10
0.0
 20
0.0
  9
$LIMMAX
 10
12.0
 20
9.0
  9
$ORTHOMODE
 70
     1
  9
$REGENMODE
 70
     1
  9
$FILLMODE
 70
     1
  9
$QTEXTMODE
 70
     0
  9
$MIRRTEXT
 70
     0
  9
$DRAGMODE
 70
     2
  9
$LTSCALE
 40
1.0
  9
$OSMODE
 70
    39
  9
$ATTMODE
 70
     1
  9
$TEXTSIZE
 40
0.125
  9
$TRACEWID
 40
0.05
  9
$TEXTSTYLE
  7
ROMANS
  9
$CLAYER
  8
0
  9
$CELTYPE
  6
BYLAYER
  9
$CECOLOR
 62
   256
  9
$CELTSCALE
 40
1.0
  9
$DELOBJ
 70
     1
  9
$DISPSILH
 70
     1
  9
$DIMSCALE
 40
1.0
  9
$DIMASZ
 40
0.125
  9
$DIMEXO
 40
0.125
  9
$DIMDLI
 40
0.3
  9
$DIMRND
 40
0.0
  9
$DIMDLE
 40
0.0
  9
$DIMEXE
 40
0.125
  9
$DIMTP
 40
0.005
  9
$DIMTM
 40
0.005
  9
$DIMTXT
 40
0.125
  9
$DIMCEN
 40
-0.125
  9
$DIMTSZ
 40
0.0
  9
$DIMTOL
 70
     0
  9
$DIMLIM
 70
     0
  9
$DIMTIH
 70
     1
  9
$DIMTOH
 70
     1
  9
$DIMSE1
 70
     0
  9
$DIMSE2
 70
     0
  9
$DIMTAD
 70
     0
  9
$DIMZIN
 70
     4
  9
$DIMBLK
  1

  9
$DIMASO
 70
     1
  9
$DIMSHO
 70
     1
  9
$DIMPOST
  1

  9
$DIMAPOST
  1

  9
$DIMALT
 70
     0
  9
$DIMALTD
 70
     2
  9
$DIMALTF
 40
25.4
  9
$DIMLFAC
 40
0.5
  9
$DIMTOFL
 70
     0
  9
$DIMTVP
 40
0.0
  9
$DIMTIX
 70
     0
  9
$DIMSOXD
 70
     0
  9
$DIMSAH
 70
     0
  9
$DIMBLK1
  1

  9
$DIMBLK2
  1

  9
$DIMSTYLE
  2
STANDARD
  9
$DIMCLRD
 70
     0
  9
$DIMCLRE
 70
     0
  9
$DIMCLRT
 70
     0
  9
$DIMTFAC
 40
1.0
  9
$DIMGAP
 40
0.09
  9
$DIMJUST
 70
     0
  9
$DIMSD1
 70
     0
  9
$DIMSD2
 70
     0
  9
$DIMTOLJ
 70
     1
  9
$DIMTZIN
 70
     4
  9
$DIMALTZ
 70
     0
  9
$DIMALTTZ
 70
     0
  9
$DIMFIT
 70
     3
  9
$DIMUPT
 70
     1
  9
$DIMUNIT
 70
     2
  9
$DIMDEC
 70
     3
  9
$DIMTDEC
 70
     3
  9
$DIMALTU
 70
     2
  9
$DIMALTTD
 70
     2
  9
$DIMTXSTY
  7
ROMANS
  9
$DIMAUNIT
 70
     0
  9
$LUNITS
 70
     2
  9
$LUPREC
 70
     4
  9
$SKETCHINC
 40
0.1
  9
$FILLETRAD
 40
0.25
  9
$AUNITS
 70
     0
  9
$AUPREC
 70
     0
  9
$MENU
  1
.
  9
$ELEVATION
 40
0.0
  9
$PELEVATION
 40
0.0
  9
$THICKNESS
 40
0.0
  9
$LIMCHECK
 70
     0
  9
$BLIPMODE
 70
     0
  9
$CHAMFERA
 40
0.5
  9
$CHAMFERB
 40
0.5
  9
$CHAMFERC
 40
1.0
  9
$CHAMFERD
 40
0.0
  9
$SKPOLY
 70
     0
  9
$TDCREATE
 40
2451107.388147361
  9
$TDUPDATE
 40
2452458.319943587
  9
$TDINDWG
 40
1.0538206481
  9
$TDUSRTIMER
 40
1.0538206481
  9
$USRTIMER
 70
     1
  9
$ANGBASE
 50
0.0
  9
$ANGDIR
 70
     0
  9
$PDMODE
 70
    35
  9
$PDSIZE
 40
-10.0
  9
$PLINEWID
 40
0.0
  9
$COORDS
 70
     2
  9
$SPLFRAME
 70
     0
  9
$SPLINETYPE
 70
     6
  9
$SPLINESEGS
 70
     8
  9
$ATTDIA
 70
     0
  9
$ATTREQ
 70
     1
  9
$HANDLING
 70
 22529
  9
$HANDSEED
  5
25D7
  9
$SURFTAB1
 70
     6
  9
$SURFTAB2
 70
     6
  9
$SURFTYPE
 70
     6
  9
$SURFU
 70
     6
  9
$SURFV
 70
     6
  9
$UCSNAME
  2

  9
$UCSORG
 10
0.0
 20
0.0
 30
0.0
  9
$UCSXDIR
 10
1.0
 20
0.0
 30
0.0
  9
$UCSYDIR
 10
0.0
 20
1.0
 30
0.0
  9
$PUCSNAME
  2

  9
$PUCSORG
 10
0.0
 20
0.0
 30
0.0
  9
$PUCSXDIR
 10
1.0
 20
0.0
 30
0.0
  9
$PUCSYDIR
 10
0.0
 20
1.0
 30
0.0
  9
$USERI1
 70
     0
  9
$USERI2
 70
     0
  9
$USERI3
 70
     0
  9
$USERI4
 70
     0
  9
$USERI5
 70
     0
  9
$USERR1
 40
0.0
  9
$USERR2
 40
0.0
  9
$USERR3
 40
0.0
  9
$USERR4
 40
0.0
  9
$USERR5
 40
0.0
  9
$WORLDVIEW
 70
     1
  9
$SHADEDGE
 70
     3
  9
$SHADEDIF
 70
    70
  9
$TILEMODE
 70
     1
  9
$MAXACTVP
 70
    48
  9
$PINSBASE
 10
0.0
 20
0.0
 30
0.0
  9
$PLIMCHECK
 70
     0
  9
$PEXTMIN
 10
1.000000000000000E+20
 20
1.000000000000000E+20
 30
1.000000000000000E+20
  9
$PEXTMAX
 10
-1.000000000000000E+20
 20
-1.000000000000000E+20
 30
-1.000000000000000E+20
  9
$PLIMMIN
 10
0.0
 20
0.0
  9
$PLIMMAX
 10
12.0
 20
9.0
  9
$UNITMODE
 70
     0
  9
$VISRETAIN
 70
     1
  9
$PLINEGEN
 70
     1
  9
$PSLTSCALE
 70
     1
  9
$TREEDEPTH
 70
  3020
  9
$PICKSTYLE
 70
     1
  9
$CMLSTYLE
  2
STANDARD
  9
$CMLJUST
 70
     0
  9
$CMLSCALE
 40
1.0
  9
$PROXYGRAPHICS
 70
     1
  9
$MEASUREMENT
 70
     0
  0
ENDSEC
  0
SECTION
  2
CLASSES
  0
CLASS
  1
LWPOLYLINE
  2
AcDbPolyline
  3
AutoCAD 2000
 90
        0
280
     0
281
     1
  0
CLASS
  1
DICTIONARYVAR
  2
AcDbDictionaryVar
  3
AutoCAD 2000
 90
        0
280
     0
281
     0
  0
CLASS
  1
ACDBDICTIONARYWDFLT
  2
AcDbDictionaryWithDefault
  3
AutoCAD 2000
 90
        0
280
     0
281
     0
  0
CLASS
  1
ACDBPLACEHOLDER
  2
AcDbPlaceHolder
  3
AutoCAD 2000
 90
        0
280
     0
281
     0
  0
CLASS
  1
LAYOUT
  2
AcDbLayout
  3
AutoCAD 2000
 90
        0
280
     0
281
     0
  0
CLASS
  1
LONG_TRANSACTION
  2
AcDbLongTransaction
  3
AutoCAD 2000
 90
        0
280
     0
281
     0
  0
CLASS
  1
LWPOLYLINE
  2
AcDbPolyline
  3
AutoCAD 2000
 90
        0
280
     0
281
     1
  0
CLASS
  1
HATCH
  2
AcDbHatch
  3
AutoCAD 2000
 90
        0
280
     0
281
     1
  0
CLASS
  1
XRECORD
  2
AcDbXrecord
  3
AutoCAD 2000
 90
        0
280
     0
281
     0
  0
ENDSEC
  0
SECTION
  2
TABLES
  0
TABLE
  2
VPORT
  5
8
330
0
100
AcDbSymbolTable
 70
     2
  0
VPORT
  5
25B2
330
8
100
AcDbSymbolTableRecord
100
AcDbViewportTableRecord
  2
*ACTIVE
 70
     0
 10
0.0
 20
0.0
 11
1.0
 21
1.0
 12
0.6210443281615401
 22
-4.440121890548876
 13
0.0
 23
0.0
 14
0.5
 24
0.5
 15
0.5
 25
0.5
 16
0.0
 26
0.0
 36
1.0
 17
3.926160451945129
 27
5.479511252948558
 37
-0.0300717933567791
 40
2.163479863837081
 41
4.320930232558139
 42
50.0
 43
0.0
 44
0.0
 50
0.0
 51
0.0
 71
     0
 72
  2000
 73
     1
 74
     1
 75
     0
 76
     0
 77
     0
 78
     0
  0
ENDTAB
  0
TABLE
  2
LTYPE
  5
5
330
0
100
AcDbSymbolTable
 70
     1
  0
LTYPE
  5
12
330
5
100
AcDbSymbolTableRecord
100
AcDbLinetypeTableRecord
  2
BYBLOCK
 70
     0
  3

 72
    65
 73
     0
 40
0.0
  0
LTYPE
  5
13
330
5
100
AcDbSymbolTableRecord
100
AcDbLinetypeTableRecord
  2
BYLAYER
 70
     0
  3

 72
    65
 73
     0
 40
0.0
  0
LTYPE
  5
14
330
5
100
AcDbSymbolTableRecord
100
AcDbLinetypeTableRecord
  2
CONTINUOUS
 70
     0
  3
Solid line
 72
    65
 73
     0
 40
0.0
  0
ENDTAB
  0
TABLE
  2
LAYER
  5
2
330
0
100
AcDbSymbolTable
 70
     2
  0
LAYER
  5
E
330
2
100
AcDbSymbolTableRecord
100
AcDbLayerTableRecord
  2
0
 70
     0
 62
     7
  6
CONTINUOUS
  0
LAYER
  5
59
330
2
100
AcDbSymbolTableRecord
100
AcDbLayerTableRecord
  2
TEXT
 70
     0
 62
     3
  6
CONTINUOUS
  0
ENDTAB
  0
TABLE
  2
STYLE
  5
3
330
0
100
AcDbSymbolTable
 70
     3
  0
STYLE
  5
F
330
3
100
AcDbSymbolTableRecord
100
AcDbTextStyleTableRecord
  2
STANDARD
 70
     0
 40
0.0
 41
1.0
 50
0.0
 71
     0
 42
0.2
  3
txt
  4

  0
STYLE
  5
5B
330
3
100
AcDbSymbolTableRecord
100
AcDbTextStyleTableRecord
  2
ROMANS
 70
     0
 40
0.0
 41
1.0
 50
0.0
 71
     0
 42
0.125
  3
romans.shx
  4

  0
STYLE
  5
24A1
330
3
100
AcDbSymbolTableRecord
100
AcDbTextStyleTableRecord
  2
ITALICC
 70
     0
 40
0.0
 41
1.0
 50
0.0
 71
     0
 42
0.125
  3
italicc
  4

  0
ENDTAB
  0
TABLE
  2
VIEW
  5
6
330
0
100
AcDbSymbolTable
 70
     0
  0
ENDTAB
  0
TABLE
  2
UCS
  5
7
330
0
100
AcDbSymbolTable
 70
     0
  0
ENDTAB
  0
TABLE
  2
APPID
  5
9
330
0
100
AcDbSymbolTable
 70
     2
  0
APPID
  5
10
330
9
100
AcDbSymbolTableRecord
100
AcDbRegAppTableRecord
  2
ACAD
 70
     0
  0
APPID
  5
68C
330
9
100
AcDbSymbolTableRecord
100
AcDbRegAppTableRecord
  2
AME_SOLVIEW
 70
     0
  0
ENDTAB
  0
TABLE
  2
DIMSTYLE
  5
A
330
0
100
AcDbSymbolTable
 70
     1
  0
DIMSTYLE
105
1D
330
A
100
AcDbSymbolTableRecord
100
AcDbDimStyleTableRecord
  2
STANDARD
 70
     0
  3

  4

  5

  6

  7

 40
1.0
 41
0.125
 42
0.125
 43
0.3
 44
0.125
 45
0.0
 46
0.0
 47
0.005
 48
0.005
140
0.125
141
-0.125
142
0.0
143
25.4
144
0.5
145
0.0
146
1.0
147
0.09
 71
     0
 72
     0
 73
     1
 74
     1
 75
     0
 76
     0
 77
     0
 78
     4
170
     0
171
     2
172
     0
173
     0
174
     0
175
     0
176
     0
177
     0
178
     0
270
     2
271
     3
272
     3
273
     2
274
     2
340
5B
275
     0
280
     0
281
     0
282
     0
283
     1
284
     4
285
     0
286
     0
287
     3
288
     1
  0
ENDTAB
  0
TABLE
  2
BLOCK_RECORD
  5
1
330
0
100
AcDbSymbolTable
 70
     0
  0
BLOCK_RECORD
  5
18
102
{ACAD_XDICTIONARY
360
25D5
102
}
330
1
100
AcDbSymbolTableRecord
100
AcDbBlockTableRecord
  2
*MODEL_SPACE
  0
BLOCK_RECORD
  5
15
102
{ACAD_XDICTIONARY
360
25D3
102
}
330
1
100
AcDbSymbolTableRecord
100
AcDbBlockTableRecord
  2
*PAPER_SPACE
  0
ENDTAB
  0
ENDSEC
  0
SECTION
  2
BLOCKS
  0
BLOCK
  5
19
330
18
100
AcDbEntity
  8
0
100
AcDbBlockBegin
  2
*MODEL_SPACE
 70
     0
 10
0.0
 20
0.0
 30
0.0
  3
*MODEL_SPACE
  1

  0
ENDBLK
  5
1A
330
18
100
AcDbEntity
  8
0
100
AcDbBlockEnd
  0
BLOCK
  5
16
330
15
100
AcDbEntity
 67
     1
  8
0
100
AcDbBlockBegin
  2
*PAPER_SPACE
 70
     0
 10
0.0
 20
0.0
 30
0.0
  3
*PAPER_SPACE
  1

  0
ENDBLK
  5
17
330
15
100
AcDbEntity
 67
     1
  8
0
100
AcDbBlockEnd
  0
ENDSEC
  0
SECTION
  2
ENTITIES
  0
LWPOLYLINE
  5
1511
330
18
100
AcDbEntity
  8
0
  6
CONTINUOUS
100
AcDbPolyline
 90
       20
 70
   129
 43
0.0
 10
0.8602890636370634
 20
1.04225668221949
 10
1.316139531531254
 20
1.498107150113683
 42
-0.198912367379658
 10
1.404527879179571
 20
1.534718802465365
 10
1.800974488586302
 20
1.534718802465363
 42
-0.1989123673796561
 10
1.889362836234619
 20
1.498107150113682
 10
2.345213304128813
 20
1.04225668221949
 10
2.486634660366124
 20
1.183678038456801
 10
1.755122540120249
 20
1.915190158702673
 42
0.4142135623730946
 10
1.733909336684652
 20
1.915190158702673
 10
1.679044582165138
 20
1.860325404183161
 42
0.3394689924963421
 10
1.676661199181678
 20
1.842218115999372
 10
1.725741168584193
 20
1.757219488931355
 42
-0.5773678843182437
 10
1.712751183882934
 20
1.734718802465363
 10
1.492751183882937
 20
1.734718802465364
 42
-0.577367884318245
 10
1.479761199181677
 20
1.757219488931357
 10
1.528841168584193
 20
1.842218115999373
 42
0.3394689924963417
 10
1.526457785600735
 20
1.860325404183161
 10
1.471593031081225
 20
1.915190158702672
 42
0.4142135623730935
 10
1.450379827645626
 20
1.915190158702672
 10
0.7188677073997543
 20
1.183678038456799
  0
TEXT
  5
2526
330
18
100
AcDbEntity
  8
TEXT
100
AcDbText
 10
0.8729714438324014
 20
0.6170989369945903
 30
0.0
 40
0.125
  1
PART #110636
  7
ITALICC
 72
     1
 11
1.625947634308592
 21
0.6170989369945903
 31
0.0
100
AcDbText
  0
LINE
  5
2527
330
18
100
AcDbEntity
  8
TEXT
100
AcDbLine
 10
1.593681133260655
 20
0.3727452509747566
 30
0.0
 11
1.670329114553212
 21
0.3727452509747566
 31
0.0
  0
LINE
  5
2528
330
18
100
AcDbEntity
  8
TEXT
100
AcDbLine
 10
1.665849227226712
 20
0.4370219456315221
 30
0.0
 11
1.598349509577196
 21
0.4370219456315221
 31
0.0
  0
LWPOLYLINE
  5
2529
330
18
100
AcDbEntity
  8
TEXT
100
AcDbPolyline
 90
        5
 70
     0
 43
0.0001332181640625
 10
-0.0434309092740199
 20
0.3137951438737092
 10
-0.0301090928677712
 20
0.3137951438737092
 10
-0.0301090928677712
 20
0.350430138990899
 10
0.0065259022494186
 20
0.350430138990899
 10
0.0065259022494186
 20
0.363751955397146
  0
LWPOLYLINE
  5
252A
330
18
100
AcDbEntity
  8
TEXT
100
AcDbPolyline
 90
        3
 70
     0
 43
0.0006660908203125
 10
-0.0034654600552719
 20
0.4103783128190246
 10
-0.0900572666958968
 20
0.4103783128190246
 10
-0.0900572666958968
 20
0.323786506178398
  0
LWPOLYLINE
  5
252B
330
18
100
AcDbEntity
  8
TEXT
100
AcDbPolyline
 90
        3
 70
     0
 43
0.0006660908203125
 10
-0.0034654600552719
 20
0.4370219456315257
 10
-0.1167008995083942
 20
0.4370219456315257
 10
-0.1167008995083942
 20
0.323786506178398
  0
LWPOLYLINE
  5
252C
330
18
100
AcDbEntity
  8
TEXT
100
AcDbPolyline
 90
        5
 70
     0
 43
0.0001332181640625
 10
0.0065259022494186
 20
0.2438556077408984
 10
0.0065259022494186
 20
0.2571774241471489
 10
-0.0301090928677694
 20
0.2571774241471489
 10
-0.0301090928677694
 20
0.2938124192643352
 10
-0.0434309092740199
 20
0.2938124192643352
  0
LWPOLYLINE
  5
252D
330
18
100
AcDbEntity
  8
TEXT
100
AcDbPolyline
 90
        3
 70
     0
 43
0.0006660908203125
 10
-0.0900572666958968
 20
0.28382105695965
 10
-0.0900572666958968
 20
0.1972292503190234
 10
-0.0034654600552719
 20
0.1972292503190234
  0
LWPOLYLINE
  5
252E
330
18
100
AcDbEntity
  8
TEXT
100
AcDbPolyline
 90
        3
 70
     0
 43
0.0006660908203125
 10
-0.1167008995083942
 20
0.28382105695965
 10
-0.1167008995083942
 20
0.1705856175065223
 10
-0.0034654600552719
 20
0.1705856175065223
  0
LWPOLYLINE
  5
252F
330
18
100
AcDbEntity
  8
TEXT
100
AcDbPolyline
 90
        2
 70
     0
 43
0.0001332181640625
 10
-0.0900572666958968
 20
0.28382105695965
 10
-0.0301090928677694
 20
0.2938124192643352
  0
LWPOLYLINE
  5
2530
330
18
100
AcDbEntity
  8
TEXT
100
AcDbPolyline
 90
        2
 70
     0
 43
0.0001332181640625
 10
-0.0434309092740199
 20
0.2938124192643352
 10
-0.1167008995083942
 20
0.28382105695965
  0
LWPOLYLINE
  5
2531
330
18
100
AcDbEntity
  8
TEXT
100
AcDbPolyline
 90
        2
 70
     0
 43
0.0006660908203125
 10
-0.0900572666958968
 20
0.28382105695965
 10
-0.1167008995083942
 20
0.28382105695965
  0
LWPOLYLINE
  5
2532
330
18
100
AcDbEntity
  8
TEXT
100
AcDbPolyline
 90
        2
 70
     0
 43
0.0001332181640625
 10
-0.0900572666958968
 20
0.1972292503190234
 10
-0.0301090928677694
 20
0.2571774241471489
  0
LWPOLYLINE
  5
2533
330
18
100
AcDbEntity
  8
TEXT
100
AcDbPolyline
 90
        2
 70
     0
 43
0.0006660908203125
 10
-0.0900572666958968
 20
0.323786506178398
 10
-0.1167008995083942
 20
0.323786506178398
  0
LWPOLYLINE
  5
2534
330
18
100
AcDbEntity
  8
TEXT
100
AcDbPolyline
 90
        2
 70
     0
 43
0.0001332181640625
 10
-0.1167008995083942
 20
0.323786506178398
 10
-0.0434309092740199
 20
0.3137951438737092
  0
LWPOLYLINE
  5
2535
330
18
100
AcDbEntity
  8
TEXT
100
AcDbPolyline
 90
        2
 70
     0
 43
0.0001332181640625
 10
-0.0900572666958968
 20
0.323786506178398
 10
-0.0301090928677712
 20
0.3137951438737092
  0
LWPOLYLINE
  5
2536
330
18
100
AcDbEntity
  8
TEXT
100
AcDbPolyline
 90
        2
 70
     0
 43
0.0001332181640625
 10
-0.0900572666958968
 20
0.4103783128190246
 10
-0.0301090928677712
 20
0.350430138990899
  0
LWPOLYLINE
  5
2537
330
18
100
AcDbEntity
  8
TEXT
100
AcDbPolyline
 90
        5
 70
     0
 43
0.0001332181640625
 10
0.0764654383822294
 20
0.2938124192643352
 10
0.0631436219759807
 20
0.2938124192643352
 10
0.0631436219759807
 20
0.2571774241471489
 10
0.0265086268587909
 20
0.2571774241471489
 10
0.0265086268587909
 20
0.2438556077408984
  0
LWPOLYLINE
  5
2538
330
18
100
AcDbEntity
  8
TEXT
100
AcDbPolyline
 90
        2
 70
     0
 43
0.0001332181640625
 10
0.1230917958041044
 20
0.28382105695965
 10
0.0631436219759807
 20
0.2938124192643352
  0
LWPOLYLINE
  5
2539
330
18
100
AcDbEntity
  8
TEXT
100
AcDbPolyline
 90
        2
 70
     0
 43
0.0001332181640625
 10
0.1497354286166055
 20
0.28382105695965
 10
0.0764654383822294
 20
0.2938124192643352
  0
LWPOLYLINE
  5
253A
330
18
100
AcDbEntity
  8
TEXT
100
AcDbPolyline
 90
        3
 70
     0
 43
0.0006660908203125
 10
0.0364999891634796
 20
0.1705856175065223
 10
0.1497354286166055
 20
0.1705856175065223
 10
0.1497354286166055
 20
0.28382105695965
  0
LWPOLYLINE
  5
253B
330
18
100
AcDbEntity
  8
TEXT
100
AcDbPolyline
 90
        3
 70
     0
 43
0.0006660908203125
 10
0.0364999891634796
 20
0.1972292503190234
 10
0.1230917958041044
 20
0.1972292503190234
 10
0.1230917958041044
 20
0.28382105695965
  0
LWPOLYLINE
  5
253C
330
18
100
AcDbEntity
  8
TEXT
100
AcDbPolyline
 90
        2
 70
     0
 43
0.0001332181640625
 10
0.1230917958041044
 20
0.1972292503190234
 10
0.0631436219759807
 20
0.2571774241471489
  0
LWPOLYLINE
  5
253D
330
18
100
AcDbEntity
  8
TEXT
100
AcDbPolyline
 90
        2
 70
     0
 43
0.0006660908203125
 10
0.0364999891634796
 20
0.1972292503190234
 10
0.0364999891634796
 20
0.1705856175065223
  0
LWPOLYLINE
  5
253E
330
18
100
AcDbEntity
  8
TEXT
100
AcDbPolyline
 90
        2
 70
     0
 43
0.0001332181640625
 10
0.0265086268587909
 20
0.2438556077408984
 10
0.0364999891634796
 20
0.1705856175065223
  0
LWPOLYLINE
  5
253F
330
18
100
AcDbEntity
  8
TEXT
100
AcDbPolyline
 90
        2
 70
     0
 43
0.0001332181640625
 10
0.0364999891634796
 20
0.1972292503190234
 10
0.0265086268587909
 20
0.2571774241471489
  0
LWPOLYLINE
  5
2540
330
18
100
AcDbEntity
  8
TEXT
100
AcDbPolyline
 90
        2
 70
     0
 43
0.0001332181640625
 10
-0.0034654600552719
 20
0.1705856175065223
 10
0.0065259022494186
 20
0.2438556077408984
  0
LWPOLYLINE
  5
2541
330
18
100
AcDbEntity
  8
TEXT
100
AcDbPolyline
 90
        2
 70
     0
 43
0.0001332181640625
 10
-0.0034654600552719
 20
0.1972292503190234
 10
0.0065259022494186
 20
0.2571774241471489
  0
LWPOLYLINE
  5
2542
330
18
100
AcDbEntity
  8
TEXT
100
AcDbPolyline
 90
        2
 70
     0
 43
0.0006660908203125
 10
-0.0034654600552719
 20
0.1972292503190234
 10
-0.0034654600552719
 20
0.1705856175065223
  0
LWPOLYLINE
  5
2543
330
18
100
AcDbEntity
  8
TEXT
100
AcDbPolyline
 90
        2
 70
     0
 43
0.0006660908203125
 10
0.1230917958041044
 20
0.28382105695965
 10
0.1497354286166055
 20
0.28382105695965
  0
LWPOLYLINE
  5
2544
330
18
100
AcDbEntity
  8
TEXT
100
AcDbPolyline
 90
        2
 70
     0
 43
0.0001332181640625
 10
0.1230917958041044
 20
0.4103783128190246
 10
0.0631436219759807
 20
0.350430138990899
  0
LWPOLYLINE
  5
2545
330
18
100
AcDbEntity
  8
TEXT
100
AcDbPolyline
 90
        2
 70
     0
 43
0.0001332181640625
 10
0.1230917958041044
 20
0.323786506178398
 10
0.0631436219759807
 20
0.3137951438737092
  0
LWPOLYLINE
  5
2546
330
18
100
AcDbEntity
  8
TEXT
100
AcDbPolyline
 90
        2
 70
     0
 43
0.0001332181640625
 10
0.0764654383822294
 20
0.3137951438737092
 10
0.1497354286166055
 20
0.323786506178398
  0
LWPOLYLINE
  5
2547
330
18
100
AcDbEntity
  8
TEXT
100
AcDbPolyline
 90
        3
 70
     0
 43
0.0006660908203125
 10
0.1230917958041044
 20
0.323786506178398
 10
0.1230917958041044
 20
0.4103783128190246
 10
0.0364999891634796
 20
0.4103783128190246
  0
LWPOLYLINE
  5
2548
330
18
100
AcDbEntity
  8
TEXT
100
AcDbPolyline
 90
        3
 70
     0
 43
0.0006660908203125
 10
0.1497354286166055
 20
0.323786506178398
 10
0.1497354286166055
 20
0.4370219456315257
 10
0.0364999891634796
 20
0.4370219456315257
  0
LWPOLYLINE
  5
2549
330
18
100
AcDbEntity
  8
TEXT
100
AcDbPolyline
 90
        2
 70
     0
 43
0.0001332181640625
 10
0.0364999891634796
 20
0.4370219456315257
 10
0.0265086268587909
 20
0.363751955397146
  0
LWPOLYLINE
  5
254A
330
18
100
AcDbEntity
  8
TEXT
100
AcDbPolyline
 90
        2
 70
     0
 43
0.0001332181640625
 10
0.0364999891634796
 20
0.4103783128190246
 10
0.0265086268587909
 20
0.350430138990899
  0
LWPOLYLINE
  5
254B
330
18
100
AcDbEntity
  8
TEXT
100
AcDbPolyline
 90
        2
 70
     0
 43
0.0006660908203125
 10
0.0364999891634796
 20
0.4103783128190246
 10
0.0364999891634796
 20
0.4370219456315257
  0
LWPOLYLINE
  5
254C
330
18
100
AcDbEntity
  8
TEXT
100
AcDbPolyline
 90
        5
 70
     0
 43
0.0001332181640625
 10
0.0265086268587909
 20
0.363751955397146
 10
0.0265086268587909
 20
0.350430138990899
 10
0.0631436219759807
 20
0.350430138990899
 10
0.0631436219759807
 20
0.3137951438737092
 10
0.0764654383822294
 20
0.3137951438737092
  0
LWPOLYLINE
  5
254D
330
18
100
AcDbEntity
  8
TEXT
100
AcDbPolyline
 90
        2
 70
     0
 43
0.0001332181640625
 10
-0.0034654600552719
 20
0.4103783128190246
 10
0.0065259022494186
 20
0.350430138990899
  0
LWPOLYLINE
  5
254E
330
18
100
AcDbEntity
  8
TEXT
100
AcDbPolyline
 90
        2
 70
     0
 43
0.0001332181640625
 10
0.0065259022494186
 20
0.363751955397146
 10
-0.0034654600552719
 20
0.4370219456315257
  0
LWPOLYLINE
  5
254F
330
18
100
AcDbEntity
  8
TEXT
100
AcDbPolyline
 90
        2
 70
     0
 43
0.0006660908203125
 10
-0.0034654600552719
 20
0.4103783128190246
 10
-0.0034654600552719
 20
0.4370219456315257
  0
LWPOLYLINE
  5
2550
330
18
100
AcDbEntity
  8
TEXT
100
AcDbPolyline
 90
        2
 70
     0
 43
0.0006660908203125
 10
0.1230917958041044
 20
0.323786506178398
 10
0.1497354286166055
 20
0.323786506178398
  0
LWPOLYLINE
  5
2551
330
18
100
AcDbEntity
  8
TEXT
100
AcDbPolyline
 90
        2
 70
     0
 43
0.0
 10
0.8685153493652357
 20
0.2221002548579394
 42
0.3318488747599744
 10
0.9376346419305487
 20
0.1705489126430111
 42
-6.868794160588311
  0
LINE
  5
2552
330
18
100
AcDbEntity
  8
TEXT
100
AcDbLine
 10
0.9364950684343531
 20
0.5050334233703327
 30
0.0
 11
0.8696863558679881
 21
0.5050334233703327
 31
0.0
  0
LINE
  5
2553
330
18
100
AcDbEntity
  8
TEXT
100
AcDbLine
 10
0.5903439882488942
 20
0.4370219456315221
 30
0.0
 11
0.4146122353503828
 21
0.4370219456315221
 31
0.0
  0
ARC
  5
2554
330
18
100
AcDbEntity
  8
TEXT
100
AcDbCircle
 10
0.4854497017089324
 20
0.2537447210035681
 30
0.0
 40
0.0831958083605586
100
AcDbArc
 50
270.0
 51
90.0
  0
LINE
  5
2555
330
18
100
AcDbEntity
  8
TEXT
100
AcDbLine
 10
0.4198495654646309
 20
0.3727452509747566
 30
0.0
 11
0.5867552194936012
 21
0.3727452509747566
 31
0.0
  0
LINE
  5
2556
330
18
100
AcDbEntity
  8
TEXT
100
AcDbLine
 10
0.4903900756152116
 20
0.2389059189764504
 30
0.0
 11
0.3325247759038774
 21
0.2389059189764504
 31
0.0
  0
LINE
  5
2557
330
18
100
AcDbEntity
  8
TEXT
100
AcDbLine
 10
0.3325247759038792
 20
0.1705489126430111
 30
0.0
 11
0.4854497017089319
 21
0.1705489126430111
 31
0.0
  0
ARC
  5
2558
330
18
100
AcDbEntity
  8
TEXT
100
AcDbCircle
 10
0.4146122353503832
 20
0.3549344861850203
 30
0.0
 40
0.0820874594465043
100
AcDbArc
 50
90.0
 51
270.0
  0
LINE
  5
2559
330
18
100
AcDbEntity
  8
TEXT
100
AcDbLine
 10
0.3325247759038774
 20
0.2389059189764504
 30
0.0
 11
0.3325247759038792
 21
0.1705489126430111
 31
0.0
  0
LINE
  5
255A
330
18
100
AcDbEntity
  8
TEXT
100
AcDbLine
 10
0.4146122353503828
 20
0.272847026738515
 30
0.0
 11
0.4903900756152116
 21
0.272847026738515
 31
0.0
  0
ARC
  5
255B
330
18
100
AcDbEntity
  8
TEXT
100
AcDbCircle
 10
0.490390075615212
 20
0.2558764728574845
 30
0.0
 40
0.0169705538810321
100
AcDbArc
 50
270.0
 51
90.0
  0
LINE
  5
255C
330
18
100
AcDbEntity
  8
TEXT
100
AcDbLine
 10
0.4854497017089319
 20
0.3369405293641288
 30
0.0
 11
0.4198495654646309
 21
0.3369405293641288
 31
0.0
  0
ARC
  5
255D
330
18
100
AcDbEntity
  8
TEXT
100
AcDbCircle
 10
0.4198495654646313
 20
0.3548428901694445
 30
0.0
 40
0.017902360805315
100
AcDbArc
 50
90.0
 51
270.0
  0
LINE
  5
255E
330
18
100
AcDbEntity
  8
TEXT
100
AcDbLine
 10
0.7808158802687464
 20
0.3361499495184015
 30
0.0
 11
0.7221855592368085
 21
0.4370219456315221
 31
0.0
  0
LINE
  5
255F
330
18
100
AcDbEntity
  8
TEXT
100
AcDbLine
 10
0.6406418269737069
 20
0.1705489126430111
 30
0.0
 11
0.7372820780487013
 21
0.1708195517412934
 31
0.0
  0
LWPOLYLINE
  5
2560
330
18
100
AcDbEntity
  8
TEXT
100
AcDbPolyline
 90
        6
 70
     1
 43
0.0
 10
0.683165630548857
 20
0.3727452509747566
 10
0.6528490363286488
 20
0.3727452509747566
 10
0.6528490363286488
 20
0.2496342529198623
 42
0.407328721240804
 10
0.6643926874901252
 20
0.2378153382434762
 10
0.725014386534856
 20
0.2378153382434762
 10
0.7424797269421739
 20
0.2706275672869554
  0
LINE
  5
2561
330
18
100
AcDbEntity
  8
TEXT
100
AcDbLine
 10
0.5867552194936012
 20
0.3727452509747566
 30
0.0
 11
0.5867552194936012
 21
0.2303413039810609
 31
0.0
  0
ARC
  5
2562
330
18
100
AcDbEntity
  8
TEXT
100
AcDbCircle
 10
0.6468712374673538
 20
0.2303413039810609
 30
0.0
 40
0.0601160179737537
100
AcDbArc
 50
180.0000000000003
 51
264.0521544866073
  0
LINE
  5
2563
330
18
100
AcDbEntity
  8
TEXT
100
AcDbLine
 10
0.6503865930929012
 20
0.4714098632256603
 30
0.0
 11
0.5903439882488942
 21
0.4714098632256603
 31
0.0
  0
LINE
  5
2564
330
18
100
AcDbEntity
  8
TEXT
100
AcDbLine
 10
0.5903439882488942
 20
0.4714098632256603
 30
0.0
 11
0.5903439882488942
 21
0.4370219456315221
 31
0.0
  0
LINE
  5
2565
330
18
100
AcDbEntity
  8
TEXT
100
AcDbLine
 10
0.6503865930929012
 20
0.4370219456315221
 30
0.0
 11
0.6503865930929012
 21
0.4714098632256603
 31
0.0
  0
LINE
  5
2566
330
18
100
AcDbEntity
  8
TEXT
100
AcDbLine
 10
0.7221855592368085
 20
0.4370219456315221
 30
0.0
 11
0.6503865930929012
 21
0.4370219456315221
 31
0.0
  0
LINE
  5
2567
330
18
100
AcDbEntity
  8
TEXT
100
AcDbLine
 10
0.7712156432717921
 20
0.190507418748024
 30
0.0
 11
0.8685153493652366
 21
0.3548576296832921
 31
0.0
  0
LINE
  5
2568
330
18
100
AcDbEntity
  8
TEXT
100
AcDbLine
 10
0.8685153493652366
 20
0.3548576296832921
 30
0.0
 11
0.8685153493652366
 21
0.2221002548579358
 31
0.0
  0
ARC
  5
2569
330
18
100
AcDbEntity
  8
TEXT
100
AcDbCircle
 10
0.7371720833595786
 20
0.2100966349167068
 30
0.0
 40
0.0392772371940762
100
AcDbArc
 50
270.1604552698595
 51
330.0831797321295
  0
LINE
  5
256A
330
18
100
AcDbEntity
  8
TEXT
100
AcDbLine
 10
0.8395644430746118
 20
0.4370219456315221
 30
0.0
 11
0.7808158802687464
 21
0.3361499495184015
 31
0.0
  0
LINE
  5
256B
330
18
100
AcDbEntity
  8
TEXT
100
AcDbLine
 10
0.8696863558679881
 20
0.5050334233703327
 30
0.0
 11
0.8696863558679881
 21
0.4370219456315221
 31
0.0
  0
LINE
  5
256C
330
18
100
AcDbEntity
  8
TEXT
100
AcDbLine
 10
0.8696863558679881
 20
0.4370219456315221
 30
0.0
 11
0.8395644430746118
 21
0.4370219456315221
 31
0.0
  0
LWPOLYLINE
  5
256D
330
18
100
AcDbEntity
  8
TEXT
100
AcDbPolyline
 90
        4
 70
     0
 43
0.0
 10
1.221772477488146
 20
0.3651914618086467
 10
1.221772477488146
 20
0.1705489126430111
 10
1.290250760776004
 20
0.1705489126430111
 10
1.290250760776004
 20
0.2140398575934492
 42
-1.714843617202739
  0
LWPOLYLINE
  5
256E
330
18
100
AcDbEntity
  8
TEXT
100
AcDbPolyline
 90
        2
 70
     0
 43
0.0
 10
1.256906828032356
 20
0.4370219456315257
 42
-0.3277054968067132
 10
1.292688518745521
 20
0.4086993998618818
 42
6.667889725900311
  0
LWPOLYLINE
  5
256F
330
18
100
AcDbEntity
  8
TEXT
100
AcDbPolyline
 90
        2
 70
     0
 43
0.0
 10
1.085473255453129
 20
0.3727452509747566
 42
-0.4142135623731017
 10
1.093027044619242
 20
0.3651914618086467
 42
-0.9999999999999998
  0
LINE
  5
2570
330
18
100
AcDbEntity
  8
TEXT
100
AcDbLine
 10
1.102824978503149
 20
0.4370219456315221
 30
0.0
 11
0.9688069225720132
 21
0.4370219456315221
 31
0.0
  0
LINE
  5
2571
330
18
100
AcDbEntity
  8
TEXT
100
AcDbLine
 10
1.035637975629982
 20
0.1705489126430111
 30
0.0
 11
1.035637975629982
 21
0.3727452509747566
 31
0.0
  0
LINE
  5
2572
330
18
100
AcDbEntity
  8
TEXT
100
AcDbLine
 10
0.9688069225720132
 20
0.4370219456315221
 30
0.0
 11
0.9688069225720132
 21
0.2361577388991138
 31
0.0
  0
LINE
  5
2573
330
18
100
AcDbEntity
  8
TEXT
100
AcDbLine
 10
0.9364950684343531
 20
0.2529367507460103
 30
0.0
 11
0.9364950684343531
 21
0.5050334233703327
 31
0.0
  0
LINE
  5
2574
330
18
100
AcDbEntity
  8
TEXT
100
AcDbLine
 10
0.9376346419305479
 20
0.1705489126430111
 30
0.0
 11
1.035637975629982
 21
0.1705489126430111
 31
0.0
  0
LINE
  5
2575
330
18
100
AcDbEntity
  8
TEXT
100
AcDbLine
 10
0.9688069225720132
 20
0.2361577388991138
 30
0.0
 11
0.9518132856874119
 21
0.2361577388991138
 31
0.0
  0
ARC
  5
2576
330
18
100
AcDbEntity
  8
TEXT
100
AcDbCircle
 10
0.951813285687411
 20
0.2515395451425393
 30
0.0
 40
0.0153818062434269
100
AcDbArc
 50
174.7883570302258
 51
270.0
  0
LINE
  5
2577
330
18
100
AcDbEntity
  8
TEXT
100
AcDbLine
 10
1.035637975629982
 20
0.3727452509747566
 30
0.0
 11
1.08547325545313
 21
0.3727452509747566
 31
0.0
  0
LINE
  5
2578
330
18
100
AcDbEntity
  8
TEXT
100
AcDbLine
 10
1.093027044619243
 20
0.3651914618086467
 30
0.0
 11
1.093027044619243
 21
0.1705489126430111
 31
0.0
  0
LINE
  5
2579
330
18
100
AcDbEntity
  8
TEXT
100
AcDbLine
 10
1.160085091401083
 20
0.1705489126430111
 30
0.0
 11
1.160085091401083
 21
0.3727452509747566
 31
0.0
  0
LINE
  5
257A
330
18
100
AcDbEntity
  8
TEXT
100
AcDbLine
 10
1.093027044619243
 20
0.1705489126430111
 30
0.0
 11
1.160085091401083
 21
0.1705489126430111
 31
0.0
  0
LWPOLYLINE
  5
257B
330
18
100
AcDbEntity
  8
TEXT
100
AcDbPolyline
 90
        3
 70
     0
 43
0.0
 10
1.256906828032356
 20
0.4370219456315257
 10
1.138606669216311
 20
0.4370219456315257
 10
1.138606669216311
 20
0.4098544488706298
 42
-1.960274751411753
  0
LINE
  5
257C
330
18
100
AcDbEntity
  8
TEXT
100
AcDbLine
 10
1.160085091401083
 20
0.3727452509747566
 30
0.0
 11
1.214218688322033
 21
0.3727452509747566
 31
0.0
  0
LWPOLYLINE
  5
257D
330
18
100
AcDbEntity
  8
TEXT
100
AcDbPolyline
 90
        2
 70
     0
 43
0.0
 10
1.10282497850315
 20
0.4370219456315257
 42
-0.3328679258950098
 10
1.138606669216311
 20
0.4098544488706298
 42
6.772930709997214
  0
LWPOLYLINE
  5
257E
330
18
100
AcDbEntity
  8
TEXT
100
AcDbPolyline
 90
        2
 70
     0
 43
0.0
 10
1.214218688322032
 20
0.3727452509747566
 42
-0.4142135623731017
 10
1.221772477488146
 20
0.3651914618086467
 42
-0.9999999999999998
  0
ARC
  5
257F
330
18
100
AcDbEntity
  8
TEXT
100
AcDbCircle
 10
1.425493488185512
 20
0.3954383785106197
 30
0.0
 40
0.0416329381542859
100
AcDbArc
 50
26.56974201007528
 51
87.20939649401342
  0
LWPOLYLINE
  5
2580
330
18
100
AcDbEntity
  8
TEXT
100
AcDbPolyline
 90
        2
 70
     0
 43
0.0
 10
1.333326693643639
 20
0.1705489126430111
 10
1.467344111275016
 20
0.1705489126430111
 42
0.9999999999999998
  0
LWPOLYLINE
  5
2581
330
18
100
AcDbEntity
  8
TEXT
100
AcDbPolyline
 90
        4
 70
     1
 43
0.0
 10
1.447221646205123
 20
0.2735128906270363
 10
1.358561327545265
 20
0.2735128906270363
 42
0.9999999999999998
 10
1.358561327545265
 20
0.2311143501231756
 10
1.447221646205123
 20
0.2311143501231756
 42
1.0
  0
LWPOLYLINE
  5
2582
330
18
100
AcDbEntity
  8
TEXT
100
AcDbPolyline
 90
        2
 70
     0
 43
0.0
 10
1.290250760776004
 20
0.2140398575934492
 42
0.2901071551932823
 10
1.333326693643639
 20
0.1705489126430111
 42
5.328517124445801
  0
LINE
  5
2583
330
18
100
AcDbEntity
  8
TEXT
100
AcDbLine
 10
1.427520427962581
 20
0.4370219456315221
 30
0.0
 11
1.292688518745522
 21
0.4370219456315221
 31
0.0
  0
LINE
  5
2584
330
18
100
AcDbEntity
  8
TEXT
100
AcDbLine
 10
1.35200261513884
 20
0.3354702775126244
 30
0.0
 11
1.434290604922224
 21
0.3354702775126244
 31
0.0
  0
LINE
  5
2585
330
18
100
AcDbEntity
  8
TEXT
100
AcDbLine
 10
1.398489529618102
 20
0.3727452509747566
 30
0.0
 11
1.291283256230813
 21
0.3727452509747566
 31
0.0
  0
LINE
  5
2586
330
18
100
AcDbEntity
  8
TEXT
100
AcDbLine
 10
1.292688518745522
 20
0.4370219456315221
 30
0.0
 11
1.292688518745522
 21
0.4086993998618782
 31
0.0
  0
ARC
  5
2587
330
18
100
AcDbEntity
  8
TEXT
100
AcDbCircle
 10
1.35200261513884
 20
0.2677846963685058
 30
0.0
 40
0.0676855811441166
100
AcDbArc
 50
90.0
 51
153.7768192527749
  0
LINE
  5
2588
330
18
100
AcDbEntity
  8
TEXT
100
AcDbLine
 10
1.291283256230813
 20
0.3727452509747566
 30
0.0
 11
1.291283256230813
 21
0.29769284490055
 31
0.0
  0
LINE
  5
2589
330
18
100
AcDbEntity
  8
TEXT
100
AcDbLine
 10
1.434290604922224
 20
0.3354702775126244
 30
0.0
 11
1.424025844508659
 21
0.3567208170853187
 31
0.0
  0
ARC
  5
258A
330
18
100
AcDbEntity
  8
TEXT
100
AcDbCircle
 10
1.398489529618101
 20
0.3443858759747593
 30
0.0
 40
0.028359375
100
AcDbArc
 50
25.78218179591245
 51
90.0
  0
LINE
  5
258B
330
18
100
AcDbEntity
  8
TEXT
100
AcDbLine
 10
1.568775257977995
 20
0.1705489126430111
 30
0.0
 11
1.56877525797799
 21
0.3478394180744795
 31
0.0
  0
LWPOLYLINE
  5
258C
330
18
100
AcDbEntity
  8
TEXT
100
AcDbPolyline
 90
        2
 70
     0
 43
0.0
 10
1.51042004414266
 20
0.1705489126430111
 10
1.568775257977994
 20
0.1705489126430111
  0
LWPOLYLINE
  5
258D
330
18
100
AcDbEntity
  8
TEXT
100
AcDbPolyline
 90
        2
 70
     0
 43
0.0
 10
1.51042004414266
 20
0.2140398575934492
 42
-0.2901071551932486
 10
1.467344111275016
 20
0.1705489126430111
 42
-5.328517124445184
  0
LWPOLYLINE
  5
258E
330
18
100
AcDbEntity
  8
TEXT
100
AcDbPolyline
 90
        2
 70
     0
 43
0.0
 10
1.51042004414266
 20
0.2140398575934492
 10
1.51042004414266
 20
0.1705489126430111
  0
LINE
  5
258F
330
18
100
AcDbEntity
  8
TEXT
100
AcDbLine
 10
1.570377273137123
 20
0.4370219456315221
 30
0.0
 11
1.506480366837622
 21
0.4370219456315221
 31
0.0
  0
LINE
  5
2590
330
18
100
AcDbEntity
  8
TEXT
100
AcDbLine
 10
1.506480366837622
 20
0.4370219456315221
 30
0.0
 11
1.506480366837622
 21
0.3318099670780947
 31
0.0
  0
LINE
  5
2591
330
18
100
AcDbEntity
  8
TEXT
100
AcDbLine
 10
1.506480366837622
 20
0.3318099670780947
 30
0.0
 11
1.46272959565572
 21
0.41406024307424
 31
0.0
  0
ARC
  5
2592
330
18
100
AcDbEntity
  8
TEXT
100
AcDbCircle
 10
1.593681133260654
 20
0.3478393756920939
 30
0.0
 40
0.0249058752826653
100
AcDbArc
 50
89.99971217465335
 51
179.9999999999985
  0
ARC
  5
2593
330
18
100
AcDbEntity
  8
TEXT
100
AcDbCircle
 10
1.601570090200231
 20
0.4057762183492573
 30
0.0
 40
0.0314112657011332
100
AcDbArc
 50
95.88484768694724
 51
173.2388340632136
  0
LINE
  5
2594
330
18
100
AcDbEntity
  8
TEXT
100
AcDbLine
 10
1.570377273137123
 20
0.4094742957706475
 30
0.0
 11
1.570377273137123
 21
0.4370219456315221
 31
0.0
  0
TEXT
  5
2595
330
18
100
AcDbEntity
  8
TEXT
100
AcDbText
 10
2.039252792558913
 20
0.2634347212885073
 30
0.0
 40
0.0522247191011236
  1
Minneapolis, MN 55432-0008
 41
1.11444212721585
 72
     5
 11
3.368185376828577
 21
0.2634347212885073
 31
0.0
100
AcDbText
  0
TEXT
  5
2596
330
18
100
AcDbEntity
  8
TEXT
100
AcDbText
 10
2.039252792558913
 20
0.3566931482547995
 30
0.0
 40
0.0522247191011236
  1
6536 Main St. N.E. * P.O. Box 32008
 41
0.8388932496075355
 72
     5
 11
3.368185376828577
 21
0.3566931482547995
 31
0.0
100
AcDbText
  0
TEXT
  5
2597
330
18
100
AcDbEntity
  8
TEXT
100
AcDbText
 10
2.039252792558913
 20
0.4499515752210917
 30
0.0
 40
0.0522247191011236
  1
Stylmark  Incorporated
 41
1.221428571428571
 72
     5
 11
3.368185376828577
 21
0.4499515752210917
 31
0.0
100
AcDbText
  0
TEXT
  5
2598
330
18
100
AcDbEntity
  8
TEXT
100
AcDbText
 10
2.039252792558913
 20
0.1701762943222151
 30
0.0
 40
0.0522247191011236
  1
Phone  1-800-328-2495
 41
1.272321428571429
 72
     5
 11
3.368185376828577
 21
0.1701762943222151
 31
0.0
100
AcDbText
  0
LINE
  5
2599
330
18
100
AcDbEntity
  8
TEXT
100
AcDbLine
 10
1.791696981095898
 20
0.3271287026905485
 30
0.0
 11
1.856254097061603
 21
0.4370219456315221
 31
0.0
  0
LINE
  5
259A
330
18
100
AcDbEntity
  8
TEXT
100
AcDbLine
 10
1.856254097061603
 20
0.4370219456315221
 30
0.0
 11
1.781262264331977
 21
0.4370219456315221
 31
0.0
  0
LINE
  5
259B
330
18
100
AcDbEntity
  8
TEXT
100
AcDbLine
 10
1.810610832083303
 20
0.1705489126430111
 30
0.0
 11
1.887189204459509
 21
0.1705489126430111
 31
0.0
  0
LINE
  5
259C
330
18
100
AcDbEntity
  8
TEXT
100
AcDbLine
 10
1.887189204459509
 20
0.1705489126430111
 30
0.0
 11
1.791696981095898
 21
0.3271287026905485
 31
0.0
  0
LINE
  5
259D
330
18
100
AcDbEntity
  8
TEXT
100
AcDbLine
 10
1.734707298871838
 20
0.1705489126430111
 30
0.0
 11
1.734707298871838
 21
0.3021284811191913
 31
0.0
  0
LINE
  5
259E
330
18
100
AcDbEntity
  8
TEXT
100
AcDbLine
 10
1.734707298871838
 20
0.3021284811191913
 30
0.0
 11
1.810610832083303
 21
0.1705489126430111
 31
0.0
  0
LINE
  5
259F
330
18
100
AcDbEntity
  8
TEXT
100
AcDbLine
 10
1.670329114553212
 20
0.3727452509747566
 30
0.0
 11
1.670329114553218
 21
0.1705489126430111
 31
0.0
  0
LINE
  5
25A0
330
18
100
AcDbEntity
  8
TEXT
100
AcDbLine
 10
1.670329114553218
 20
0.1705489126430111
 30
0.0
 11
1.734707298871838
 21
0.1705489126430111
 31
0.0
  0
LINE
  5
25A1
330
18
100
AcDbEntity
  8
TEXT
100
AcDbLine
 10
1.734164105775991
 20
0.5024861513991228
 30
0.0
 11
1.665849227226718
 21
0.5024861513991228
 31
0.0
  0
LINE
  5
25A2
330
18
100
AcDbEntity
  8
TEXT
100
AcDbLine
 10
1.665849227226718
 20
0.5024861513991228
 30
0.0
 11
1.665849227226712
 21
0.4370219456315221
 31
0.0
  0
LINE
  5
25A3
330
18
100
AcDbEntity
  8
TEXT
100
AcDbLine
 10
1.781262264331975
 20
0.4370219456315221
 30
0.0
 11
1.734164105775991
 21
0.361156619219984
 31
0.0
  0
LINE
  5
25A4
330
18
100
AcDbEntity
  8
TEXT
100
AcDbLine
 10
1.734164105775991
 20
0.361156619219984
 30
0.0
 11
1.734164105775991
 21
0.5024861513991228
 31
0.0
  0
VIEWPORT
  5
689
330
15
100
AcDbEntity
 67
     1
  8
0
100
AcDbViewport
 10
6.497041420118343
 20
4.5
 30
0.0
 40
12.99408284023668
 41
9.0
 68
     1
 69
     1
1001
ACAD
1000
MVIEW
1002
{
1070
    16
1010
0.0
1020
0.0
1030
0.0
1010
0.0
1020
0.0
1030
1.0
1040
0.0
1040
9.0
1040
6.497041420118343
1040
4.5
1040
50.0
1040
0.0
1040
0.0
1070
     0
1070
 20000
1070
     1
1070
     1
1070
     0
1070
     0
1070
     0
1070
     0
1040
0.0
1040
0.0
1040
0.0
1040
0.5
1040
0.5
1040
0.5
1040
0.5
1070
     0
1002
{
1002
}
1002
}
  0
ENDSEC
  0
SECTION
  2
OBJECTS
  0
DICTIONARY
  5
C
330
0
100
AcDbDictionary
  3
ACAD_GROUP
350
D
  3
ACAD_LAYOUT
350
25A9
  3
ACAD_MLINESTYLE
350
1B
  3
ACAD_PLOTSETTINGS
350
25AA
  3
ACAD_PLOTSTYLENAME
350
25A7
  3
ACDBHEADERROUNDTRIPXREC
350
25B3
  3
ACDBVARIABLEDICTIONARY
350
5A3
  0
DICTIONARY
  5
25D5
330
18
100
AcDbDictionary
280
     1
  3
ACAD_LAYOUTSELFREF
360
25D6
  0
DICTIONARY
  5
25D3
330
15
100
AcDbDictionary
280
     1
  3
ACAD_LAYOUTSELFREF
360
25D4
  0
DICTIONARY
  5
D
102
{ACAD_REACTORS
330
C
102
}
330
C
100
AcDbDictionary
  3
*A1
350
5D
  3
*A10
350
F08
  3
*A11
350
11AD
  3
*A12
350
15A9
  3
*A13
350
15AA
  3
*A14
350
15AB
  3
*A15
350
15AC
  3
*A16
350
18C6
  3
*A2
350
218
  3
*A3
350
1EFF
  3
*A4
350
20B8
  3
*A5
350
9BF
  3
*A6
350
B78
  3
*A7
350
F05
  3
*A8
350
F06
  3
*A9
350
F07
  0
DICTIONARY
  5
25A9
102
{ACAD_REACTORS
330
C
102
}
330
C
100
AcDbDictionary
  0
DICTIONARY
  5
1B
102
{ACAD_REACTORS
330
C
102
}
330
C
100
AcDbDictionary
  3
STANDARD
350
1C
  0
DICTIONARY
  5
25AA
102
{ACAD_REACTORS
330
C
102
}
330
C
100
AcDbDictionary
  0
ACDBDICTIONARYWDFLT
  5
25A7
102
{ACAD_REACTORS
330
C
102
}
330
C
100
AcDbDictionary
281
     1
  3
Normal
350
25A8
100
AcDbDictionaryWithDefault
340
25A8
  0
DICTIONARY
  5
25B3
102
{ACAD_REACTORS
330
C
102
}
330
C
100
AcDbDictionary
  3
CEPSNTYPE
350
25BD
  3
FINGERPRINTGUID
350
25BE
  3
HYPERLINKBASE
350
25B6
  3
INSUNITS
350
25BC
  3
LAYOUTDICT
350
25B8
  3
LWETCUNION
350
25BB
  3
PLOTSETDICT
350
25B9
  3
PLOTSTYLNAMDICT
350
25BA
  3
PSVPSCALE
350
25C0
  3
PUCSBASE
350
25C3
  3
PUCSORGBACK
350
25C9
  3
PUCSORGBOTTOM
350
25C5
  3
PUCSORGFRONT
350
25C8
  3
PUCSORGLEFT
350
25C6
  3
PUCSORGRIGHT
350
25C7
  3
PUCSORGTOP
350
25C4
  3
PUCSORTHOREF
350
25C1
  3
PUCSORTHOVIEW
350
25C2
  3
STYLESHEET
350
25B7
  3
TSTACKALIGN
350
25B4
  3
TSTACKSIZE
350
25B5
  3
UCSBASE
350
25CC
  3
UCSORGBACK
350
25D2
  3
UCSORGBOTTOM
350
25CE
  3
UCSORGFRONT
350
25D1
  3
UCSORGLEFT
350
25CF
  3
UCSORGRIGHT
350
25D0
  3
UCSORGTOP
350
25CD
  3
UCSORTHOREF
350
25CA
  3
UCSORTHOVIEW
350
25CB
  3
VERSIONGUID
350
25BF
  0
DICTIONARY
  5
5A3
102
{ACAD_REACTORS
330
C
102
}
330
C
100
AcDbDictionary
  3
DIMASSOC
350
25B1
  3
SORTENTS
350
5A4
  0
XRECORD
  5
25D6
102
{ACAD_REACTORS
330
25D5
102
}
330
25D5
100
AcDbXrecord
340
18
  0
XRECORD
  5
25D4
102
{ACAD_REACTORS
330
25D3
102
}
330
25D3
100
AcDbXrecord
340
15
  0
GROUP
  5
5D
102
{ACAD_REACTORS
330
D
102
}
330
D
100
AcDbGroup
300
BORDER FRAME 10-1-95
 70
     3
 71
     1
  0
GROUP
  5
F08
102
{ACAD_REACTORS
330
D
102
}
330
D
100
AcDbGroup
300

 70
     3
 71
     1
  0
GROUP
  5
11AD
102
{ACAD_REACTORS
330
D
102
}
330
D
100
AcDbGroup
300

 70
     1
 71
     1
  0
GROUP
  5
15A9
102
{ACAD_REACTORS
330
D
102
}
330
D
100
AcDbGroup
300
BORDER FRAME 10-1-95
 70
     3
 71
     1
  0
GROUP
  5
15AA
102
{ACAD_REACTORS
330
D
102
}
330
D
100
AcDbGroup
300

 70
     1
 71
     1
  0
GROUP
  5
15AB
102
{ACAD_REACTORS
330
D
102
}
330
D
100
AcDbGroup
300
BORDER FRAME 10-1-95
 70
     3
 71
     1
  0
GROUP
  5
15AC
102
{ACAD_REACTORS
330
D
102
}
330
D
100
AcDbGroup
300

 70
     3
 71
     1
  0
GROUP
  5
18C6
102
{ACAD_REACTORS
330
D
102
}
330
D
100
AcDbGroup
300

 70
     1
 71
     1
  0
GROUP
  5
218
102
{ACAD_REACTORS
330
D
102
}
330
D
100
AcDbGroup
300

 70
     1
 71
     1
  0
GROUP
  5
1EFF
102
{ACAD_REACTORS
330
D
102
}
330
D
100
AcDbGroup
300
BORDER FRAME 10-1-95
 70
     3
 71
     1
  0
GROUP
  5
20B8
102
{ACAD_REACTORS
330
D
102
}
330
D
100
AcDbGroup
300

 70
     1
 71
     1
  0
GROUP
  5
9BF
102
{ACAD_REACTORS
330
D
102
}
330
D
100
AcDbGroup
300
BORDER FRAME 10-1-95
 70
     3
 71
     1
  0
GROUP
  5
B78
102
{ACAD_REACTORS
330
D
102
}
330
D
100
AcDbGroup
300

 70
     1
 71
     1
  0
GROUP
  5
F05
102
{ACAD_REACTORS
330
D
102
}
330
D
100
AcDbGroup
300
BORDER FRAME 10-1-95
 70
     3
 71
     1
  0
GROUP
  5
F06
102
{ACAD_REACTORS
330
D
102
}
330
D
100
AcDbGroup
300

 70
     1
 71
     1
  0
GROUP
  5
F07
102
{ACAD_REACTORS
330
D
102
}
330
D
100
AcDbGroup
300
BORDER FRAME 10-1-95
 70
     3
 71
     1
  0
MLINESTYLE
  5
1C
102
{ACAD_REACTORS
330
1B
102
}
330
1B
100
AcDbMlineStyle
  2
STANDARD
 70
     0
  3

 62
   256
 51
90.0
 52
90.0
 71
     2
 49
0.5
 62
   256
  6
BYLAYER
 49
-0.5
 62
   256
  6
BYLAYER
  0
ACDBPLACEHOLDER
  5
25A8
102
{ACAD_REACTORS
330
25A7
102
}
330
25A7
100
AcDbPlaceHolder
280
     0
  0
XRECORD
  5
25BD
102
{ACAD_REACTORS
330
25B3
102
}
330
25B3
100
AcDbXrecord
 90
        0
  0
XRECORD
  5
25BE
102
{ACAD_REACTORS
330
25B3
102
}
330
25B3
100
AcDbXrecord
  1
{EA907690-8DB8-11D6-88E6-0090279574E7}
  0
XRECORD
  5
25B6
102
{ACAD_REACTORS
330
25B3
102
}
330
25B3
100
AcDbXrecord
  1

  0
XRECORD
  5
25BC
102
{ACAD_REACTORS
330
25B3
102
}
330
25B3
100
AcDbXrecord
 90
        0
  0
XRECORD
  5
25B8
102
{ACAD_REACTORS
330
25B3
102
}
330
25B3
100
AcDbXrecord
340
25A9
  0
XRECORD
  5
25BB
102
{ACAD_REACTORS
330
25B3
102
}
330
25B3
100
AcDbXrecord
 90
    14877
  0
XRECORD
  5
25B9
102
{ACAD_REACTORS
330
25B3
102
}
330
25B3
100
AcDbXrecord
340
25AA
  0
XRECORD
  5
25BA
102
{ACAD_REACTORS
330
25B3
102
}
330
25B3
100
AcDbXrecord
340
25A7
  0
XRECORD
  5
25C0
102
{ACAD_REACTORS
330
25B3
102
}
330
25B3
100
AcDbXrecord
 40
0.0
  0
XRECORD
  5
25C3
102
{ACAD_REACTORS
330
25B3
102
}
330
25B3
100
AcDbXrecord
340
0
  0
XRECORD
  5
25C9
102
{ACAD_REACTORS
330
25B3
102
}
330
25B3
100
AcDbXrecord
 10
0.0
 20
0.0
 30
0.0
  0
XRECORD
  5
25C5
102
{ACAD_REACTORS
330
25B3
102
}
330
25B3
100
AcDbXrecord
 10
0.0
 20
0.0
 30
0.0
  0
XRECORD
  5
25C8
102
{ACAD_REACTORS
330
25B3
102
}
330
25B3
100
AcDbXrecord
 10
0.0
 20
0.0
 30
0.0
  0
XRECORD
  5
25C6
102
{ACAD_REACTORS
330
25B3
102
}
330
25B3
100
AcDbXrecord
 10
0.0
 20
0.0
 30
0.0
  0
XRECORD
  5
25C7
102
{ACAD_REACTORS
330
25B3
102
}
330
25B3
100
AcDbXrecord
 10
0.0
 20
0.0
 30
0.0
  0
XRECORD
  5
25C4
102
{ACAD_REACTORS
330
25B3
102
}
330
25B3
100
AcDbXrecord
 10
0.0
 20
0.0
 30
0.0
  0
XRECORD
  5
25C1
102
{ACAD_REACTORS
330
25B3
102
}
330
25B3
100
AcDbXrecord
340
0
  0
XRECORD
  5
25C2
102
{ACAD_REACTORS
330
25B3
102
}
330
25B3
100
AcDbXrecord
 70
     0
  0
XRECORD
  5
25B7
102
{ACAD_REACTORS
330
25B3
102
}
330
25B3
100
AcDbXrecord
  1

  0
XRECORD
  5
25B4
102
{ACAD_REACTORS
330
25B3
102
}
330
25B3
100
AcDbXrecord
 90
        1
  0
XRECORD
  5
25B5
102
{ACAD_REACTORS
330
25B3
102
}
330
25B3
100
AcDbXrecord
 90
       70
  0
XRECORD
  5
25CC
102
{ACAD_REACTORS
330
25B3
102
}
330
25B3
100
AcDbXrecord
340
0
  0
XRECORD
  5
25D2
102
{ACAD_REACTORS
330
25B3
102
}
330
25B3
100
AcDbXrecord
 10
0.0
 20
0.0
 30
0.0
  0
XRECORD
  5
25CE
102
{ACAD_REACTORS
330
25B3
102
}
330
25B3
100
AcDbXrecord
 10
0.0
 20
0.0
 30
0.0
  0
XRECORD
  5
25D1
102
{ACAD_REACTORS
330
25B3
102
}
330
25B3
100
AcDbXrecord
 10
0.0
 20
0.0
 30
0.0
  0
XRECORD
  5
25CF
102
{ACAD_REACTORS
330
25B3
102
}
330
25B3
100
AcDbXrecord
 10
0.0
 20
0.0
 30
0.0
  0
XRECORD
  5
25D0
102
{ACAD_REACTORS
330
25B3
102
}
330
25B3
100
AcDbXrecord
 10
0.0
 20
0.0
 30
0.0
  0
XRECORD
  5
25CD
102
{ACAD_REACTORS
330
25B3
102
}
330
25B3
100
AcDbXrecord
 10
0.0
 20
0.0
 30
0.0
  0
XRECORD
  5
25CA
102
{ACAD_REACTORS
330
25B3
102
}
330
25B3
100
AcDbXrecord
340
0
  0
XRECORD
  5
25CB
102
{ACAD_REACTORS
330
25B3
102
}
330
25B3
100
AcDbXrecord
 70
     0
  0
XRECORD
  5
25BF
102
{ACAD_REACTORS
330
25B3
102
}
330
25B3
100
AcDbXrecord
  1
{EA907692-8DB8-11D6-88E6-0090279574E7}
  0
DICTIONARYVAR
  5
25B1
102
{ACAD_REACTORS
330
5A3
102
}
330
5A3
100
DictionaryVariables
280
     0
  1
1
  0
DICTIONARYVAR
  5
5A4
102
{ACAD_REACTORS
330
5A3
102
}
330
5A3
100
DictionaryVariables
280
     0
  1
96
  0
ENDSEC
  0
EOF
