  0
SECTION
  2
HEADER
  9
$ACADVER
  1
AC1014
  9
$ACADMAINTVER
 70
     9
  9
$DWGCODEPAGE
  3
ANSI_1252
  9
$INSBASE
 10
0.0
 20
0.0
 30
0.0
  9
$EXTMIN
 10
0.3718484752053712
 20
0.0261533276028561
 30
0.0
  9
$EXTMAX
 10
3.857067796952499
 20
2.490143510242935
 30
0.0
  9
$LIMMIN
 10
0.0
 20
0.0
  9
$LIMMAX
 10
12.0
 20
9.0
  9
$ORTHOMODE
 70
     0
  9
$REGENMODE
 70
     1
  9
$FILLMODE
 70
     1
  9
$QTEXTMODE
 70
     0
  9
$MIRRTEXT
 70
     0
  9
$DRAGMODE
 70
     2
  9
$LTSCALE
 40
1.0
  9
$OSMODE
 70
    39
  9
$ATTMODE
 70
     1
  9
$TEXTSIZE
 40
0.125
  9
$TRACEWID
 40
0.05
  9
$TEXTSTYLE
  7
ROMANS
  9
$CLAYER
  8
DIM
  9
$CELTYPE
  6
BYLAYER
  9
$CECOLOR
 62
   256
  9
$CELTSCALE
 40
1.0
  9
$DELOBJ
 70
     1
  9
$DISPSILH
 70
     1
  9
$DIMSCALE
 40
1.0
  9
$DIMASZ
 40
0.125
  9
$DIMEXO
 40
0.125
  9
$DIMDLI
 40
0.38
  9
$DIMRND
 40
0.0
  9
$DIMDLE
 40
0.0
  9
$DIMEXE
 40
0.125
  9
$DIMTP
 40
0.0
  9
$DIMTM
 40
0.0
  9
$DIMTXT
 40
0.125
  9
$DIMCEN
 40
-0.125
  9
$DIMTSZ
 40
0.0
  9
$DIMTOL
 70
     0
  9
$DIMLIM
 70
     0
  9
$DIMTIH
 70
     1
  9
$DIMTOH
 70
     1
  9
$DIMSE1
 70
     0
  9
$DIMSE2
 70
     0
  9
$DIMTAD
 70
     0
  9
$DIMZIN
 70
     4
  9
$DIMBLK
  1

  9
$DIMASO
 70
     1
  9
$DIMSHO
 70
     1
  9
$DIMPOST
  1

  9
$DIMAPOST
  1

  9
$DIMALT
 70
     0
  9
$DIMALTD
 70
     2
  9
$DIMALTF
 40
25.4
  9
$DIMLFAC
 40
0.5
  9
$DIMTOFL
 70
     0
  9
$DIMTVP
 40
0.0
  9
$DIMTIX
 70
     0
  9
$DIMSOXD
 70
     0
  9
$DIMSAH
 70
     0
  9
$DIMBLK1
  1

  9
$DIMBLK2
  1

  9
$DIMSTYLE
  2
STANDARD
  9
$DIMCLRD
 70
     0
  9
$DIMCLRE
 70
     0
  9
$DIMCLRT
 70
     0
  9
$DIMTFAC
 40
1.0
  9
$DIMGAP
 40
0.09
  9
$DIMJUST
 70
     0
  9
$DIMSD1
 70
     0
  9
$DIMSD2
 70
     0
  9
$DIMTOLJ
 70
     1
  9
$DIMTZIN
 70
     4
  9
$DIMALTZ
 70
     0
  9
$DIMALTTZ
 70
     0
  9
$DIMFIT
 70
     3
  9
$DIMUPT
 70
     0
  9
$DIMUNIT
 70
     2
  9
$DIMDEC
 70
     3
  9
$DIMTDEC
 70
     3
  9
$DIMALTU
 70
     2
  9
$DIMALTTD
 70
     2
  9
$DIMTXSTY
  7
ROMANS
  9
$DIMAUNIT
 70
     0
  9
$LUNITS
 70
     2
  9
$LUPREC
 70
     4
  9
$SKETCHINC
 40
0.1
  9
$FILLETRAD
 40
0.75
  9
$AUNITS
 70
     0
  9
$AUPREC
 70
     0
  9
$MENU
  1
.
  9
$ELEVATION
 40
0.0
  9
$PELEVATION
 40
0.0
  9
$THICKNESS
 40
0.0
  9
$LIMCHECK
 70
     0
  9
$BLIPMODE
 70
     0
  9
$CHAMFERA
 40
0.5
  9
$CHAMFERB
 40
0.5
  9
$CHAMFERC
 40
1.0
  9
$CHAMFERD
 40
0.0
  9
$SKPOLY
 70
     0
  9
$TDCREATE
 40
2451107.388147361
  9
$TDUPDATE
 40
2452458.319843449
  9
$TDINDWG
 40
1.0968584838
  9
$TDUSRTIMER
 40
1.0968584838
  9
$USRTIMER
 70
     1
  9
$ANGBASE
 50
0.0
  9
$ANGDIR
 70
     0
  9
$PDMODE
 70
    35
  9
$PDSIZE
 40
-8.0
  9
$PLINEWID
 40
0.0
  9
$COORDS
 70
     2
  9
$SPLFRAME
 70
     0
  9
$SPLINETYPE
 70
     6
  9
$SPLINESEGS
 70
     8
  9
$ATTDIA
 70
     0
  9
$ATTREQ
 70
     1
  9
$HANDLING
 70
 22529
  9
$HANDSEED
  5
ECB
  9
$SURFTAB1
 70
     6
  9
$SURFTAB2
 70
     6
  9
$SURFTYPE
 70
     6
  9
$SURFU
 70
     6
  9
$SURFV
 70
     6
  9
$UCSNAME
  2

  9
$UCSORG
 10
0.0
 20
0.0
 30
0.0
  9
$UCSXDIR
 10
1.0
 20
0.0
 30
0.0
  9
$UCSYDIR
 10
0.0
 20
1.0
 30
0.0
  9
$PUCSNAME
  2

  9
$PUCSORG
 10
0.0
 20
0.0
 30
0.0
  9
$PUCSXDIR
 10
1.0
 20
0.0
 30
0.0
  9
$PUCSYDIR
 10
0.0
 20
1.0
 30
0.0
  9
$USERI1
 70
     0
  9
$USERI2
 70
     0
  9
$USERI3
 70
     0
  9
$USERI4
 70
     0
  9
$USERI5
 70
     0
  9
$USERR1
 40
0.0
  9
$USERR2
 40
0.0
  9
$USERR3
 40
0.0
  9
$USERR4
 40
0.0
  9
$USERR5
 40
0.0
  9
$WORLDVIEW
 70
     1
  9
$SHADEDGE
 70
     3
  9
$SHADEDIF
 70
    70
  9
$TILEMODE
 70
     1
  9
$MAXACTVP
 70
    48
  9
$PINSBASE
 10
0.0
 20
0.0
 30
0.0
  9
$PLIMCHECK
 70
     0
  9
$PEXTMIN
 10
1.000000000000000E+20
 20
1.000000000000000E+20
 30
1.000000000000000E+20
  9
$PEXTMAX
 10
-1.000000000000000E+20
 20
-1.000000000000000E+20
 30
-1.000000000000000E+20
  9
$PLIMMIN
 10
0.0
 20
0.0
  9
$PLIMMAX
 10
12.0
 20
9.0
  9
$UNITMODE
 70
     0
  9
$VISRETAIN
 70
     1
  9
$PLINEGEN
 70
     1
  9
$PSLTSCALE
 70
     1
  9
$TREEDEPTH
 70
  3020
  9
$PICKSTYLE
 70
     1
  9
$CMLSTYLE
  2
STANDARD
  9
$CMLJUST
 70
     0
  9
$CMLSCALE
 40
1.0
  9
$PROXYGRAPHICS
 70
     1
  9
$MEASUREMENT
 70
     0
  0
ENDSEC
  0
SECTION
  2
CLASSES
  0
CLASS
  1
LWPOLYLINE
  2
AcDbPolyline
  3
AutoCAD 2000
 90
        0
280
     0
281
     1
  0
CLASS
  1
DICTIONARYVAR
  2
AcDbDictionaryVar
  3
AutoCAD 2000
 90
        0
280
     0
281
     0
  0
CLASS
  1
ACDBDICTIONARYWDFLT
  2
AcDbDictionaryWithDefault
  3
AutoCAD 2000
 90
        0
280
     0
281
     0
  0
CLASS
  1
ACDBPLACEHOLDER
  2
AcDbPlaceHolder
  3
AutoCAD 2000
 90
        0
280
     0
281
     0
  0
CLASS
  1
LAYOUT
  2
AcDbLayout
  3
AutoCAD 2000
 90
        0
280
     0
281
     0
  0
CLASS
  1
LONG_TRANSACTION
  2
AcDbLongTransaction
  3
AutoCAD 2000
 90
        0
280
     0
281
     0
  0
CLASS
  1
LWPOLYLINE
  2
AcDbPolyline
  3
AutoCAD 2000
 90
        0
280
     0
281
     1
  0
CLASS
  1
HATCH
  2
AcDbHatch
  3
AutoCAD 2000
 90
        0
280
     0
281
     1
  0
CLASS
  1
XRECORD
  2
AcDbXrecord
  3
AutoCAD 2000
 90
        0
280
     0
281
     0
  0
ENDSEC
  0
SECTION
  2
TABLES
  0
TABLE
  2
VPORT
  5
12
330
0
100
AcDbSymbolTable
 70
     2
  0
VPORT
  5
EA6
330
12
100
AcDbSymbolTableRecord
100
AcDbViewportTableRecord
  2
*ACTIVE
 70
     0
 10
0.0
 20
0.0
 11
1.0
 21
1.0
 12
1.54613363698462
 22
-4.221336032139879
 13
0.0
 23
0.0
 14
0.5
 24
0.5
 15
0.5
 25
0.5
 16
0.0
 26
0.0
 36
1.0
 17
3.926160451945129
 27
5.479511252948558
 37
-0.0300717933567791
 40
2.486552134917376
 41
4.320930232558139
 42
50.0
 43
0.0
 44
0.0
 50
0.0
 51
0.0
 71
     0
 72
  2000
 73
     1
 74
     1
 75
     0
 76
     0
 77
     0
 78
     0
  0
ENDTAB
  0
TABLE
  2
LTYPE
  5
D
330
0
100
AcDbSymbolTable
 70
     1
  0
LTYPE
  5
E
330
D
100
AcDbSymbolTableRecord
100
AcDbLinetypeTableRecord
  2
BYBLOCK
 70
     0
  3

 72
    65
 73
     0
 40
0.0
  0
LTYPE
  5
F
330
D
100
AcDbSymbolTableRecord
100
AcDbLinetypeTableRecord
  2
BYLAYER
 70
     0
  3

 72
    65
 73
     0
 40
0.0
  0
LTYPE
  5
5
330
D
100
AcDbSymbolTableRecord
100
AcDbLinetypeTableRecord
  2
CONTINUOUS
 70
     0
  3
Solid line
 72
    65
 73
     0
 40
0.0
  0
ENDTAB
  0
TABLE
  2
LAYER
  5
A
330
0
100
AcDbSymbolTable
 70
     3
  0
LAYER
  5
4
330
A
100
AcDbSymbolTableRecord
100
AcDbLayerTableRecord
  2
0
 70
     0
 62
     7
  6
CONTINUOUS
  0
LAYER
  5
86
330
A
100
AcDbSymbolTableRecord
100
AcDbLayerTableRecord
  2
TEXT
 70
     0
 62
     3
  6
CONTINUOUS
  0
LAYER
  5
1B
330
A
100
AcDbSymbolTableRecord
100
AcDbLayerTableRecord
  2
DIM
 70
     0
 62
     4
  6
CONTINUOUS
  0
ENDTAB
  0
TABLE
  2
STYLE
  5
B
330
0
100
AcDbSymbolTable
 70
     3
  0
STYLE
  5
C
330
B
100
AcDbSymbolTableRecord
100
AcDbTextStyleTableRecord
  2
STANDARD
 70
     0
 40
0.0
 41
1.0
 50
0.0
 71
     0
 42
0.2
  3
txt
  4

  0
STYLE
  5
1C
330
B
100
AcDbSymbolTableRecord
100
AcDbTextStyleTableRecord
  2
ROMANS
 70
     0
 40
0.0
 41
1.0
 50
0.0
 71
     0
 42
0.125
  3
romans.shx
  4

  0
STYLE
  5
D94
330
B
100
AcDbSymbolTableRecord
100
AcDbTextStyleTableRecord
  2
ITALICC
 70
     0
 40
0.0
 41
1.0
 50
0.0
 71
     0
 42
0.125
  3
italicc
  4

  0
ENDTAB
  0
TABLE
  2
VIEW
  5
10
330
0
100
AcDbSymbolTable
 70
     0
  0
ENDTAB
  0
TABLE
  2
UCS
  5
11
330
0
100
AcDbSymbolTable
 70
     0
  0
ENDTAB
  0
TABLE
  2
APPID
  5
14
330
0
100
AcDbSymbolTable
 70
     1
  0
APPID
  5
15
330
14
100
AcDbSymbolTableRecord
100
AcDbRegAppTableRecord
  2
ACAD
 70
     0
  0
ENDTAB
  0
TABLE
  2
DIMSTYLE
  5
16
330
0
100
AcDbSymbolTable
 70
     1
  0
DIMSTYLE
105
189
330
16
100
AcDbSymbolTableRecord
100
AcDbDimStyleTableRecord
  2
STANDARD
 70
     0
  3

  4

  5

  6

  7

 40
1.0
 41
0.125
 42
0.125
 43
0.38
 44
0.125
 45
0.0
 46
0.0
 47
0.0
 48
0.0
140
0.125
141
-0.125
142
0.0
143
25.4
144
0.5
145
0.0
146
1.0
147
0.09
 71
     0
 72
     0
 73
     1
 74
     1
 75
     0
 76
     0
 77
     0
 78
     4
170
     0
171
     2
172
     0
173
     0
174
     0
175
     0
176
     0
177
     0
178
     0
270
     2
271
     3
272
     3
273
     2
274
     2
340
1C
275
     0
280
     0
281
     0
282
     0
283
     1
284
     4
285
     0
286
     0
287
     3
288
     0
  0
ENDTAB
  0
TABLE
  2
BLOCK_RECORD
  5
1
330
0
100
AcDbSymbolTable
 70
     0
  0
BLOCK_RECORD
  5
2
102
{ACAD_XDICTIONARY
360
EC7
102
}
330
1
100
AcDbSymbolTableRecord
100
AcDbBlockTableRecord
  2
*MODEL_SPACE
  0
BLOCK_RECORD
  5
7
102
{ACAD_XDICTIONARY
360
EC9
102
}
330
1
100
AcDbSymbolTableRecord
100
AcDbBlockTableRecord
  2
*PAPER_SPACE
  0
ENDTAB
  0
ENDSEC
  0
SECTION
  2
BLOCKS
  0
BLOCK
  5
3
330
2
100
AcDbEntity
  8
0
100
AcDbBlockBegin
  2
*MODEL_SPACE
 70
     0
 10
0.0
 20
0.0
 30
0.0
  3
*MODEL_SPACE
  1

  0
ENDBLK
  5
6
330
2
100
AcDbEntity
  8
0
100
AcDbBlockEnd
  0
BLOCK
  5
8
330
7
100
AcDbEntity
 67
     1
  8
0
100
AcDbBlockBegin
  2
*PAPER_SPACE
 70
     0
 10
0.0
 20
0.0
 30
0.0
  3
*PAPER_SPACE
  1

  0
ENDBLK
  5
9
330
7
100
AcDbEntity
 67
     1
  8
0
100
AcDbBlockEnd
  0
ENDSEC
  0
SECTION
  2
ENTITIES
  0
LWPOLYLINE
  5
87
330
2
100
AcDbEntity
  8
0
  6
CONTINUOUS
100
AcDbPolyline
 90
       26
 70
   129
 43
0.0
 10
2.085460478545369
 20
1.155735455740335
 10
1.99066992387538
 20
1.139021323435697
 42
-0.6370702608074802
 10
1.975074820153615
 20
1.161293439730881
 10
2.023555582267144
 20
1.245264582901174
 42
0.1316524975874171
 10
2.02556520121038
 20
1.252764582901176
 10
2.025565201210378
 20
1.323638100671568
 42
0.1989123673796381
 10
1.988953548858696
 20
1.412026448319877
 10
1.670872200310318
 20
1.730107796868258
 42
0.4142135623730929
 10
1.586019386567931
 20
1.730107796868259
 10
0.8152729950745909
 20
0.9593614053749185
 10
0.6738516388372809
 20
1.100782761612228
 10
2.045638794339184
 20
2.472569917114128
 42
-0.4142135623730951
 10
2.130491608081571
 20
2.472569917114128
 10
3.502278763583471
 20
1.100782761612228
 10
3.360857407346161
 20
0.9593614053749188
 10
2.13049160808157
 20
2.18972720463951
 42
0.4142135623730929
 10
2.045638794339184
 20
2.18972720463951
 10
1.741582878428967
 20
1.885671288729295
 42
0.4142135623730951
 10
1.741582878428968
 20
1.800818474986908
 10
2.11395354885869
 20
1.428447804557187
 42
-0.1989123673796509
 10
2.150565201210371
 20
1.340059456908873
 10
2.150565201210374
 20
1.252764582901179
 42
0.1316524975873901
 10
2.152574820153609
 20
1.24526458290118
 10
2.201055582267142
 20
1.161293439730878
 42
-0.6370702608074794
 10
2.18546047854537
 20
1.139021323435697
 10
2.090669923875377
 20
1.155735455740336
 42
0.0874886635259267
  0
TEXT
  5
E19
330
2
100
AcDbEntity
  8
TEXT
100
AcDbText
 10
1.358877673480132
 20
0.4841719316854376
 30
0.0
 40
0.125
  1
PART #110635
  7
ITALICC
 72
     1
 11
2.114830054432514
 21
0.4841719316854376
 31
0.0
100
AcDbText
  0
LINE
  5
E1A
330
2
100
AcDbEntity
  8
TEXT
100
AcDbLine
 10
2.082563553384576
 20
0.2398182456656039
 30
0.0
 11
2.159211534677134
 21
0.2398182456656039
 31
0.0
  0
LINE
  5
E1B
330
2
100
AcDbEntity
  8
TEXT
100
AcDbLine
 10
2.154731647350634
 20
0.3040949403223694
 30
0.0
 11
2.087231929701117
 21
0.3040949403223694
 31
0.0
  0
LWPOLYLINE
  5
E1C
330
2
100
AcDbEntity
  8
TEXT
100
AcDbPolyline
 90
        5
 70
     0
 43
0.0001332181640625
 10
0.4454515108499018
 20
0.1808681385645565
 10
0.4587733272561505
 20
0.1808681385645565
 10
0.4587733272561505
 20
0.2175031336817463
 10
0.4954083223733404
 20
0.2175031336817463
 10
0.4954083223733404
 20
0.2308249500879933
  0
LWPOLYLINE
  5
E1D
330
2
100
AcDbEntity
  8
TEXT
100
AcDbPolyline
 90
        3
 70
     0
 43
0.0006660908203125
 10
0.4854169600686498
 20
0.2774513075098719
 10
0.3988251534280249
 20
0.2774513075098719
 10
0.3988251534280249
 20
0.1908595008692453
  0
LWPOLYLINE
  5
E1E
330
2
100
AcDbEntity
  8
TEXT
100
AcDbPolyline
 90
        3
 70
     0
 43
0.0006660908203125
 10
0.4854169600686498
 20
0.3040949403223729
 10
0.3721815206155274
 20
0.3040949403223729
 10
0.3721815206155274
 20
0.1908595008692453
  0
LWPOLYLINE
  5
E1F
330
2
100
AcDbEntity
  8
TEXT
100
AcDbPolyline
 90
        5
 70
     0
 43
0.0001332181640625
 10
0.4954083223733404
 20
0.1109286024317457
 10
0.4954083223733404
 20
0.1242504188379963
 10
0.4587733272561523
 20
0.1242504188379963
 10
0.4587733272561523
 20
0.1608854139551825
 10
0.4454515108499018
 20
0.1608854139551825
  0
LWPOLYLINE
  5
E20
330
2
100
AcDbEntity
  8
TEXT
100
AcDbPolyline
 90
        3
 70
     0
 43
0.0006660908203125
 10
0.3988251534280249
 20
0.1508940516504973
 10
0.3988251534280249
 20
0.0643022450098707
 10
0.4854169600686498
 20
0.0643022450098707
  0
LWPOLYLINE
  5
E21
330
2
100
AcDbEntity
  8
TEXT
100
AcDbPolyline
 90
        3
 70
     0
 43
0.0006660908203125
 10
0.3721815206155274
 20
0.1508940516504973
 10
0.3721815206155274
 20
0.0376586121973697
 10
0.4854169600686498
 20
0.0376586121973697
  0
LWPOLYLINE
  5
E22
330
2
100
AcDbEntity
  8
TEXT
100
AcDbPolyline
 90
        2
 70
     0
 43
0.0001332181640625
 10
0.3988251534280249
 20
0.1508940516504973
 10
0.4587733272561523
 20
0.1608854139551825
  0
LWPOLYLINE
  5
E23
330
2
100
AcDbEntity
  8
TEXT
100
AcDbPolyline
 90
        2
 70
     0
 43
0.0001332181640625
 10
0.4454515108499018
 20
0.1608854139551825
 10
0.3721815206155274
 20
0.1508940516504973
  0
LWPOLYLINE
  5
E24
330
2
100
AcDbEntity
  8
TEXT
100
AcDbPolyline
 90
        2
 70
     0
 43
0.0006660908203125
 10
0.3988251534280249
 20
0.1508940516504973
 10
0.3721815206155274
 20
0.1508940516504973
  0
LWPOLYLINE
  5
E25
330
2
100
AcDbEntity
  8
TEXT
100
AcDbPolyline
 90
        2
 70
     0
 43
0.0001332181640625
 10
0.3988251534280249
 20
0.0643022450098707
 10
0.4587733272561523
 20
0.1242504188379963
  0
LWPOLYLINE
  5
E26
330
2
100
AcDbEntity
  8
TEXT
100
AcDbPolyline
 90
        2
 70
     0
 43
0.0006660908203125
 10
0.3988251534280249
 20
0.1908595008692453
 10
0.3721815206155274
 20
0.1908595008692453
  0
LWPOLYLINE
  5
E27
330
2
100
AcDbEntity
  8
TEXT
100
AcDbPolyline
 90
        2
 70
     0
 43
0.0001332181640625
 10
0.3721815206155274
 20
0.1908595008692453
 10
0.4454515108499018
 20
0.1808681385645565
  0
LWPOLYLINE
  5
E28
330
2
100
AcDbEntity
  8
TEXT
100
AcDbPolyline
 90
        2
 70
     0
 43
0.0001332181640625
 10
0.3988251534280249
 20
0.1908595008692453
 10
0.4587733272561505
 20
0.1808681385645565
  0
LWPOLYLINE
  5
E29
330
2
100
AcDbEntity
  8
TEXT
100
AcDbPolyline
 90
        2
 70
     0
 43
0.0001332181640625
 10
0.3988251534280249
 20
0.2774513075098719
 10
0.4587733272561505
 20
0.2175031336817463
  0
LWPOLYLINE
  5
E2A
330
2
100
AcDbEntity
  8
TEXT
100
AcDbPolyline
 90
        5
 70
     0
 43
0.0001332181640625
 10
0.5653478585061511
 20
0.1608854139551825
 10
0.5520260420999024
 20
0.1608854139551825
 10
0.5520260420999024
 20
0.1242504188379963
 10
0.5153910469827126
 20
0.1242504188379963
 10
0.5153910469827126
 20
0.1109286024317457
  0
LWPOLYLINE
  5
E2B
330
2
100
AcDbEntity
  8
TEXT
100
AcDbPolyline
 90
        2
 70
     0
 43
0.0001332181640625
 10
0.6119742159280262
 20
0.1508940516504973
 10
0.5520260420999024
 20
0.1608854139551825
  0
LWPOLYLINE
  5
E2C
330
2
100
AcDbEntity
  8
TEXT
100
AcDbPolyline
 90
        2
 70
     0
 43
0.0001332181640625
 10
0.6386178487405272
 20
0.1508940516504973
 10
0.5653478585061511
 20
0.1608854139551825
  0
LWPOLYLINE
  5
E2D
330
2
100
AcDbEntity
  8
TEXT
100
AcDbPolyline
 90
        3
 70
     0
 43
0.0006660908203125
 10
0.5253824092874014
 20
0.0376586121973697
 10
0.6386178487405272
 20
0.0376586121973697
 10
0.6386178487405272
 20
0.1508940516504973
  0
LWPOLYLINE
  5
E2E
330
2
100
AcDbEntity
  8
TEXT
100
AcDbPolyline
 90
        3
 70
     0
 43
0.0006660908203125
 10
0.5253824092874014
 20
0.0643022450098707
 10
0.6119742159280262
 20
0.0643022450098707
 10
0.6119742159280262
 20
0.1508940516504973
  0
LWPOLYLINE
  5
E2F
330
2
100
AcDbEntity
  8
TEXT
100
AcDbPolyline
 90
        2
 70
     0
 43
0.0001332181640625
 10
0.6119742159280262
 20
0.0643022450098707
 10
0.5520260420999024
 20
0.1242504188379963
  0
LWPOLYLINE
  5
E30
330
2
100
AcDbEntity
  8
TEXT
100
AcDbPolyline
 90
        2
 70
     0
 43
0.0006660908203125
 10
0.5253824092874014
 20
0.0643022450098707
 10
0.5253824092874014
 20
0.0376586121973697
  0
LWPOLYLINE
  5
E31
330
2
100
AcDbEntity
  8
TEXT
100
AcDbPolyline
 90
        2
 70
     0
 43
0.0001332181640625
 10
0.5153910469827126
 20
0.1109286024317457
 10
0.5253824092874014
 20
0.0376586121973697
  0
LWPOLYLINE
  5
E32
330
2
100
AcDbEntity
  8
TEXT
100
AcDbPolyline
 90
        2
 70
     0
 43
0.0001332181640625
 10
0.5253824092874014
 20
0.0643022450098707
 10
0.5153910469827126
 20
0.1242504188379963
  0
LWPOLYLINE
  5
E33
330
2
100
AcDbEntity
  8
TEXT
100
AcDbPolyline
 90
        2
 70
     0
 43
0.0001332181640625
 10
0.4854169600686498
 20
0.0376586121973697
 10
0.4954083223733404
 20
0.1109286024317457
  0
LWPOLYLINE
  5
E34
330
2
100
AcDbEntity
  8
TEXT
100
AcDbPolyline
 90
        2
 70
     0
 43
0.0001332181640625
 10
0.4854169600686498
 20
0.0643022450098707
 10
0.4954083223733404
 20
0.1242504188379963
  0
LWPOLYLINE
  5
E35
330
2
100
AcDbEntity
  8
TEXT
100
AcDbPolyline
 90
        2
 70
     0
 43
0.0006660908203125
 10
0.4854169600686498
 20
0.0643022450098707
 10
0.4854169600686498
 20
0.0376586121973697
  0
LWPOLYLINE
  5
E36
330
2
100
AcDbEntity
  8
TEXT
100
AcDbPolyline
 90
        2
 70
     0
 43
0.0006660908203125
 10
0.6119742159280262
 20
0.1508940516504973
 10
0.6386178487405272
 20
0.1508940516504973
  0
LWPOLYLINE
  5
E37
330
2
100
AcDbEntity
  8
TEXT
100
AcDbPolyline
 90
        2
 70
     0
 43
0.0001332181640625
 10
0.6119742159280262
 20
0.2774513075098719
 10
0.5520260420999024
 20
0.2175031336817463
  0
LWPOLYLINE
  5
E38
330
2
100
AcDbEntity
  8
TEXT
100
AcDbPolyline
 90
        2
 70
     0
 43
0.0001332181640625
 10
0.6119742159280262
 20
0.1908595008692453
 10
0.5520260420999024
 20
0.1808681385645565
  0
LWPOLYLINE
  5
E39
330
2
100
AcDbEntity
  8
TEXT
100
AcDbPolyline
 90
        2
 70
     0
 43
0.0001332181640625
 10
0.5653478585061511
 20
0.1808681385645565
 10
0.6386178487405272
 20
0.1908595008692453
  0
LWPOLYLINE
  5
E3A
330
2
100
AcDbEntity
  8
TEXT
100
AcDbPolyline
 90
        3
 70
     0
 43
0.0006660908203125
 10
0.6119742159280262
 20
0.1908595008692453
 10
0.6119742159280262
 20
0.2774513075098719
 10
0.5253824092874014
 20
0.2774513075098719
  0
LWPOLYLINE
  5
E3B
330
2
100
AcDbEntity
  8
TEXT
100
AcDbPolyline
 90
        3
 70
     0
 43
0.0006660908203125
 10
0.6386178487405272
 20
0.1908595008692453
 10
0.6386178487405272
 20
0.3040949403223729
 10
0.5253824092874014
 20
0.3040949403223729
  0
LWPOLYLINE
  5
E3C
330
2
100
AcDbEntity
  8
TEXT
100
AcDbPolyline
 90
        2
 70
     0
 43
0.0001332181640625
 10
0.5253824092874014
 20
0.3040949403223729
 10
0.5153910469827126
 20
0.2308249500879933
  0
LWPOLYLINE
  5
E3D
330
2
100
AcDbEntity
  8
TEXT
100
AcDbPolyline
 90
        2
 70
     0
 43
0.0001332181640625
 10
0.5253824092874014
 20
0.2774513075098719
 10
0.5153910469827126
 20
0.2175031336817463
  0
LWPOLYLINE
  5
E3E
330
2
100
AcDbEntity
  8
TEXT
100
AcDbPolyline
 90
        2
 70
     0
 43
0.0006660908203125
 10
0.5253824092874014
 20
0.2774513075098719
 10
0.5253824092874014
 20
0.3040949403223729
  0
LWPOLYLINE
  5
E3F
330
2
100
AcDbEntity
  8
TEXT
100
AcDbPolyline
 90
        5
 70
     0
 43
0.0001332181640625
 10
0.5153910469827126
 20
0.2308249500879933
 10
0.5153910469827126
 20
0.2175031336817463
 10
0.5520260420999024
 20
0.2175031336817463
 10
0.5520260420999024
 20
0.1808681385645565
 10
0.5653478585061511
 20
0.1808681385645565
  0
LWPOLYLINE
  5
E40
330
2
100
AcDbEntity
  8
TEXT
100
AcDbPolyline
 90
        2
 70
     0
 43
0.0001332181640625
 10
0.4854169600686498
 20
0.2774513075098719
 10
0.4954083223733404
 20
0.2175031336817463
  0
LWPOLYLINE
  5
E41
330
2
100
AcDbEntity
  8
TEXT
100
AcDbPolyline
 90
        2
 70
     0
 43
0.0001332181640625
 10
0.4954083223733404
 20
0.2308249500879933
 10
0.4854169600686498
 20
0.3040949403223729
  0
LWPOLYLINE
  5
E42
330
2
100
AcDbEntity
  8
TEXT
100
AcDbPolyline
 90
        2
 70
     0
 43
0.0006660908203125
 10
0.4854169600686498
 20
0.2774513075098719
 10
0.4854169600686498
 20
0.3040949403223729
  0
LWPOLYLINE
  5
E43
330
2
100
AcDbEntity
  8
TEXT
100
AcDbPolyline
 90
        2
 70
     0
 43
0.0006660908203125
 10
0.6119742159280262
 20
0.1908595008692453
 10
0.6386178487405272
 20
0.1908595008692453
  0
LWPOLYLINE
  5
E44
330
2
100
AcDbEntity
  8
TEXT
100
AcDbPolyline
 90
        2
 70
     0
 43
0.0
 10
1.357397769489157
 20
0.0891732495487867
 42
0.3318488747599744
 10
1.42651706205447
 20
0.0376219073338584
 42
-6.868794160588311
  0
LINE
  5
E45
330
2
100
AcDbEntity
  8
TEXT
100
AcDbLine
 10
1.425377488558274
 20
0.3721064180611799
 30
0.0
 11
1.358568775991909
 21
0.3721064180611799
 31
0.0
  0
LINE
  5
E46
330
2
100
AcDbEntity
  8
TEXT
100
AcDbLine
 10
1.079226408372815
 20
0.3040949403223694
 30
0.0
 11
0.9034946554743044
 21
0.3040949403223694
 31
0.0
  0
ARC
  5
E47
330
2
100
AcDbEntity
  8
TEXT
100
AcDbCircle
 10
0.9743321218328539
 20
0.1208177156944155
 30
0.0
 40
0.0831958083605586
100
AcDbArc
 50
270.0
 51
90.0
  0
LINE
  5
E48
330
2
100
AcDbEntity
  8
TEXT
100
AcDbLine
 10
0.9087319855885525
 20
0.2398182456656039
 30
0.0
 11
1.075637639617522
 21
0.2398182456656039
 31
0.0
  0
LINE
  5
E49
330
2
100
AcDbEntity
  8
TEXT
100
AcDbLine
 10
0.9792724957391332
 20
0.1059789136672977
 30
0.0
 11
0.8214071960277991
 21
0.1059789136672977
 31
0.0
  0
LINE
  5
E4A
330
2
100
AcDbEntity
  8
TEXT
100
AcDbLine
 10
0.8214071960278008
 20
0.0376219073338584
 30
0.0
 11
0.9743321218328535
 21
0.0376219073338584
 31
0.0
  0
ARC
  5
E4B
330
2
100
AcDbEntity
  8
TEXT
100
AcDbCircle
 10
0.9034946554743047
 20
0.2220074808758676
 30
0.0
 40
0.0820874594465043
100
AcDbArc
 50
90.0
 51
270.0
  0
LINE
  5
E4C
330
2
100
AcDbEntity
  8
TEXT
100
AcDbLine
 10
0.8214071960277991
 20
0.1059789136672977
 30
0.0
 11
0.8214071960278008
 21
0.0376219073338584
 31
0.0
  0
LINE
  5
E4D
330
2
100
AcDbEntity
  8
TEXT
100
AcDbLine
 10
0.9034946554743044
 20
0.1399200214293623
 30
0.0
 11
0.9792724957391332
 21
0.1399200214293623
 31
0.0
  0
ARC
  5
E4E
330
2
100
AcDbEntity
  8
TEXT
100
AcDbCircle
 10
0.9792724957391335
 20
0.1229494675483318
 30
0.0
 40
0.0169705538810321
100
AcDbArc
 50
270.0
 51
90.0
  0
LINE
  5
E4F
330
2
100
AcDbEntity
  8
TEXT
100
AcDbLine
 10
0.9743321218328535
 20
0.2040135240549761
 30
0.0
 11
0.9087319855885525
 21
0.2040135240549761
 31
0.0
  0
ARC
  5
E50
330
2
100
AcDbEntity
  8
TEXT
100
AcDbCircle
 10
0.9087319855885528
 20
0.2219158848602918
 30
0.0
 40
0.017902360805315
100
AcDbArc
 50
90.0
 51
270.0
  0
LINE
  5
E51
330
2
100
AcDbEntity
  8
TEXT
100
AcDbLine
 10
1.269698300392668
 20
0.2032229442092488
 30
0.0
 11
1.21106797936073
 21
0.3040949403223694
 31
0.0
  0
LINE
  5
E52
330
2
100
AcDbEntity
  8
TEXT
100
AcDbLine
 10
1.129524247097628
 20
0.0376219073338584
 30
0.0
 11
1.226164498172622
 21
0.0378925464321407
 31
0.0
  0
LWPOLYLINE
  5
E53
330
2
100
AcDbEntity
  8
TEXT
100
AcDbPolyline
 90
        6
 70
     1
 43
0.0
 10
1.172048050672778
 20
0.2398182456656039
 10
1.14173145645257
 20
0.2398182456656039
 10
1.14173145645257
 20
0.1167072476107096
 42
0.407328721240804
 10
1.153275107614046
 20
0.1048883329343235
 10
1.213896806658777
 20
0.1048883329343235
 10
1.231362147066095
 20
0.1377005619778027
  0
LINE
  5
E54
330
2
100
AcDbEntity
  8
TEXT
100
AcDbLine
 10
1.075637639617522
 20
0.2398182456656039
 30
0.0
 11
1.075637639617522
 21
0.0974142986719082
 31
0.0
  0
ARC
  5
E55
330
2
100
AcDbEntity
  8
TEXT
100
AcDbCircle
 10
1.135753657591275
 20
0.0974142986719082
 30
0.0
 40
0.0601160179737537
100
AcDbArc
 50
180.0000000000003
 51
264.0521544866073
  0
LINE
  5
E56
330
2
100
AcDbEntity
  8
TEXT
100
AcDbLine
 10
1.139269013216822
 20
0.3384828579165076
 30
0.0
 11
1.079226408372815
 21
0.3384828579165076
 31
0.0
  0
LINE
  5
E57
330
2
100
AcDbEntity
  8
TEXT
100
AcDbLine
 10
1.079226408372815
 20
0.3384828579165076
 30
0.0
 11
1.079226408372815
 21
0.3040949403223694
 31
0.0
  0
LINE
  5
E58
330
2
100
AcDbEntity
  8
TEXT
100
AcDbLine
 10
1.139269013216822
 20
0.3040949403223694
 30
0.0
 11
1.139269013216822
 21
0.3384828579165076
 31
0.0
  0
LINE
  5
E59
330
2
100
AcDbEntity
  8
TEXT
100
AcDbLine
 10
1.21106797936073
 20
0.3040949403223694
 30
0.0
 11
1.139269013216822
 21
0.3040949403223694
 31
0.0
  0
LINE
  5
E5A
330
2
100
AcDbEntity
  8
TEXT
100
AcDbLine
 10
1.260098063395713
 20
0.0575804134388713
 30
0.0
 11
1.357397769489158
 21
0.2219306243741395
 31
0.0
  0
LINE
  5
E5B
330
2
100
AcDbEntity
  8
TEXT
100
AcDbLine
 10
1.357397769489158
 20
0.2219306243741395
 30
0.0
 11
1.357397769489158
 21
0.0891732495487832
 31
0.0
  0
ARC
  5
E5C
330
2
100
AcDbEntity
  8
TEXT
100
AcDbCircle
 10
1.2260545034835
 20
0.0771696296075541
 30
0.0
 40
0.0392772371940762
100
AcDbArc
 50
270.1604552698595
 51
330.0831797321295
  0
LINE
  5
E5D
330
2
100
AcDbEntity
  8
TEXT
100
AcDbLine
 10
1.328446863198533
 20
0.3040949403223694
 30
0.0
 11
1.269698300392668
 21
0.2032229442092488
 31
0.0
  0
LINE
  5
E5E
330
2
100
AcDbEntity
  8
TEXT
100
AcDbLine
 10
1.358568775991909
 20
0.3721064180611799
 30
0.0
 11
1.358568775991909
 21
0.3040949403223694
 31
0.0
  0
LINE
  5
E5F
330
2
100
AcDbEntity
  8
TEXT
100
AcDbLine
 10
1.358568775991909
 20
0.3040949403223694
 30
0.0
 11
1.328446863198533
 21
0.3040949403223694
 31
0.0
  0
LWPOLYLINE
  5
E60
330
2
100
AcDbEntity
  8
TEXT
100
AcDbPolyline
 90
        4
 70
     0
 43
0.0
 10
1.710654897612068
 20
0.232264456499494
 10
1.710654897612068
 20
0.0376219073338584
 10
1.779133180899926
 20
0.0376219073338584
 10
1.779133180899926
 20
0.0811128522842966
 42
-1.714843617202739
  0
LWPOLYLINE
  5
E61
330
2
100
AcDbEntity
  8
TEXT
100
AcDbPolyline
 90
        2
 70
     0
 43
0.0
 10
1.745789248156278
 20
0.3040949403223729
 42
-0.3277054968067132
 10
1.781570938869442
 20
0.2757723945527291
 42
6.667889725900311
  0
LWPOLYLINE
  5
E62
330
2
100
AcDbEntity
  8
TEXT
100
AcDbPolyline
 90
        2
 70
     0
 43
0.0
 10
1.57435567557705
 20
0.2398182456656039
 42
-0.4142135623731017
 10
1.581909464743164
 20
0.232264456499494
 42
-0.9999999999999998
  0
LINE
  5
E63
330
2
100
AcDbEntity
  8
TEXT
100
AcDbLine
 10
1.591707398627071
 20
0.3040949403223694
 30
0.0
 11
1.457689342695934
 21
0.3040949403223694
 31
0.0
  0
LINE
  5
E64
330
2
100
AcDbEntity
  8
TEXT
100
AcDbLine
 10
1.524520395753904
 20
0.0376219073338584
 30
0.0
 11
1.524520395753904
 21
0.2398182456656039
 31
0.0
  0
LINE
  5
E65
330
2
100
AcDbEntity
  8
TEXT
100
AcDbLine
 10
1.457689342695934
 20
0.3040949403223694
 30
0.0
 11
1.457689342695934
 21
0.1032307335899611
 31
0.0
  0
LINE
  5
E66
330
2
100
AcDbEntity
  8
TEXT
100
AcDbLine
 10
1.425377488558274
 20
0.1200097454368576
 30
0.0
 11
1.425377488558274
 21
0.3721064180611799
 31
0.0
  0
LINE
  5
E67
330
2
100
AcDbEntity
  8
TEXT
100
AcDbLine
 10
1.426517062054469
 20
0.0376219073338584
 30
0.0
 11
1.524520395753904
 21
0.0376219073338584
 31
0.0
  0
LINE
  5
E68
330
2
100
AcDbEntity
  8
TEXT
100
AcDbLine
 10
1.457689342695934
 20
0.1032307335899611
 30
0.0
 11
1.440695705811333
 21
0.1032307335899611
 31
0.0
  0
ARC
  5
E69
330
2
100
AcDbEntity
  8
TEXT
100
AcDbCircle
 10
1.440695705811332
 20
0.1186125398333866
 30
0.0
 40
0.0153818062434269
100
AcDbArc
 50
174.7883570302258
 51
270.0
  0
LINE
  5
E6A
330
2
100
AcDbEntity
  8
TEXT
100
AcDbLine
 10
1.524520395753904
 20
0.2398182456656039
 30
0.0
 11
1.574355675577051
 21
0.2398182456656039
 31
0.0
  0
LINE
  5
E6B
330
2
100
AcDbEntity
  8
TEXT
100
AcDbLine
 10
1.581909464743165
 20
0.232264456499494
 30
0.0
 11
1.581909464743165
 21
0.0376219073338584
 31
0.0
  0
LINE
  5
E6C
330
2
100
AcDbEntity
  8
TEXT
100
AcDbLine
 10
1.648967511525005
 20
0.0376219073338584
 30
0.0
 11
1.648967511525005
 21
0.2398182456656039
 31
0.0
  0
LINE
  5
E6D
330
2
100
AcDbEntity
  8
TEXT
100
AcDbLine
 10
1.581909464743165
 20
0.0376219073338584
 30
0.0
 11
1.648967511525005
 21
0.0376219073338584
 31
0.0
  0
LWPOLYLINE
  5
E6E
330
2
100
AcDbEntity
  8
TEXT
100
AcDbPolyline
 90
        3
 70
     0
 43
0.0
 10
1.745789248156278
 20
0.3040949403223729
 10
1.627489089340233
 20
0.3040949403223729
 10
1.627489089340233
 20
0.276927443561477
 42
-1.960274751411753
  0
LINE
  5
E6F
330
2
100
AcDbEntity
  8
TEXT
100
AcDbLine
 10
1.648967511525005
 20
0.2398182456656039
 30
0.0
 11
1.703101108445955
 21
0.2398182456656039
 31
0.0
  0
LWPOLYLINE
  5
E70
330
2
100
AcDbEntity
  8
TEXT
100
AcDbPolyline
 90
        2
 70
     0
 43
0.0
 10
1.591707398627072
 20
0.3040949403223729
 42
-0.3328679258950098
 10
1.627489089340233
 20
0.276927443561477
 42
6.772930709997214
  0
LWPOLYLINE
  5
E71
330
2
100
AcDbEntity
  8
TEXT
100
AcDbPolyline
 90
        2
 70
     0
 43
0.0
 10
1.703101108445954
 20
0.2398182456656039
 42
-0.4142135623731017
 10
1.710654897612068
 20
0.232264456499494
 42
-0.9999999999999998
  0
ARC
  5
E72
330
2
100
AcDbEntity
  8
TEXT
100
AcDbCircle
 10
1.914375908309434
 20
0.262511373201467
 30
0.0
 40
0.0416329381542859
100
AcDbArc
 50
26.56974201007528
 51
87.20939649401342
  0
LWPOLYLINE
  5
E73
330
2
100
AcDbEntity
  8
TEXT
100
AcDbPolyline
 90
        2
 70
     0
 43
0.0
 10
1.822209113767561
 20
0.0376219073338584
 10
1.956226531398938
 20
0.0376219073338584
 42
0.9999999999999998
  0
LWPOLYLINE
  5
E74
330
2
100
AcDbEntity
  8
TEXT
100
AcDbPolyline
 90
        4
 70
     1
 43
0.0
 10
1.936104066329045
 20
0.1405858853178836
 10
1.847443747669187
 20
0.1405858853178836
 42
0.9999999999999998
 10
1.847443747669187
 20
0.0981873448140229
 10
1.936104066329045
 20
0.0981873448140229
 42
1.0
  0
LWPOLYLINE
  5
E75
330
2
100
AcDbEntity
  8
TEXT
100
AcDbPolyline
 90
        2
 70
     0
 43
0.0
 10
1.779133180899926
 20
0.0811128522842966
 42
0.2901071551932823
 10
1.822209113767561
 20
0.0376219073338584
 42
5.328517124445801
  0
LINE
  5
E76
330
2
100
AcDbEntity
  8
TEXT
100
AcDbLine
 10
1.916402848086502
 20
0.3040949403223694
 30
0.0
 11
1.781570938869443
 21
0.3040949403223694
 31
0.0
  0
LINE
  5
E77
330
2
100
AcDbEntity
  8
TEXT
100
AcDbLine
 10
1.840885035262762
 20
0.2025432722034717
 30
0.0
 11
1.923173025046145
 21
0.2025432722034717
 31
0.0
  0
LINE
  5
E78
330
2
100
AcDbEntity
  8
TEXT
100
AcDbLine
 10
1.887371949742024
 20
0.2398182456656039
 30
0.0
 11
1.780165676354735
 21
0.2398182456656039
 31
0.0
  0
LINE
  5
E79
330
2
100
AcDbEntity
  8
TEXT
100
AcDbLine
 10
1.781570938869443
 20
0.3040949403223694
 30
0.0
 11
1.781570938869443
 21
0.2757723945527255
 31
0.0
  0
ARC
  5
E7A
330
2
100
AcDbEntity
  8
TEXT
100
AcDbCircle
 10
1.840885035262761
 20
0.1348576910593531
 30
0.0
 40
0.0676855811441166
100
AcDbArc
 50
90.0
 51
153.7768192527749
  0
LINE
  5
E7B
330
2
100
AcDbEntity
  8
TEXT
100
AcDbLine
 10
1.780165676354735
 20
0.2398182456656039
 30
0.0
 11
1.780165676354735
 21
0.1647658395913973
 31
0.0
  0
LINE
  5
E7C
330
2
100
AcDbEntity
  8
TEXT
100
AcDbLine
 10
1.923173025046145
 20
0.2025432722034717
 30
0.0
 11
1.912908264632581
 21
0.223793811776166
 31
0.0
  0
ARC
  5
E7D
330
2
100
AcDbEntity
  8
TEXT
100
AcDbCircle
 10
1.887371949742023
 20
0.2114588706656066
 30
0.0
 40
0.028359375
100
AcDbArc
 50
25.78218179591245
 51
90.0
  0
LINE
  5
E7E
330
2
100
AcDbEntity
  8
TEXT
100
AcDbLine
 10
2.057657678101917
 20
0.0376219073338584
 30
0.0
 11
2.057657678101912
 21
0.2149124127653268
 31
0.0
  0
LWPOLYLINE
  5
E7F
330
2
100
AcDbEntity
  8
TEXT
100
AcDbPolyline
 90
        2
 70
     0
 43
0.0
 10
1.999302464266582
 20
0.0376219073338584
 10
2.057657678101916
 20
0.0376219073338584
  0
LWPOLYLINE
  5
E80
330
2
100
AcDbEntity
  8
TEXT
100
AcDbPolyline
 90
        2
 70
     0
 43
0.0
 10
1.999302464266582
 20
0.0811128522842966
 42
-0.2901071551932486
 10
1.956226531398938
 20
0.0376219073338584
 42
-5.328517124445184
  0
LWPOLYLINE
  5
E81
330
2
100
AcDbEntity
  8
TEXT
100
AcDbPolyline
 90
        2
 70
     0
 43
0.0
 10
1.999302464266582
 20
0.0811128522842966
 10
1.999302464266582
 20
0.0376219073338584
  0
LINE
  5
E82
330
2
100
AcDbEntity
  8
TEXT
100
AcDbLine
 10
2.059259693261044
 20
0.3040949403223694
 30
0.0
 11
1.995362786961544
 21
0.3040949403223694
 31
0.0
  0
LINE
  5
E83
330
2
100
AcDbEntity
  8
TEXT
100
AcDbLine
 10
1.995362786961544
 20
0.3040949403223694
 30
0.0
 11
1.995362786961544
 21
0.198882961768942
 31
0.0
  0
LINE
  5
E84
330
2
100
AcDbEntity
  8
TEXT
100
AcDbLine
 10
1.995362786961544
 20
0.198882961768942
 30
0.0
 11
1.951612015779642
 21
0.2811332377650872
 31
0.0
  0
ARC
  5
E85
330
2
100
AcDbEntity
  8
TEXT
100
AcDbCircle
 10
2.082563553384575
 20
0.2149123703829412
 30
0.0
 40
0.0249058752826653
100
AcDbArc
 50
89.99971217465335
 51
179.9999999999985
  0
ARC
  5
E86
330
2
100
AcDbEntity
  8
TEXT
100
AcDbCircle
 10
2.090452510324153
 20
0.2728492130401046
 30
0.0
 40
0.0314112657011332
100
AcDbArc
 50
95.88484768694724
 51
173.2388340632136
  0
LINE
  5
E87
330
2
100
AcDbEntity
  8
TEXT
100
AcDbLine
 10
2.059259693261044
 20
0.2765472904614947
 30
0.0
 11
2.059259693261044
 21
0.3040949403223694
 31
0.0
  0
TEXT
  5
E88
330
2
100
AcDbEntity
  8
TEXT
100
AcDbText
 10
2.528135212682835
 20
0.1305077159793546
 30
0.0
 40
0.0522247191011236
  1
Minneapolis, MN 55432-0008
 41
1.11444212721585
 72
     5
 11
3.857067796952499
 21
0.1305077159793546
 31
0.0
100
AcDbText
  0
TEXT
  5
E89
330
2
100
AcDbEntity
  8
TEXT
100
AcDbText
 10
2.528135212682835
 20
0.2237661429456468
 30
0.0
 40
0.0522247191011236
  1
6536 Main St. N.E. * P.O. Box 32008
 41
0.8388932496075355
 72
     5
 11
3.857067796952499
 21
0.2237661429456468
 31
0.0
100
AcDbText
  0
TEXT
  5
E8A
330
2
100
AcDbEntity
  8
TEXT
100
AcDbText
 10
2.528135212682835
 20
0.3170245699119389
 30
0.0
 40
0.0522247191011236
  1
Stylmark  Incorporated
 41
1.221428571428571
 72
     5
 11
3.857067796952499
 21
0.3170245699119389
 31
0.0
100
AcDbText
  0
TEXT
  5
E8B
330
2
100
AcDbEntity
  8
TEXT
100
AcDbText
 10
2.528135212682835
 20
0.0372492890130625
 30
0.0
 40
0.0522247191011236
  1
Phone  1-800-328-2495
 41
1.272321428571429
 72
     5
 11
3.857067796952499
 21
0.0372492890130625
 31
0.0
100
AcDbText
  0
LINE
  5
E8C
330
2
100
AcDbEntity
  8
TEXT
100
AcDbLine
 10
2.28057940121982
 20
0.1942016973813958
 30
0.0
 11
2.345136517185525
 21
0.3040949403223694
 31
0.0
  0
LINE
  5
E8D
330
2
100
AcDbEntity
  8
TEXT
100
AcDbLine
 10
2.345136517185525
 20
0.3040949403223694
 30
0.0
 11
2.270144684455899
 21
0.3040949403223694
 31
0.0
  0
LINE
  5
E8E
330
2
100
AcDbEntity
  8
TEXT
100
AcDbLine
 10
2.299493252207224
 20
0.0376219073338584
 30
0.0
 11
2.37607162458343
 21
0.0376219073338584
 31
0.0
  0
LINE
  5
E8F
330
2
100
AcDbEntity
  8
TEXT
100
AcDbLine
 10
2.37607162458343
 20
0.0376219073338584
 30
0.0
 11
2.28057940121982
 21
0.1942016973813958
 31
0.0
  0
LINE
  5
E90
330
2
100
AcDbEntity
  8
TEXT
100
AcDbLine
 10
2.22358971899576
 20
0.0376219073338584
 30
0.0
 11
2.22358971899576
 21
0.1692014758100386
 31
0.0
  0
LINE
  5
E91
330
2
100
AcDbEntity
  8
TEXT
100
AcDbLine
 10
2.22358971899576
 20
0.1692014758100386
 30
0.0
 11
2.299493252207224
 21
0.0376219073338584
 31
0.0
  0
LINE
  5
E92
330
2
100
AcDbEntity
  8
TEXT
100
AcDbLine
 10
2.159211534677134
 20
0.2398182456656039
 30
0.0
 11
2.159211534677139
 21
0.0376219073338584
 31
0.0
  0
LINE
  5
E93
330
2
100
AcDbEntity
  8
TEXT
100
AcDbLine
 10
2.159211534677139
 20
0.0376219073338584
 30
0.0
 11
2.22358971899576
 21
0.0376219073338584
 31
0.0
  0
LINE
  5
E94
330
2
100
AcDbEntity
  8
TEXT
100
AcDbLine
 10
2.223046525899913
 20
0.3695591460899701
 30
0.0
 11
2.154731647350639
 21
0.3695591460899701
 31
0.0
  0
LINE
  5
E95
330
2
100
AcDbEntity
  8
TEXT
100
AcDbLine
 10
2.154731647350639
 20
0.3695591460899701
 30
0.0
 11
2.154731647350634
 21
0.3040949403223694
 31
0.0
  0
LINE
  5
E96
330
2
100
AcDbEntity
  8
TEXT
100
AcDbLine
 10
2.270144684455897
 20
0.3040949403223694
 30
0.0
 11
2.223046525899913
 21
0.2282296139108313
 31
0.0
  0
LINE
  5
E97
330
2
100
AcDbEntity
  8
TEXT
100
AcDbLine
 10
2.223046525899913
 20
0.2282296139108313
 30
0.0
 11
2.223046525899913
 21
0.3695591460899701
 31
0.0
  0
ENDSEC
  0
SECTION
  2
OBJECTS
  0
DICTIONARY
  5
1A
330
0
100
AcDbDictionary
  3
ACAD_GROUP
350
18
  3
ACAD_LAYOUT
350
E9C
  3
ACAD_MLINESTYLE
350
19
  3
ACAD_PLOTSETTINGS
350
E9D
  3
ACAD_PLOTSTYLENAME
350
E9A
  3
ACDBHEADERROUNDTRIPXREC
350
EA7
  3
ACDBVARIABLEDICTIONARY
350
EA4
  0
DICTIONARY
  5
EC7
330
2
100
AcDbDictionary
280
     1
  3
ACAD_LAYOUTSELFREF
360
EC8
  0
DICTIONARY
  5
EC9
330
7
100
AcDbDictionary
280
     1
  3
ACAD_LAYOUTSELFREF
360
ECA
  0
DICTIONARY
  5
18
102
{ACAD_REACTORS
330
1A
102
}
330
1A
100
AcDbDictionary
  3
*A1
350
1FE
  3
*A2
350
3B7
  0
DICTIONARY
  5
E9C
102
{ACAD_REACTORS
330
1A
102
}
330
1A
100
AcDbDictionary
  0
DICTIONARY
  5
19
102
{ACAD_REACTORS
330
1A
102
}
330
1A
100
AcDbDictionary
  3
STANDARD
350
1D
  0
DICTIONARY
  5
E9D
102
{ACAD_REACTORS
330
1A
102
}
330
1A
100
AcDbDictionary
  0
ACDBDICTIONARYWDFLT
  5
E9A
102
{ACAD_REACTORS
330
1A
102
}
330
1A
100
AcDbDictionary
281
     1
  3
Normal
350
E9B
100
AcDbDictionaryWithDefault
340
E9B
  0
DICTIONARY
  5
EA7
102
{ACAD_REACTORS
330
1A
102
}
330
1A
100
AcDbDictionary
  3
CEPSNTYPE
350
EB1
  3
FINGERPRINTGUID
350
EB2
  3
HYPERLINKBASE
350
EAA
  3
INSUNITS
350
EB0
  3
LAYOUTDICT
350
EAC
  3
LWETCUNION
350
EAF
  3
PLOTSETDICT
350
EAD
  3
PLOTSTYLNAMDICT
350
EAE
  3
PSVPSCALE
350
EB4
  3
PUCSBASE
350
EB7
  3
PUCSORGBACK
350
EBD
  3
PUCSORGBOTTOM
350
EB9
  3
PUCSORGFRONT
350
EBC
  3
PUCSORGLEFT
350
EBA
  3
PUCSORGRIGHT
350
EBB
  3
PUCSORGTOP
350
EB8
  3
PUCSORTHOREF
350
EB5
  3
PUCSORTHOVIEW
350
EB6
  3
STYLESHEET
350
EAB
  3
TSTACKALIGN
350
EA8
  3
TSTACKSIZE
350
EA9
  3
UCSBASE
350
EC0
  3
UCSORGBACK
350
EC6
  3
UCSORGBOTTOM
350
EC2
  3
UCSORGFRONT
350
EC5
  3
UCSORGLEFT
350
EC3
  3
UCSORGRIGHT
350
EC4
  3
UCSORGTOP
350
EC1
  3
UCSORTHOREF
350
EBE
  3
UCSORTHOVIEW
350
EBF
  3
VERSIONGUID
350
EB3
  0
DICTIONARY
  5
EA4
102
{ACAD_REACTORS
330
1A
102
}
330
1A
100
AcDbDictionary
  3
DIMASSOC
350
EA5
  0
XRECORD
  5
EC8
102
{ACAD_REACTORS
330
EC7
102
}
330
EC7
100
AcDbXrecord
340
2
  0
XRECORD
  5
ECA
102
{ACAD_REACTORS
330
EC9
102
}
330
EC9
100
AcDbXrecord
340
7
  0
GROUP
  5
1FE
102
{ACAD_REACTORS
330
18
102
}
330
18
100
AcDbGroup
300
BORDER FRAME 10-1-95
 70
     3
 71
     1
  0
GROUP
  5
3B7
102
{ACAD_REACTORS
330
18
102
}
330
18
100
AcDbGroup
300

 70
     1
 71
     1
  0
MLINESTYLE
  5
1D
102
{ACAD_REACTORS
330
19
102
}
330
19
100
AcDbMlineStyle
  2
STANDARD
 70
     0
  3

 62
   256
 51
90.0
 52
90.0
 71
     2
 49
0.5
 62
   256
  6
BYLAYER
 49
-0.5
 62
   256
  6
BYLAYER
  0
ACDBPLACEHOLDER
  5
E9B
102
{ACAD_REACTORS
330
E9A
102
}
330
E9A
100
AcDbPlaceHolder
280
     0
  0
XRECORD
  5
EB1
102
{ACAD_REACTORS
330
EA7
102
}
330
EA7
100
AcDbXrecord
 90
        0
  0
XRECORD
  5
EB2
102
{ACAD_REACTORS
330
EA7
102
}
330
EA7
100
AcDbXrecord
  1
{E569BBC0-8DB8-11D6-88E6-0090279574E7}
  0
XRECORD
  5
EAA
102
{ACAD_REACTORS
330
EA7
102
}
330
EA7
100
AcDbXrecord
  1

  0
XRECORD
  5
EB0
102
{ACAD_REACTORS
330
EA7
102
}
330
EA7
100
AcDbXrecord
 90
        0
  0
XRECORD
  5
EAC
102
{ACAD_REACTORS
330
EA7
102
}
330
EA7
100
AcDbXrecord
340
E9C
  0
XRECORD
  5
EAF
102
{ACAD_REACTORS
330
EA7
102
}
330
EA7
100
AcDbXrecord
 90
    14877
  0
XRECORD
  5
EAD
102
{ACAD_REACTORS
330
EA7
102
}
330
EA7
100
AcDbXrecord
340
E9D
  0
XRECORD
  5
EAE
102
{ACAD_REACTORS
330
EA7
102
}
330
EA7
100
AcDbXrecord
340
E9A
  0
XRECORD
  5
EB4
102
{ACAD_REACTORS
330
EA7
102
}
330
EA7
100
AcDbXrecord
 40
0.0
  0
XRECORD
  5
EB7
102
{ACAD_REACTORS
330
EA7
102
}
330
EA7
100
AcDbXrecord
340
0
  0
XRECORD
  5
EBD
102
{ACAD_REACTORS
330
EA7
102
}
330
EA7
100
AcDbXrecord
 10
0.0
 20
0.0
 30
0.0
  0
XRECORD
  5
EB9
102
{ACAD_REACTORS
330
EA7
102
}
330
EA7
100
AcDbXrecord
 10
0.0
 20
0.0
 30
0.0
  0
XRECORD
  5
EBC
102
{ACAD_REACTORS
330
EA7
102
}
330
EA7
100
AcDbXrecord
 10
0.0
 20
0.0
 30
0.0
  0
XRECORD
  5
EBA
102
{ACAD_REACTORS
330
EA7
102
}
330
EA7
100
AcDbXrecord
 10
0.0
 20
0.0
 30
0.0
  0
XRECORD
  5
EBB
102
{ACAD_REACTORS
330
EA7
102
}
330
EA7
100
AcDbXrecord
 10
0.0
 20
0.0
 30
0.0
  0
XRECORD
  5
EB8
102
{ACAD_REACTORS
330
EA7
102
}
330
EA7
100
AcDbXrecord
 10
0.0
 20
0.0
 30
0.0
  0
XRECORD
  5
EB5
102
{ACAD_REACTORS
330
EA7
102
}
330
EA7
100
AcDbXrecord
340
0
  0
XRECORD
  5
EB6
102
{ACAD_REACTORS
330
EA7
102
}
330
EA7
100
AcDbXrecord
 70
     0
  0
XRECORD
  5
EAB
102
{ACAD_REACTORS
330
EA7
102
}
330
EA7
100
AcDbXrecord
  1

  0
XRECORD
  5
EA8
102
{ACAD_REACTORS
330
EA7
102
}
330
EA7
100
AcDbXrecord
 90
        1
  0
XRECORD
  5
EA9
102
{ACAD_REACTORS
330
EA7
102
}
330
EA7
100
AcDbXrecord
 90
       70
  0
XRECORD
  5
EC0
102
{ACAD_REACTORS
330
EA7
102
}
330
EA7
100
AcDbXrecord
340
0
  0
XRECORD
  5
EC6
102
{ACAD_REACTORS
330
EA7
102
}
330
EA7
100
AcDbXrecord
 10
0.0
 20
0.0
 30
0.0
  0
XRECORD
  5
EC2
102
{ACAD_REACTORS
330
EA7
102
}
330
EA7
100
AcDbXrecord
 10
0.0
 20
0.0
 30
0.0
  0
XRECORD
  5
EC5
102
{ACAD_REACTORS
330
EA7
102
}
330
EA7
100
AcDbXrecord
 10
0.0
 20
0.0
 30
0.0
  0
XRECORD
  5
EC3
102
{ACAD_REACTORS
330
EA7
102
}
330
EA7
100
AcDbXrecord
 10
0.0
 20
0.0
 30
0.0
  0
XRECORD
  5
EC4
102
{ACAD_REACTORS
330
EA7
102
}
330
EA7
100
AcDbXrecord
 10
0.0
 20
0.0
 30
0.0
  0
XRECORD
  5
EC1
102
{ACAD_REACTORS
330
EA7
102
}
330
EA7
100
AcDbXrecord
 10
0.0
 20
0.0
 30
0.0
  0
XRECORD
  5
EBE
102
{ACAD_REACTORS
330
EA7
102
}
330
EA7
100
AcDbXrecord
340
0
  0
XRECORD
  5
EBF
102
{ACAD_REACTORS
330
EA7
102
}
330
EA7
100
AcDbXrecord
 70
     0
  0
XRECORD
  5
EB3
102
{ACAD_REACTORS
330
EA7
102
}
330
EA7
100
AcDbXrecord
  1
{E569BBC2-8DB8-11D6-88E6-0090279574E7}
  0
DICTIONARYVAR
  5
EA5
102
{ACAD_REACTORS
330
EA4
102
}
330
EA4
100
DictionaryVariables
280
     0
  1
1
  0
ENDSEC
  0
EOF
