  0
SECTION
  2
HEADER
  9
$ACADVER
  1
AC1014
  9
$ACADMAINTVER
 70
     9
  9
$DWGCODEPAGE
  3
ANSI_1252
  9
$INSBASE
 10
0.0
 20
0.0
 30
0.0
  9
$EXTMIN
 10
-0.3580261204486391
 20
1.781417864002762
 30
0.0
  9
$EXTMAX
 10
3.127193201298489
 20
3.841979191979152
 30
0.0
  9
$LIMMIN
 10
0.0
 20
0.0
  9
$LIMMAX
 10
12.0
 20
9.0
  9
$ORTHOMODE
 70
     1
  9
$REGENMODE
 70
     1
  9
$FILLMODE
 70
     1
  9
$QTEXTMODE
 70
     0
  9
$MIRRTEXT
 70
     0
  9
$DRAGMODE
 70
     2
  9
$LTSCALE
 40
1.0
  9
$OSMODE
 70
    39
  9
$ATTMODE
 70
     1
  9
$TEXTSIZE
 40
0.125
  9
$TRACEWID
 40
0.05
  9
$TEXTSTYLE
  7
ROMANS
  9
$CLAYER
  8
DIM
  9
$CELTYPE
  6
BYLAYER
  9
$CECOLOR
 62
   256
  9
$CELTSCALE
 40
1.0
  9
$DELOBJ
 70
     1
  9
$DISPSILH
 70
     1
  9
$DIMSCALE
 40
1.0
  9
$DIMASZ
 40
0.125
  9
$DIMEXO
 40
0.125
  9
$DIMDLI
 40
0.3
  9
$DIMRND
 40
0.0
  9
$DIMDLE
 40
0.0
  9
$DIMEXE
 40
0.125
  9
$DIMTP
 40
0.005
  9
$DIMTM
 40
0.005
  9
$DIMTXT
 40
0.125
  9
$DIMCEN
 40
-0.125
  9
$DIMTSZ
 40
0.0
  9
$DIMTOL
 70
     1
  9
$DIMLIM
 70
     0
  9
$DIMTIH
 70
     1
  9
$DIMTOH
 70
     1
  9
$DIMSE1
 70
     0
  9
$DIMSE2
 70
     0
  9
$DIMTAD
 70
     0
  9
$DIMZIN
 70
     4
  9
$DIMBLK
  1

  9
$DIMASO
 70
     1
  9
$DIMSHO
 70
     1
  9
$DIMPOST
  1

  9
$DIMAPOST
  1

  9
$DIMALT
 70
     0
  9
$DIMALTD
 70
     2
  9
$DIMALTF
 40
25.4
  9
$DIMLFAC
 40
0.5
  9
$DIMTOFL
 70
     0
  9
$DIMTVP
 40
0.0
  9
$DIMTIX
 70
     0
  9
$DIMSOXD
 70
     0
  9
$DIMSAH
 70
     0
  9
$DIMBLK1
  1

  9
$DIMBLK2
  1

  9
$DIMSTYLE
  2
STANDARD
  9
$DIMCLRD
 70
     0
  9
$DIMCLRE
 70
     0
  9
$DIMCLRT
 70
     0
  9
$DIMTFAC
 40
1.0
  9
$DIMGAP
 40
0.09
  9
$DIMJUST
 70
     0
  9
$DIMSD1
 70
     0
  9
$DIMSD2
 70
     0
  9
$DIMTOLJ
 70
     1
  9
$DIMTZIN
 70
     4
  9
$DIMALTZ
 70
     0
  9
$DIMALTTZ
 70
     0
  9
$DIMFIT
 70
     3
  9
$DIMUPT
 70
     0
  9
$DIMUNIT
 70
     2
  9
$DIMDEC
 70
     3
  9
$DIMTDEC
 70
     3
  9
$DIMALTU
 70
     2
  9
$DIMALTTD
 70
     2
  9
$DIMTXSTY
  7
ROMANS
  9
$DIMAUNIT
 70
     0
  9
$LUNITS
 70
     2
  9
$LUPREC
 70
     4
  9
$SKETCHINC
 40
0.1
  9
$FILLETRAD
 40
0.75
  9
$AUNITS
 70
     0
  9
$AUPREC
 70
     0
  9
$MENU
  1
.
  9
$ELEVATION
 40
0.0
  9
$PELEVATION
 40
0.0
  9
$THICKNESS
 40
0.0
  9
$LIMCHECK
 70
     0
  9
$BLIPMODE
 70
     0
  9
$CHAMFERA
 40
0.5
  9
$CHAMFERB
 40
0.5
  9
$CHAMFERC
 40
1.0
  9
$CHAMFERD
 40
0.0
  9
$SKPOLY
 70
     0
  9
$TDCREATE
 40
2451107.388147361
  9
$TDUPDATE
 40
2452458.319748402
  9
$TDINDWG
 40
0.7219828704
  9
$TDUSRTIMER
 40
0.7219828704
  9
$USRTIMER
 70
     1
  9
$ANGBASE
 50
0.0
  9
$ANGDIR
 70
     0
  9
$PDMODE
 70
    35
  9
$PDSIZE
 40
0.0
  9
$PLINEWID
 40
0.0
  9
$COORDS
 70
     2
  9
$SPLFRAME
 70
     0
  9
$SPLINETYPE
 70
     6
  9
$SPLINESEGS
 70
     8
  9
$ATTDIA
 70
     0
  9
$ATTREQ
 70
     1
  9
$HANDLING
 70
 22529
  9
$HANDSEED
  5
178D
  9
$SURFTAB1
 70
     6
  9
$SURFTAB2
 70
     6
  9
$SURFTYPE
 70
     6
  9
$SURFU
 70
     6
  9
$SURFV
 70
     6
  9
$UCSNAME
  2

  9
$UCSORG
 10
0.0
 20
0.0
 30
0.0
  9
$UCSXDIR
 10
1.0
 20
0.0
 30
0.0
  9
$UCSYDIR
 10
0.0
 20
1.0
 30
0.0
  9
$PUCSNAME
  2

  9
$PUCSORG
 10
0.0
 20
0.0
 30
0.0
  9
$PUCSXDIR
 10
1.0
 20
0.0
 30
0.0
  9
$PUCSYDIR
 10
0.0
 20
1.0
 30
0.0
  9
$USERI1
 70
     0
  9
$USERI2
 70
     0
  9
$USERI3
 70
     0
  9
$USERI4
 70
     0
  9
$USERI5
 70
     0
  9
$USERR1
 40
0.0
  9
$USERR2
 40
0.0
  9
$USERR3
 40
0.0
  9
$USERR4
 40
0.0
  9
$USERR5
 40
0.0
  9
$WORLDVIEW
 70
     1
  9
$SHADEDGE
 70
     3
  9
$SHADEDIF
 70
    70
  9
$TILEMODE
 70
     1
  9
$MAXACTVP
 70
    48
  9
$PINSBASE
 10
0.0
 20
0.0
 30
0.0
  9
$PLIMCHECK
 70
     0
  9
$PEXTMIN
 10
1.000000000000000E+20
 20
1.000000000000000E+20
 30
1.000000000000000E+20
  9
$PEXTMAX
 10
-1.000000000000000E+20
 20
-1.000000000000000E+20
 30
-1.000000000000000E+20
  9
$PLIMMIN
 10
0.0
 20
0.0
  9
$PLIMMAX
 10
12.0
 20
9.0
  9
$UNITMODE
 70
     0
  9
$VISRETAIN
 70
     1
  9
$PLINEGEN
 70
     1
  9
$PSLTSCALE
 70
     1
  9
$TREEDEPTH
 70
  3020
  9
$PICKSTYLE
 70
     1
  9
$CMLSTYLE
  2
STANDARD
  9
$CMLJUST
 70
     0
  9
$CMLSCALE
 40
1.0
  9
$PROXYGRAPHICS
 70
     1
  9
$MEASUREMENT
 70
     0
  0
ENDSEC
  0
SECTION
  2
CLASSES
  0
CLASS
  1
LWPOLYLINE
  2
AcDbPolyline
  3
AutoCAD 2000
 90
        0
280
     0
281
     1
  0
CLASS
  1
DICTIONARYVAR
  2
AcDbDictionaryVar
  3
AutoCAD 2000
 90
        0
280
     0
281
     0
  0
CLASS
  1
ACDBDICTIONARYWDFLT
  2
AcDbDictionaryWithDefault
  3
AutoCAD 2000
 90
        0
280
     0
281
     0
  0
CLASS
  1
ACDBPLACEHOLDER
  2
AcDbPlaceHolder
  3
AutoCAD 2000
 90
        0
280
     0
281
     0
  0
CLASS
  1
LAYOUT
  2
AcDbLayout
  3
AutoCAD 2000
 90
        0
280
     0
281
     0
  0
CLASS
  1
LONG_TRANSACTION
  2
AcDbLongTransaction
  3
AutoCAD 2000
 90
        0
280
     0
281
     0
  0
CLASS
  1
LWPOLYLINE
  2
AcDbPolyline
  3
AutoCAD 2000
 90
        0
280
     0
281
     1
  0
CLASS
  1
HATCH
  2
AcDbHatch
  3
AutoCAD 2000
 90
        0
280
     0
281
     1
  0
CLASS
  1
XRECORD
  2
AcDbXrecord
  3
AutoCAD 2000
 90
        0
280
     0
281
     0
  0
ENDSEC
  0
SECTION
  2
TABLES
  0
TABLE
  2
VPORT
  5
8
330
0
100
AcDbSymbolTable
 70
     2
  0
VPORT
  5
1768
330
8
100
AcDbSymbolTableRecord
100
AcDbViewportTableRecord
  2
*ACTIVE
 70
     0
 10
0.0
 20
0.0
 11
1.0
 21
1.0
 12
0.3809829835783596
 22
-2.667782105386583
 13
0.0
 23
0.0
 14
0.5
 24
0.5
 15
0.5
 25
0.5
 16
0.0
 26
0.0
 36
1.0
 17
3.926160451945129
 27
5.479511252948558
 37
-0.0300717933567791
 40
2.163944400474325
 41
4.320930232558139
 42
50.0
 43
0.0
 44
0.0
 50
0.0
 51
0.0
 71
     0
 72
  2000
 73
     1
 74
     1
 75
     0
 76
     0
 77
     0
 78
     0
  0
ENDTAB
  0
TABLE
  2
LTYPE
  5
5
330
0
100
AcDbSymbolTable
 70
     1
  0
LTYPE
  5
12
330
5
100
AcDbSymbolTableRecord
100
AcDbLinetypeTableRecord
  2
BYBLOCK
 70
     0
  3

 72
    65
 73
     0
 40
0.0
  0
LTYPE
  5
13
330
5
100
AcDbSymbolTableRecord
100
AcDbLinetypeTableRecord
  2
BYLAYER
 70
     0
  3

 72
    65
 73
     0
 40
0.0
  0
LTYPE
  5
14
330
5
100
AcDbSymbolTableRecord
100
AcDbLinetypeTableRecord
  2
CONTINUOUS
 70
     0
  3
Solid line
 72
    65
 73
     0
 40
0.0
  0
ENDTAB
  0
TABLE
  2
LAYER
  5
2
330
0
100
AcDbSymbolTable
 70
     4
  0
LAYER
  5
E
330
2
100
AcDbSymbolTableRecord
100
AcDbLayerTableRecord
  2
0
 70
     0
 62
     7
  6
CONTINUOUS
  0
LAYER
  5
59
330
2
100
AcDbSymbolTableRecord
100
AcDbLayerTableRecord
  2
TEXT
 70
     0
 62
     3
  6
CONTINUOUS
  0
LAYER
  5
B83
330
2
100
AcDbSymbolTableRecord
100
AcDbLayerTableRecord
  2
DIM
 70
     0
 62
     4
  6
CONTINUOUS
  0
LAYER
  5
12B2
330
2
100
AcDbSymbolTableRecord
100
AcDbLayerTableRecord
  2
AM_VIS
 70
     0
 62
     7
  6
CONTINUOUS
  0
ENDTAB
  0
TABLE
  2
STYLE
  5
3
330
0
100
AcDbSymbolTable
 70
     3
  0
STYLE
  5
F
330
3
100
AcDbSymbolTableRecord
100
AcDbTextStyleTableRecord
  2
STANDARD
 70
     0
 40
0.0
 41
1.0
 50
0.0
 71
     0
 42
0.2
  3
txt
  4

  0
STYLE
  5
5B
330
3
100
AcDbSymbolTableRecord
100
AcDbTextStyleTableRecord
  2
ROMANS
 70
     0
 40
0.0
 41
1.0
 50
0.0
 71
     0
 42
0.125
  3
romans.shx
  4

  0
STYLE
  5
1657
330
3
100
AcDbSymbolTableRecord
100
AcDbTextStyleTableRecord
  2
ITALICC
 70
     0
 40
0.0
 41
1.0
 50
0.0
 71
     0
 42
0.125
  3
italicc
  4

  0
ENDTAB
  0
TABLE
  2
VIEW
  5
6
330
0
100
AcDbSymbolTable
 70
     0
  0
ENDTAB
  0
TABLE
  2
UCS
  5
7
330
0
100
AcDbSymbolTable
 70
     0
  0
ENDTAB
  0
TABLE
  2
APPID
  5
9
330
0
100
AcDbSymbolTable
 70
     2
  0
APPID
  5
10
330
9
100
AcDbSymbolTableRecord
100
AcDbRegAppTableRecord
  2
ACAD
 70
     0
  0
APPID
  5
68C
330
9
100
AcDbSymbolTableRecord
100
AcDbRegAppTableRecord
  2
AME_SOLVIEW
 70
     0
  0
ENDTAB
  0
TABLE
  2
DIMSTYLE
  5
A
330
0
100
AcDbSymbolTable
 70
     1
  0
DIMSTYLE
105
1D
330
A
100
AcDbSymbolTableRecord
100
AcDbDimStyleTableRecord
  2
STANDARD
 70
     0
  3

  4

  5

  6

  7

 40
1.0
 41
0.125
 42
0.125
 43
0.3
 44
0.125
 45
0.0
 46
0.0
 47
0.005
 48
0.005
140
0.125
141
-0.125
142
0.0
143
25.4
144
0.5
145
0.0
146
1.0
147
0.09
 71
     1
 72
     0
 73
     1
 74
     1
 75
     0
 76
     0
 77
     0
 78
     4
170
     0
171
     2
172
     0
173
     0
174
     0
175
     0
176
     0
177
     0
178
     0
270
     2
271
     3
272
     3
273
     2
274
     2
340
5B
275
     0
280
     0
281
     0
282
     0
283
     1
284
     4
285
     0
286
     0
287
     3
288
     0
  0
ENDTAB
  0
TABLE
  2
BLOCK_RECORD
  5
1
330
0
100
AcDbSymbolTable
 70
     0
  0
BLOCK_RECORD
  5
18
102
{ACAD_XDICTIONARY
360
178B
102
}
330
1
100
AcDbSymbolTableRecord
100
AcDbBlockTableRecord
  2
*MODEL_SPACE
  0
BLOCK_RECORD
  5
15
102
{ACAD_XDICTIONARY
360
1789
102
}
330
1
100
AcDbSymbolTableRecord
100
AcDbBlockTableRecord
  2
*PAPER_SPACE
  0
ENDTAB
  0
ENDSEC
  0
SECTION
  2
BLOCKS
  0
BLOCK
  5
19
330
18
100
AcDbEntity
  8
0
100
AcDbBlockBegin
  2
*MODEL_SPACE
 70
     0
 10
0.0
 20
0.0
 30
0.0
  3
*MODEL_SPACE
  1

  0
ENDBLK
  5
1A
330
18
100
AcDbEntity
  8
0
100
AcDbBlockEnd
  0
BLOCK
  5
16
330
15
100
AcDbEntity
 67
     1
  8
0
100
AcDbBlockBegin
  2
*PAPER_SPACE
 70
     0
 10
0.0
 20
0.0
 30
0.0
  3
*PAPER_SPACE
  1

  0
ENDBLK
  5
17
330
15
100
AcDbEntity
 67
     1
  8
0
100
AcDbBlockEnd
  0
ENDSEC
  0
SECTION
  2
ENTITIES
  0
LWPOLYLINE
  5
12C9
330
18
100
AcDbEntity
  8
AM_VIS
100
AcDbPolyline
 90
       10
 70
     1
 43
0.0
 10
1.689725288085564
 20
3.611979191979154
 10
1.689725288085564
 20
2.641979191979153
 10
1.889725288085563
 20
2.641979191979153
 10
1.889725288085563
 20
3.841979191979152
 10
0.9457252880855655
 20
3.841979191979152
 10
0.9457252880855653
 20
2.641979191979153
 10
1.145725288085564
 20
2.641979191979153
 10
1.145725288085564
 20
3.611979191979153
 42
-0.4142135623730948
 10
1.175725288085564
 20
3.641979191979153
 10
1.659725288085564
 20
3.641979191979153
 42
-0.4142135623730951
  0
TEXT
  5
16DC
330
18
100
AcDbEntity
  8
TEXT
100
AcDbText
 10
0.6319792683023131
 20
2.239436468085343
 30
0.0
 40
0.125
  1
PART #110634
  7
ITALICC
 72
     1
 11
1.384955458778503
 21
2.239436468085343
 31
0.0
100
AcDbText
  0
LINE
  5
16DD
330
18
100
AcDbEntity
  8
TEXT
100
AcDbLine
 10
1.352688957730566
 20
1.99508278206551
 30
0.0
 11
1.429336939023124
 21
1.99508278206551
 31
0.0
  0
LINE
  5
16DE
330
18
100
AcDbEntity
  8
TEXT
100
AcDbLine
 10
1.424857051696624
 20
2.059359476722275
 30
0.0
 11
1.357357334047107
 21
2.059359476722275
 31
0.0
  0
LWPOLYLINE
  5
16DF
330
18
100
AcDbEntity
  8
TEXT
100
AcDbPolyline
 90
        5
 70
     0
 43
0.0001332181640625
 10
-0.2844230848041085
 20
1.936132674964462
 10
-0.2711012683978597
 20
1.936132674964462
 10
-0.2711012683978597
 20
1.972767670081652
 10
-0.2344662732806699
 20
1.972767670081652
 10
-0.2344662732806699
 20
1.986089486487899
  0
LWPOLYLINE
  5
16E0
330
18
100
AcDbEntity
  8
TEXT
100
AcDbPolyline
 90
        3
 70
     0
 43
0.0006660908203125
 10
-0.2444576355853605
 20
2.032715843909778
 10
-0.3310494422259853
 20
2.032715843909778
 10
-0.3310494422259853
 20
1.946124037269151
  0
LWPOLYLINE
  5
16E1
330
18
100
AcDbEntity
  8
TEXT
100
AcDbPolyline
 90
        3
 70
     0
 43
0.0006660908203125
 10
-0.2444576355853605
 20
2.059359476722279
 10
-0.3576930750384828
 20
2.059359476722279
 10
-0.3576930750384828
 20
1.946124037269151
  0
LWPOLYLINE
  5
16E2
330
18
100
AcDbEntity
  8
TEXT
100
AcDbPolyline
 90
        5
 70
     0
 43
0.0001332181640625
 10
-0.2344662732806699
 20
1.866193138831651
 10
-0.2344662732806699
 20
1.879514955237902
 10
-0.271101268397858
 20
1.879514955237902
 10
-0.271101268397858
 20
1.916149950355088
 10
-0.2844230848041085
 20
1.916149950355088
  0
LWPOLYLINE
  5
16E3
330
18
100
AcDbEntity
  8
TEXT
100
AcDbPolyline
 90
        3
 70
     0
 43
0.0006660908203125
 10
-0.3310494422259853
 20
1.906158588050403
 10
-0.3310494422259853
 20
1.819566781409776
 10
-0.2444576355853605
 20
1.819566781409776
  0
LWPOLYLINE
  5
16E4
330
18
100
AcDbEntity
  8
TEXT
100
AcDbPolyline
 90
        3
 70
     0
 43
0.0006660908203125
 10
-0.3576930750384828
 20
1.906158588050403
 10
-0.3576930750384828
 20
1.792923148597275
 10
-0.2444576355853605
 20
1.792923148597275
  0
LWPOLYLINE
  5
16E5
330
18
100
AcDbEntity
  8
TEXT
100
AcDbPolyline
 90
        2
 70
     0
 43
0.0001332181640625
 10
-0.3310494422259853
 20
1.906158588050403
 10
-0.271101268397858
 20
1.916149950355088
  0
LWPOLYLINE
  5
16E6
330
18
100
AcDbEntity
  8
TEXT
100
AcDbPolyline
 90
        2
 70
     0
 43
0.0001332181640625
 10
-0.2844230848041085
 20
1.916149950355088
 10
-0.3576930750384828
 20
1.906158588050403
  0
LWPOLYLINE
  5
16E7
330
18
100
AcDbEntity
  8
TEXT
100
AcDbPolyline
 90
        2
 70
     0
 43
0.0006660908203125
 10
-0.3310494422259853
 20
1.906158588050403
 10
-0.3576930750384828
 20
1.906158588050403
  0
LWPOLYLINE
  5
16E8
330
18
100
AcDbEntity
  8
TEXT
100
AcDbPolyline
 90
        2
 70
     0
 43
0.0001332181640625
 10
-0.3310494422259853
 20
1.819566781409776
 10
-0.271101268397858
 20
1.879514955237902
  0
LWPOLYLINE
  5
16E9
330
18
100
AcDbEntity
  8
TEXT
100
AcDbPolyline
 90
        2
 70
     0
 43
0.0006660908203125
 10
-0.3310494422259853
 20
1.946124037269151
 10
-0.3576930750384828
 20
1.946124037269151
  0
LWPOLYLINE
  5
16EA
330
18
100
AcDbEntity
  8
TEXT
100
AcDbPolyline
 90
        2
 70
     0
 43
0.0001332181640625
 10
-0.3576930750384828
 20
1.946124037269151
 10
-0.2844230848041085
 20
1.936132674964462
  0
LWPOLYLINE
  5
16EB
330
18
100
AcDbEntity
  8
TEXT
100
AcDbPolyline
 90
        2
 70
     0
 43
0.0001332181640625
 10
-0.3310494422259853
 20
1.946124037269151
 10
-0.2711012683978597
 20
1.936132674964462
  0
LWPOLYLINE
  5
16EC
330
18
100
AcDbEntity
  8
TEXT
100
AcDbPolyline
 90
        2
 70
     0
 43
0.0001332181640625
 10
-0.3310494422259853
 20
2.032715843909778
 10
-0.2711012683978597
 20
1.972767670081652
  0
LWPOLYLINE
  5
16ED
330
18
100
AcDbEntity
  8
TEXT
100
AcDbPolyline
 90
        5
 70
     0
 43
0.0001332181640625
 10
-0.1645267371478591
 20
1.916149950355088
 10
-0.1778485535541079
 20
1.916149950355088
 10
-0.1778485535541079
 20
1.879514955237902
 10
-0.2144835486712977
 20
1.879514955237902
 10
-0.2144835486712977
 20
1.866193138831651
  0
LWPOLYLINE
  5
16EE
330
18
100
AcDbEntity
  8
TEXT
100
AcDbPolyline
 90
        2
 70
     0
 43
0.0001332181640625
 10
-0.1179003797259841
 20
1.906158588050403
 10
-0.1778485535541079
 20
1.916149950355088
  0
LWPOLYLINE
  5
16EF
330
18
100
AcDbEntity
  8
TEXT
100
AcDbPolyline
 90
        2
 70
     0
 43
0.0001332181640625
 10
-0.0912567469134831
 20
1.906158588050403
 10
-0.1645267371478591
 20
1.916149950355088
  0
LWPOLYLINE
  5
16F0
330
18
100
AcDbEntity
  8
TEXT
100
AcDbPolyline
 90
        3
 70
     0
 43
0.0006660908203125
 10
-0.2044921863666089
 20
1.792923148597275
 10
-0.0912567469134831
 20
1.792923148597275
 10
-0.0912567469134831
 20
1.906158588050403
  0
LWPOLYLINE
  5
16F1
330
18
100
AcDbEntity
  8
TEXT
100
AcDbPolyline
 90
        3
 70
     0
 43
0.0006660908203125
 10
-0.2044921863666089
 20
1.819566781409776
 10
-0.1179003797259841
 20
1.819566781409776
 10
-0.1179003797259841
 20
1.906158588050403
  0
LWPOLYLINE
  5
16F2
330
18
100
AcDbEntity
  8
TEXT
100
AcDbPolyline
 90
        2
 70
     0
 43
0.0001332181640625
 10
-0.1179003797259841
 20
1.819566781409776
 10
-0.1778485535541079
 20
1.879514955237902
  0
LWPOLYLINE
  5
16F3
330
18
100
AcDbEntity
  8
TEXT
100
AcDbPolyline
 90
        2
 70
     0
 43
0.0006660908203125
 10
-0.2044921863666089
 20
1.819566781409776
 10
-0.2044921863666089
 20
1.792923148597275
  0
LWPOLYLINE
  5
16F4
330
18
100
AcDbEntity
  8
TEXT
100
AcDbPolyline
 90
        2
 70
     0
 43
0.0001332181640625
 10
-0.2144835486712977
 20
1.866193138831651
 10
-0.2044921863666089
 20
1.792923148597275
  0
LWPOLYLINE
  5
16F5
330
18
100
AcDbEntity
  8
TEXT
100
AcDbPolyline
 90
        2
 70
     0
 43
0.0001332181640625
 10
-0.2044921863666089
 20
1.819566781409776
 10
-0.2144835486712977
 20
1.879514955237902
  0
LWPOLYLINE
  5
16F6
330
18
100
AcDbEntity
  8
TEXT
100
AcDbPolyline
 90
        2
 70
     0
 43
0.0001332181640625
 10
-0.2444576355853605
 20
1.792923148597275
 10
-0.2344662732806699
 20
1.866193138831651
  0
LWPOLYLINE
  5
16F7
330
18
100
AcDbEntity
  8
TEXT
100
AcDbPolyline
 90
        2
 70
     0
 43
0.0001332181640625
 10
-0.2444576355853605
 20
1.819566781409776
 10
-0.2344662732806699
 20
1.879514955237902
  0
LWPOLYLINE
  5
16F8
330
18
100
AcDbEntity
  8
TEXT
100
AcDbPolyline
 90
        2
 70
     0
 43
0.0006660908203125
 10
-0.2444576355853605
 20
1.819566781409776
 10
-0.2444576355853605
 20
1.792923148597275
  0
LWPOLYLINE
  5
16F9
330
18
100
AcDbEntity
  8
TEXT
100
AcDbPolyline
 90
        2
 70
     0
 43
0.0006660908203125
 10
-0.1179003797259841
 20
1.906158588050403
 10
-0.0912567469134831
 20
1.906158588050403
  0
LWPOLYLINE
  5
16FA
330
18
100
AcDbEntity
  8
TEXT
100
AcDbPolyline
 90
        2
 70
     0
 43
0.0001332181640625
 10
-0.1179003797259841
 20
2.032715843909778
 10
-0.1778485535541079
 20
1.972767670081652
  0
LWPOLYLINE
  5
16FB
330
18
100
AcDbEntity
  8
TEXT
100
AcDbPolyline
 90
        2
 70
     0
 43
0.0001332181640625
 10
-0.1179003797259841
 20
1.946124037269151
 10
-0.1778485535541079
 20
1.936132674964462
  0
LWPOLYLINE
  5
16FC
330
18
100
AcDbEntity
  8
TEXT
100
AcDbPolyline
 90
        2
 70
     0
 43
0.0001332181640625
 10
-0.1645267371478591
 20
1.936132674964462
 10
-0.0912567469134831
 20
1.946124037269151
  0
LWPOLYLINE
  5
16FD
330
18
100
AcDbEntity
  8
TEXT
100
AcDbPolyline
 90
        3
 70
     0
 43
0.0006660908203125
 10
-0.1179003797259841
 20
1.946124037269151
 10
-0.1179003797259841
 20
2.032715843909778
 10
-0.2044921863666089
 20
2.032715843909778
  0
LWPOLYLINE
  5
16FE
330
18
100
AcDbEntity
  8
TEXT
100
AcDbPolyline
 90
        3
 70
     0
 43
0.0006660908203125
 10
-0.0912567469134831
 20
1.946124037269151
 10
-0.0912567469134831
 20
2.059359476722279
 10
-0.2044921863666089
 20
2.059359476722279
  0
LWPOLYLINE
  5
16FF
330
18
100
AcDbEntity
  8
TEXT
100
AcDbPolyline
 90
        2
 70
     0
 43
0.0001332181640625
 10
-0.2044921863666089
 20
2.059359476722279
 10
-0.2144835486712977
 20
1.986089486487899
  0
LWPOLYLINE
  5
1700
330
18
100
AcDbEntity
  8
TEXT
100
AcDbPolyline
 90
        2
 70
     0
 43
0.0001332181640625
 10
-0.2044921863666089
 20
2.032715843909778
 10
-0.2144835486712977
 20
1.972767670081652
  0
LWPOLYLINE
  5
1701
330
18
100
AcDbEntity
  8
TEXT
100
AcDbPolyline
 90
        2
 70
     0
 43
0.0006660908203125
 10
-0.2044921863666089
 20
2.032715843909778
 10
-0.2044921863666089
 20
2.059359476722279
  0
LWPOLYLINE
  5
1702
330
18
100
AcDbEntity
  8
TEXT
100
AcDbPolyline
 90
        5
 70
     0
 43
0.0001332181640625
 10
-0.2144835486712977
 20
1.986089486487899
 10
-0.2144835486712977
 20
1.972767670081652
 10
-0.1778485535541079
 20
1.972767670081652
 10
-0.1778485535541079
 20
1.936132674964462
 10
-0.1645267371478591
 20
1.936132674964462
  0
LWPOLYLINE
  5
1703
330
18
100
AcDbEntity
  8
TEXT
100
AcDbPolyline
 90
        2
 70
     0
 43
0.0001332181640625
 10
-0.2444576355853605
 20
2.032715843909778
 10
-0.2344662732806699
 20
1.972767670081652
  0
LWPOLYLINE
  5
1704
330
18
100
AcDbEntity
  8
TEXT
100
AcDbPolyline
 90
        2
 70
     0
 43
0.0001332181640625
 10
-0.2344662732806699
 20
1.986089486487899
 10
-0.2444576355853605
 20
2.059359476722279
  0
LWPOLYLINE
  5
1705
330
18
100
AcDbEntity
  8
TEXT
100
AcDbPolyline
 90
        2
 70
     0
 43
0.0006660908203125
 10
-0.2444576355853605
 20
2.032715843909778
 10
-0.2444576355853605
 20
2.059359476722279
  0
LWPOLYLINE
  5
1706
330
18
100
AcDbEntity
  8
TEXT
100
AcDbPolyline
 90
        2
 70
     0
 43
0.0006660908203125
 10
-0.1179003797259841
 20
1.946124037269151
 10
-0.0912567469134831
 20
1.946124037269151
  0
LWPOLYLINE
  5
1707
330
18
100
AcDbEntity
  8
TEXT
100
AcDbPolyline
 90
        2
 70
     0
 43
0.0
 10
0.6275231738351473
 20
1.844437785948692
 42
0.3318488747599744
 10
0.6966424664004603
 20
1.792886443733764
 42
-6.868794160588311
  0
LINE
  5
1708
330
18
100
AcDbEntity
  8
TEXT
100
AcDbLine
 10
0.6955028929042646
 20
2.127370954461086
 30
0.0
 11
0.6286941803378996
 21
2.127370954461086
 31
0.0
  0
LINE
  5
1709
330
18
100
AcDbEntity
  8
TEXT
100
AcDbLine
 10
0.3493518127188055
 20
2.059359476722275
 30
0.0
 11
0.1736200598202942
 21
2.059359476722275
 31
0.0
  0
ARC
  5
170A
330
18
100
AcDbEntity
  8
TEXT
100
AcDbCircle
 10
0.2444575261788437
 20
1.876082252094321
 30
0.0
 40
0.0831958083605586
100
AcDbArc
 50
270.0
 51
90.0
  0
LINE
  5
170B
330
18
100
AcDbEntity
  8
TEXT
100
AcDbLine
 10
0.1788573899345422
 20
1.99508278206551
 30
0.0
 11
0.3457630439635126
 21
1.99508278206551
 31
0.0
  0
LINE
  5
170C
330
18
100
AcDbEntity
  8
TEXT
100
AcDbLine
 10
0.249397900085123
 20
1.861243450067203
 30
0.0
 11
0.0915326003737889
 21
1.861243450067203
 31
0.0
  0
LINE
  5
170D
330
18
100
AcDbEntity
  8
TEXT
100
AcDbLine
 10
0.0915326003737907
 20
1.792886443733764
 30
0.0
 11
0.2444575261788433
 21
1.792886443733764
 31
0.0
  0
ARC
  5
170E
330
18
100
AcDbEntity
  8
TEXT
100
AcDbCircle
 10
0.1736200598202946
 20
1.977272017275773
 30
0.0
 40
0.0820874594465043
100
AcDbArc
 50
90.0
 51
270.0
  0
LINE
  5
170F
330
18
100
AcDbEntity
  8
TEXT
100
AcDbLine
 10
0.0915326003737889
 20
1.861243450067203
 30
0.0
 11
0.0915326003737907
 21
1.792886443733764
 31
0.0
  0
LINE
  5
1710
330
18
100
AcDbEntity
  8
TEXT
100
AcDbLine
 10
0.1736200598202942
 20
1.895184557829268
 30
0.0
 11
0.249397900085123
 21
1.895184557829268
 31
0.0
  0
ARC
  5
1711
330
18
100
AcDbEntity
  8
TEXT
100
AcDbCircle
 10
0.2493979000851234
 20
1.878214003948238
 30
0.0
 40
0.0169705538810321
100
AcDbArc
 50
270.0
 51
90.0
  0
LINE
  5
1712
330
18
100
AcDbEntity
  8
TEXT
100
AcDbLine
 10
0.2444575261788433
 20
1.959278060454882
 30
0.0
 11
0.1788573899345422
 21
1.959278060454882
 31
0.0
  0
ARC
  5
1713
330
18
100
AcDbEntity
  8
TEXT
100
AcDbCircle
 10
0.1788573899345427
 20
1.977180421260197
 30
0.0
 40
0.017902360805315
100
AcDbArc
 50
90.0
 51
270.0
  0
LINE
  5
1714
330
18
100
AcDbEntity
  8
TEXT
100
AcDbLine
 10
0.5398237047386579
 20
1.958487480609155
 30
0.0
 11
0.48119338370672
 21
2.059359476722275
 31
0.0
  0
LINE
  5
1715
330
18
100
AcDbEntity
  8
TEXT
100
AcDbLine
 10
0.3996496514436183
 20
1.792886443733764
 30
0.0
 11
0.4962899025186128
 21
1.793157082832046
 31
0.0
  0
LWPOLYLINE
  5
1716
330
18
100
AcDbEntity
  8
TEXT
100
AcDbPolyline
 90
        6
 70
     1
 43
0.0
 10
0.4421734550187684
 20
1.99508278206551
 10
0.4118568607985602
 20
1.99508278206551
 10
0.4118568607985602
 20
1.871971784010615
 42
0.407328721240804
 10
0.4234005119600366
 20
1.860152869334229
 10
0.4840222110047674
 20
1.860152869334229
 10
0.5014875514120854
 20
1.892965098377708
  0
LINE
  5
1717
330
18
100
AcDbEntity
  8
TEXT
100
AcDbLine
 10
0.3457630439635126
 20
1.99508278206551
 30
0.0
 11
0.3457630439635126
 21
1.852678835071814
 31
0.0
  0
ARC
  5
1718
330
18
100
AcDbEntity
  8
TEXT
100
AcDbCircle
 10
0.4058790619372652
 20
1.852678835071814
 30
0.0
 40
0.0601160179737537
100
AcDbArc
 50
180.0000000000003
 51
264.0521544866073
  0
LINE
  5
1719
330
18
100
AcDbEntity
  8
TEXT
100
AcDbLine
 10
0.4093944175628126
 20
2.093747394316413
 30
0.0
 11
0.3493518127188055
 21
2.093747394316413
 31
0.0
  0
LINE
  5
171A
330
18
100
AcDbEntity
  8
TEXT
100
AcDbLine
 10
0.3493518127188055
 20
2.093747394316413
 30
0.0
 11
0.3493518127188055
 21
2.059359476722275
 31
0.0
  0
LINE
  5
171B
330
18
100
AcDbEntity
  8
TEXT
100
AcDbLine
 10
0.4093944175628126
 20
2.059359476722275
 30
0.0
 11
0.4093944175628126
 21
2.093747394316413
 31
0.0
  0
LINE
  5
171C
330
18
100
AcDbEntity
  8
TEXT
100
AcDbLine
 10
0.48119338370672
 20
2.059359476722275
 30
0.0
 11
0.4093944175628126
 21
2.059359476722275
 31
0.0
  0
LINE
  5
171D
330
18
100
AcDbEntity
  8
TEXT
100
AcDbLine
 10
0.5302234677417035
 20
1.812844949838777
 30
0.0
 11
0.6275231738351481
 21
1.977195160774045
 31
0.0
  0
LINE
  5
171E
330
18
100
AcDbEntity
  8
TEXT
100
AcDbLine
 10
0.6275231738351481
 20
1.977195160774045
 30
0.0
 11
0.6275231738351481
 21
1.844437785948689
 31
0.0
  0
ARC
  5
171F
330
18
100
AcDbEntity
  8
TEXT
100
AcDbCircle
 10
0.49617990782949
 20
1.83243416600746
 30
0.0
 40
0.0392772371940762
100
AcDbArc
 50
270.1604552698595
 51
330.0831797321295
  0
LINE
  5
1720
330
18
100
AcDbEntity
  8
TEXT
100
AcDbLine
 10
0.5985722675445233
 20
2.059359476722275
 30
0.0
 11
0.5398237047386579
 21
1.958487480609155
 31
0.0
  0
LINE
  5
1721
330
18
100
AcDbEntity
  8
TEXT
100
AcDbLine
 10
0.6286941803378996
 20
2.127370954461086
 30
0.0
 11
0.6286941803378996
 21
2.059359476722275
 31
0.0
  0
LINE
  5
1722
330
18
100
AcDbEntity
  8
TEXT
100
AcDbLine
 10
0.6286941803378996
 20
2.059359476722275
 30
0.0
 11
0.5985722675445233
 21
2.059359476722275
 31
0.0
  0
LWPOLYLINE
  5
1723
330
18
100
AcDbEntity
  8
TEXT
100
AcDbPolyline
 90
        4
 70
     0
 43
0.0
 10
0.9807803019580578
 20
1.9875289928994
 10
0.9807803019580578
 20
1.792886443733764
 10
1.049258585245915
 20
1.792886443733764
 10
1.049258585245915
 20
1.836377388684202
 42
-1.714843617202739
  0
LWPOLYLINE
  5
1724
330
18
100
AcDbEntity
  8
TEXT
100
AcDbPolyline
 90
        2
 70
     0
 43
0.0
 10
1.015914652502267
 20
2.059359476722279
 42
-0.3277054968067132
 10
1.051696343215432
 20
2.031036930952635
 42
6.667889725900311
  0
LWPOLYLINE
  5
1725
330
18
100
AcDbEntity
  8
TEXT
100
AcDbPolyline
 90
        2
 70
     0
 43
0.0
 10
0.8444810799230406
 20
1.99508278206551
 42
-0.4142135623731017
 10
0.8520348690891541
 20
1.9875289928994
 42
-0.9999999999999998
  0
LINE
  5
1726
330
18
100
AcDbEntity
  8
TEXT
100
AcDbLine
 10
0.861832802973061
 20
2.059359476722275
 30
0.0
 11
0.7278147470419248
 21
2.059359476722275
 31
0.0
  0
LINE
  5
1727
330
18
100
AcDbEntity
  8
TEXT
100
AcDbLine
 10
0.794645800099894
 20
1.792886443733764
 30
0.0
 11
0.794645800099894
 21
1.99508278206551
 31
0.0
  0
LINE
  5
1728
330
18
100
AcDbEntity
  8
TEXT
100
AcDbLine
 10
0.7278147470419248
 20
2.059359476722275
 30
0.0
 11
0.7278147470419248
 21
1.858495269989867
 31
0.0
  0
LINE
  5
1729
330
18
100
AcDbEntity
  8
TEXT
100
AcDbLine
 10
0.6955028929042646
 20
1.875274281836763
 30
0.0
 11
0.6955028929042646
 21
2.127370954461086
 31
0.0
  0
LINE
  5
172A
330
18
100
AcDbEntity
  8
TEXT
100
AcDbLine
 10
0.6966424664004594
 20
1.792886443733764
 30
0.0
 11
0.794645800099894
 21
1.792886443733764
 31
0.0
  0
LINE
  5
172B
330
18
100
AcDbEntity
  8
TEXT
100
AcDbLine
 10
0.7278147470419248
 20
1.858495269989867
 30
0.0
 11
0.7108211101573234
 21
1.858495269989867
 31
0.0
  0
ARC
  5
172C
330
18
100
AcDbEntity
  8
TEXT
100
AcDbCircle
 10
0.7108211101573226
 20
1.873877076233292
 30
0.0
 40
0.0153818062434269
100
AcDbArc
 50
174.7883570302258
 51
270.0
  0
LINE
  5
172D
330
18
100
AcDbEntity
  8
TEXT
100
AcDbLine
 10
0.794645800099894
 20
1.99508278206551
 30
0.0
 11
0.8444810799230415
 21
1.99508278206551
 31
0.0
  0
LINE
  5
172E
330
18
100
AcDbEntity
  8
TEXT
100
AcDbLine
 10
0.852034869089155
 20
1.9875289928994
 30
0.0
 11
0.852034869089155
 21
1.792886443733764
 31
0.0
  0
LINE
  5
172F
330
18
100
AcDbEntity
  8
TEXT
100
AcDbLine
 10
0.919092915870995
 20
1.792886443733764
 30
0.0
 11
0.919092915870995
 21
1.99508278206551
 31
0.0
  0
LINE
  5
1730
330
18
100
AcDbEntity
  8
TEXT
100
AcDbLine
 10
0.852034869089155
 20
1.792886443733764
 30
0.0
 11
0.919092915870995
 21
1.792886443733764
 31
0.0
  0
LWPOLYLINE
  5
1731
330
18
100
AcDbEntity
  8
TEXT
100
AcDbPolyline
 90
        3
 70
     0
 43
0.0
 10
1.015914652502267
 20
2.059359476722279
 10
0.8976144936862233
 20
2.059359476722279
 10
0.8976144936862233
 20
2.032191979961383
 42
-1.960274751411753
  0
LINE
  5
1732
330
18
100
AcDbEntity
  8
TEXT
100
AcDbLine
 10
0.919092915870995
 20
1.99508278206551
 30
0.0
 11
0.9732265127919452
 21
1.99508278206551
 31
0.0
  0
LWPOLYLINE
  5
1733
330
18
100
AcDbEntity
  8
TEXT
100
AcDbPolyline
 90
        2
 70
     0
 43
0.0
 10
0.8618328029730619
 20
2.059359476722279
 42
-0.3328679258950098
 10
0.8976144936862233
 20
2.032191979961383
 42
6.772930709997214
  0
LWPOLYLINE
  5
1734
330
18
100
AcDbEntity
  8
TEXT
100
AcDbPolyline
 90
        2
 70
     0
 43
0.0
 10
0.9732265127919443
 20
1.99508278206551
 42
-0.4142135623731017
 10
0.9807803019580578
 20
1.9875289928994
 42
-0.9999999999999998
  0
ARC
  5
1735
330
18
100
AcDbEntity
  8
TEXT
100
AcDbCircle
 10
1.184501312655424
 20
2.017775909601373
 30
0.0
 40
0.0416329381542859
100
AcDbArc
 50
26.56974201007528
 51
87.20939649401342
  0
LWPOLYLINE
  5
1736
330
18
100
AcDbEntity
  8
TEXT
100
AcDbPolyline
 90
        2
 70
     0
 43
0.0
 10
1.092334518113551
 20
1.792886443733764
 10
1.226351935744927
 20
1.792886443733764
 42
0.9999999999999998
  0
LWPOLYLINE
  5
1737
330
18
100
AcDbEntity
  8
TEXT
100
AcDbPolyline
 90
        4
 70
     1
 43
0.0
 10
1.206229470675035
 20
1.895850421717789
 10
1.117569152015176
 20
1.895850421717789
 42
0.9999999999999998
 10
1.117569152015176
 20
1.853451881213929
 10
1.206229470675035
 20
1.853451881213929
 42
1.0
  0
LWPOLYLINE
  5
1738
330
18
100
AcDbEntity
  8
TEXT
100
AcDbPolyline
 90
        2
 70
     0
 43
0.0
 10
1.049258585245915
 20
1.836377388684202
 42
0.2901071551932823
 10
1.092334518113551
 20
1.792886443733764
 42
5.328517124445801
  0
LINE
  5
1739
330
18
100
AcDbEntity
  8
TEXT
100
AcDbLine
 10
1.186528252432492
 20
2.059359476722275
 30
0.0
 11
1.051696343215433
 21
2.059359476722275
 31
0.0
  0
LINE
  5
173A
330
18
100
AcDbEntity
  8
TEXT
100
AcDbLine
 10
1.111010439608752
 20
1.957807808603377
 30
0.0
 11
1.193298429392135
 21
1.957807808603377
 31
0.0
  0
LINE
  5
173B
330
18
100
AcDbEntity
  8
TEXT
100
AcDbLine
 10
1.157497354088014
 20
1.99508278206551
 30
0.0
 11
1.050291080700724
 21
1.99508278206551
 31
0.0
  0
LINE
  5
173C
330
18
100
AcDbEntity
  8
TEXT
100
AcDbLine
 10
1.051696343215433
 20
2.059359476722275
 30
0.0
 11
1.051696343215433
 21
2.031036930952631
 31
0.0
  0
ARC
  5
173D
330
18
100
AcDbEntity
  8
TEXT
100
AcDbCircle
 10
1.111010439608751
 20
1.890122227459259
 30
0.0
 40
0.0676855811441166
100
AcDbArc
 50
90.0
 51
153.7768192527749
  0
LINE
  5
173E
330
18
100
AcDbEntity
  8
TEXT
100
AcDbLine
 10
1.050291080700724
 20
1.99508278206551
 30
0.0
 11
1.050291080700724
 21
1.920030375991303
 31
0.0
  0
LINE
  5
173F
330
18
100
AcDbEntity
  8
TEXT
100
AcDbLine
 10
1.193298429392135
 20
1.957807808603377
 30
0.0
 11
1.183033668978571
 21
1.979058348176072
 31
0.0
  0
ARC
  5
1740
330
18
100
AcDbEntity
  8
TEXT
100
AcDbCircle
 10
1.157497354088013
 20
1.966723407065512
 30
0.0
 40
0.028359375
100
AcDbArc
 50
25.78218179591245
 51
90.0
  0
LINE
  5
1741
330
18
100
AcDbEntity
  8
TEXT
100
AcDbLine
 10
1.327783082447907
 20
1.792886443733764
 30
0.0
 11
1.327783082447901
 21
1.970176949165233
 31
0.0
  0
LWPOLYLINE
  5
1742
330
18
100
AcDbEntity
  8
TEXT
100
AcDbPolyline
 90
        2
 70
     0
 43
0.0
 10
1.269427868612572
 20
1.792886443733764
 10
1.327783082447906
 20
1.792886443733764
  0
LWPOLYLINE
  5
1743
330
18
100
AcDbEntity
  8
TEXT
100
AcDbPolyline
 90
        2
 70
     0
 43
0.0
 10
1.269427868612572
 20
1.836377388684202
 42
-0.2901071551932486
 10
1.226351935744927
 20
1.792886443733764
 42
-5.328517124445184
  0
LWPOLYLINE
  5
1744
330
18
100
AcDbEntity
  8
TEXT
100
AcDbPolyline
 90
        2
 70
     0
 43
0.0
 10
1.269427868612572
 20
1.836377388684202
 10
1.269427868612572
 20
1.792886443733764
  0
LINE
  5
1745
330
18
100
AcDbEntity
  8
TEXT
100
AcDbLine
 10
1.329385097607034
 20
2.059359476722275
 30
0.0
 11
1.265488191307533
 21
2.059359476722275
 31
0.0
  0
LINE
  5
1746
330
18
100
AcDbEntity
  8
TEXT
100
AcDbLine
 10
1.265488191307533
 20
2.059359476722275
 30
0.0
 11
1.265488191307533
 21
1.954147498168848
 31
0.0
  0
LINE
  5
1747
330
18
100
AcDbEntity
  8
TEXT
100
AcDbLine
 10
1.265488191307533
 20
1.954147498168848
 30
0.0
 11
1.221737420125632
 21
2.036397774164993
 31
0.0
  0
ARC
  5
1748
330
18
100
AcDbEntity
  8
TEXT
100
AcDbCircle
 10
1.352688957730565
 20
1.970176906782847
 30
0.0
 40
0.0249058752826653
100
AcDbArc
 50
89.99971217465335
 51
179.9999999999985
  0
ARC
  5
1749
330
18
100
AcDbEntity
  8
TEXT
100
AcDbCircle
 10
1.360577914670143
 20
2.02811374944001
 30
0.0
 40
0.0314112657011332
100
AcDbArc
 50
95.88484768694724
 51
173.2388340632136
  0
LINE
  5
174A
330
18
100
AcDbEntity
  8
TEXT
100
AcDbLine
 10
1.329385097607034
 20
2.0318118268614
 30
0.0
 11
1.329385097607034
 21
2.059359476722275
 31
0.0
  0
TEXT
  5
174B
330
18
100
AcDbEntity
  8
TEXT
100
AcDbText
 10
1.798260617028825
 20
1.88577225237926
 30
0.0
 40
0.0522247191011236
  1
Minneapolis, MN 55432-0008
 41
1.11444212721585
 72
     5
 11
3.127193201298489
 21
1.88577225237926
 31
0.0
100
AcDbText
  0
TEXT
  5
174C
330
18
100
AcDbEntity
  8
TEXT
100
AcDbText
 10
1.798260617028825
 20
1.979030679345552
 30
0.0
 40
0.0522247191011236
  1
6536 Main St. N.E. * P.O. Box 32008
 41
0.8388932496075355
 72
     5
 11
3.127193201298489
 21
1.979030679345552
 31
0.0
100
AcDbText
  0
TEXT
  5
174D
330
18
100
AcDbEntity
  8
TEXT
100
AcDbText
 10
1.798260617028825
 20
2.072289106311845
 30
0.0
 40
0.0522247191011236
  1
Stylmark  Incorporated
 41
1.221428571428571
 72
     5
 11
3.127193201298489
 21
2.072289106311845
 31
0.0
100
AcDbText
  0
TEXT
  5
174E
330
18
100
AcDbEntity
  8
TEXT
100
AcDbText
 10
1.798260617028825
 20
1.792513825412968
 30
0.0
 40
0.0522247191011236
  1
Phone  1-800-328-2495
 41
1.272321428571429
 72
     5
 11
3.127193201298489
 21
1.792513825412968
 31
0.0
100
AcDbText
  0
LINE
  5
174F
330
18
100
AcDbEntity
  8
TEXT
100
AcDbLine
 10
1.55070480556581
 20
1.949466233781302
 30
0.0
 11
1.615261921531515
 21
2.059359476722275
 31
0.0
  0
LINE
  5
1750
330
18
100
AcDbEntity
  8
TEXT
100
AcDbLine
 10
1.615261921531515
 20
2.059359476722275
 30
0.0
 11
1.540270088801888
 21
2.059359476722275
 31
0.0
  0
LINE
  5
1751
330
18
100
AcDbEntity
  8
TEXT
100
AcDbLine
 10
1.569618656553214
 20
1.792886443733764
 30
0.0
 11
1.64619702892942
 21
1.792886443733764
 31
0.0
  0
LINE
  5
1752
330
18
100
AcDbEntity
  8
TEXT
100
AcDbLine
 10
1.64619702892942
 20
1.792886443733764
 30
0.0
 11
1.55070480556581
 21
1.949466233781302
 31
0.0
  0
LINE
  5
1753
330
18
100
AcDbEntity
  8
TEXT
100
AcDbLine
 10
1.49371512334175
 20
1.792886443733764
 30
0.0
 11
1.49371512334175
 21
1.924466012209944
 31
0.0
  0
LINE
  5
1754
330
18
100
AcDbEntity
  8
TEXT
100
AcDbLine
 10
1.49371512334175
 20
1.924466012209944
 30
0.0
 11
1.569618656553214
 21
1.792886443733764
 31
0.0
  0
LINE
  5
1755
330
18
100
AcDbEntity
  8
TEXT
100
AcDbLine
 10
1.429336939023124
 20
1.99508278206551
 30
0.0
 11
1.429336939023129
 21
1.792886443733764
 31
0.0
  0
LINE
  5
1756
330
18
100
AcDbEntity
  8
TEXT
100
AcDbLine
 10
1.429336939023129
 20
1.792886443733764
 30
0.0
 11
1.49371512334175
 21
1.792886443733764
 31
0.0
  0
LINE
  5
1757
330
18
100
AcDbEntity
  8
TEXT
100
AcDbLine
 10
1.493171930245902
 20
2.124823682489876
 30
0.0
 11
1.424857051696629
 21
2.124823682489876
 31
0.0
  0
LINE
  5
1758
330
18
100
AcDbEntity
  8
TEXT
100
AcDbLine
 10
1.424857051696629
 20
2.124823682489876
 30
0.0
 11
1.424857051696624
 21
2.059359476722275
 31
0.0
  0
LINE
  5
1759
330
18
100
AcDbEntity
  8
TEXT
100
AcDbLine
 10
1.540270088801887
 20
2.059359476722275
 30
0.0
 11
1.493171930245902
 21
1.983494150310737
 31
0.0
  0
LINE
  5
175A
330
18
100
AcDbEntity
  8
TEXT
100
AcDbLine
 10
1.493171930245902
 20
1.983494150310737
 30
0.0
 11
1.493171930245902
 21
2.124823682489876
 31
0.0
  0
VIEWPORT
  5
689
330
15
100
AcDbEntity
 67
     1
  8
0
100
AcDbViewport
 10
6.497041420118343
 20
4.5
 30
0.0
 40
12.99408284023668
 41
9.0
 68
     1
 69
     1
1001
ACAD
1000
MVIEW
1002
{
1070
    16
1010
0.0
1020
0.0
1030
0.0
1010
0.0
1020
0.0
1030
1.0
1040
0.0
1040
9.0
1040
6.497041420118343
1040
4.5
1040
50.0
1040
0.0
1040
0.0
1070
     0
1070
 20000
1070
     1
1070
     1
1070
     0
1070
     0
1070
     0
1070
     0
1040
0.0
1040
0.0
1040
0.0
1040
0.5
1040
0.5
1040
0.5
1040
0.5
1070
     0
1002
{
1002
}
1002
}
  0
ENDSEC
  0
SECTION
  2
OBJECTS
  0
DICTIONARY
  5
C
330
0
100
AcDbDictionary
  3
ACAD_GROUP
350
D
  3
ACAD_LAYOUT
350
175F
  3
ACAD_MLINESTYLE
350
1B
  3
ACAD_PLOTSETTINGS
350
1760
  3
ACAD_PLOTSTYLENAME
350
175D
  3
ACDBHEADERROUNDTRIPXREC
350
1769
  3
ACDBVARIABLEDICTIONARY
350
5A3
  0
DICTIONARY
  5
178B
330
18
100
AcDbDictionary
280
     1
  3
ACAD_LAYOUTSELFREF
360
178C
  0
DICTIONARY
  5
1789
330
15
100
AcDbDictionary
280
     1
  3
ACAD_LAYOUTSELFREF
360
178A
  0
DICTIONARY
  5
D
102
{ACAD_REACTORS
330
C
102
}
330
C
100
AcDbDictionary
  3
*A1
350
5D
  3
*A2
350
218
  3
*A3
350
9BF
  3
*A4
350
B78
  0
DICTIONARY
  5
175F
102
{ACAD_REACTORS
330
C
102
}
330
C
100
AcDbDictionary
  0
DICTIONARY
  5
1B
102
{ACAD_REACTORS
330
C
102
}
330
C
100
AcDbDictionary
  3
STANDARD
350
1C
  0
DICTIONARY
  5
1760
102
{ACAD_REACTORS
330
C
102
}
330
C
100
AcDbDictionary
  0
ACDBDICTIONARYWDFLT
  5
175D
102
{ACAD_REACTORS
330
C
102
}
330
C
100
AcDbDictionary
281
     1
  3
Normal
350
175E
100
AcDbDictionaryWithDefault
340
175E
  0
DICTIONARY
  5
1769
102
{ACAD_REACTORS
330
C
102
}
330
C
100
AcDbDictionary
  3
CEPSNTYPE
350
1773
  3
FINGERPRINTGUID
350
1774
  3
HYPERLINKBASE
350
176C
  3
INSUNITS
350
1772
  3
LAYOUTDICT
350
176E
  3
LWETCUNION
350
1771
  3
PLOTSETDICT
350
176F
  3
PLOTSTYLNAMDICT
350
1770
  3
PSVPSCALE
350
1776
  3
PUCSBASE
350
1779
  3
PUCSORGBACK
350
177F
  3
PUCSORGBOTTOM
350
177B
  3
PUCSORGFRONT
350
177E
  3
PUCSORGLEFT
350
177C
  3
PUCSORGRIGHT
350
177D
  3
PUCSORGTOP
350
177A
  3
PUCSORTHOREF
350
1777
  3
PUCSORTHOVIEW
350
1778
  3
STYLESHEET
350
176D
  3
TSTACKALIGN
350
176A
  3
TSTACKSIZE
350
176B
  3
UCSBASE
350
1782
  3
UCSORGBACK
350
1788
  3
UCSORGBOTTOM
350
1784
  3
UCSORGFRONT
350
1787
  3
UCSORGLEFT
350
1785
  3
UCSORGRIGHT
350
1786
  3
UCSORGTOP
350
1783
  3
UCSORTHOREF
350
1780
  3
UCSORTHOVIEW
350
1781
  3
VERSIONGUID
350
1775
  0
DICTIONARY
  5
5A3
102
{ACAD_REACTORS
330
C
102
}
330
C
100
AcDbDictionary
  3
DIMASSOC
350
1767
  3
SORTENTS
350
5A4
  0
XRECORD
  5
178C
102
{ACAD_REACTORS
330
178B
102
}
330
178B
100
AcDbXrecord
340
18
  0
XRECORD
  5
178A
102
{ACAD_REACTORS
330
1789
102
}
330
1789
100
AcDbXrecord
340
15
  0
GROUP
  5
5D
102
{ACAD_REACTORS
330
D
102
}
330
D
100
AcDbGroup
300
BORDER FRAME 10-1-95
 70
     3
 71
     1
  0
GROUP
  5
218
102
{ACAD_REACTORS
330
D
102
}
330
D
100
AcDbGroup
300

 70
     1
 71
     1
  0
GROUP
  5
9BF
102
{ACAD_REACTORS
330
D
102
}
330
D
100
AcDbGroup
300
BORDER FRAME 10-1-95
 70
     3
 71
     1
  0
GROUP
  5
B78
102
{ACAD_REACTORS
330
D
102
}
330
D
100
AcDbGroup
300

 70
     1
 71
     1
  0
MLINESTYLE
  5
1C
102
{ACAD_REACTORS
330
1B
102
}
330
1B
100
AcDbMlineStyle
  2
STANDARD
 70
     0
  3

 62
   256
 51
90.0
 52
90.0
 71
     2
 49
0.5
 62
   256
  6
BYLAYER
 49
-0.5
 62
   256
  6
BYLAYER
  0
ACDBPLACEHOLDER
  5
175E
102
{ACAD_REACTORS
330
175D
102
}
330
175D
100
AcDbPlaceHolder
280
     0
  0
XRECORD
  5
1773
102
{ACAD_REACTORS
330
1769
102
}
330
1769
100
AcDbXrecord
 90
        0
  0
XRECORD
  5
1774
102
{ACAD_REACTORS
330
1769
102
}
330
1769
100
AcDbXrecord
  1
{E0802070-8DB8-11D6-88E6-0090279574E7}
  0
XRECORD
  5
176C
102
{ACAD_REACTORS
330
1769
102
}
330
1769
100
AcDbXrecord
  1

  0
XRECORD
  5
1772
102
{ACAD_REACTORS
330
1769
102
}
330
1769
100
AcDbXrecord
 90
        0
  0
XRECORD
  5
176E
102
{ACAD_REACTORS
330
1769
102
}
330
1769
100
AcDbXrecord
340
175F
  0
XRECORD
  5
1771
102
{ACAD_REACTORS
330
1769
102
}
330
1769
100
AcDbXrecord
 90
    14877
  0
XRECORD
  5
176F
102
{ACAD_REACTORS
330
1769
102
}
330
1769
100
AcDbXrecord
340
1760
  0
XRECORD
  5
1770
102
{ACAD_REACTORS
330
1769
102
}
330
1769
100
AcDbXrecord
340
175D
  0
XRECORD
  5
1776
102
{ACAD_REACTORS
330
1769
102
}
330
1769
100
AcDbXrecord
 40
0.0
  0
XRECORD
  5
1779
102
{ACAD_REACTORS
330
1769
102
}
330
1769
100
AcDbXrecord
340
0
  0
XRECORD
  5
177F
102
{ACAD_REACTORS
330
1769
102
}
330
1769
100
AcDbXrecord
 10
0.0
 20
0.0
 30
0.0
  0
XRECORD
  5
177B
102
{ACAD_REACTORS
330
1769
102
}
330
1769
100
AcDbXrecord
 10
0.0
 20
0.0
 30
0.0
  0
XRECORD
  5
177E
102
{ACAD_REACTORS
330
1769
102
}
330
1769
100
AcDbXrecord
 10
0.0
 20
0.0
 30
0.0
  0
XRECORD
  5
177C
102
{ACAD_REACTORS
330
1769
102
}
330
1769
100
AcDbXrecord
 10
0.0
 20
0.0
 30
0.0
  0
XRECORD
  5
177D
102
{ACAD_REACTORS
330
1769
102
}
330
1769
100
AcDbXrecord
 10
0.0
 20
0.0
 30
0.0
  0
XRECORD
  5
177A
102
{ACAD_REACTORS
330
1769
102
}
330
1769
100
AcDbXrecord
 10
0.0
 20
0.0
 30
0.0
  0
XRECORD
  5
1777
102
{ACAD_REACTORS
330
1769
102
}
330
1769
100
AcDbXrecord
340
0
  0
XRECORD
  5
1778
102
{ACAD_REACTORS
330
1769
102
}
330
1769
100
AcDbXrecord
 70
     0
  0
XRECORD
  5
176D
102
{ACAD_REACTORS
330
1769
102
}
330
1769
100
AcDbXrecord
  1

  0
XRECORD
  5
176A
102
{ACAD_REACTORS
330
1769
102
}
330
1769
100
AcDbXrecord
 90
        1
  0
XRECORD
  5
176B
102
{ACAD_REACTORS
330
1769
102
}
330
1769
100
AcDbXrecord
 90
       70
  0
XRECORD
  5
1782
102
{ACAD_REACTORS
330
1769
102
}
330
1769
100
AcDbXrecord
340
0
  0
XRECORD
  5
1788
102
{ACAD_REACTORS
330
1769
102
}
330
1769
100
AcDbXrecord
 10
0.0
 20
0.0
 30
0.0
  0
XRECORD
  5
1784
102
{ACAD_REACTORS
330
1769
102
}
330
1769
100
AcDbXrecord
 10
0.0
 20
0.0
 30
0.0
  0
XRECORD
  5
1787
102
{ACAD_REACTORS
330
1769
102
}
330
1769
100
AcDbXrecord
 10
0.0
 20
0.0
 30
0.0
  0
XRECORD
  5
1785
102
{ACAD_REACTORS
330
1769
102
}
330
1769
100
AcDbXrecord
 10
0.0
 20
0.0
 30
0.0
  0
XRECORD
  5
1786
102
{ACAD_REACTORS
330
1769
102
}
330
1769
100
AcDbXrecord
 10
0.0
 20
0.0
 30
0.0
  0
XRECORD
  5
1783
102
{ACAD_REACTORS
330
1769
102
}
330
1769
100
AcDbXrecord
 10
0.0
 20
0.0
 30
0.0
  0
XRECORD
  5
1780
102
{ACAD_REACTORS
330
1769
102
}
330
1769
100
AcDbXrecord
340
0
  0
XRECORD
  5
1781
102
{ACAD_REACTORS
330
1769
102
}
330
1769
100
AcDbXrecord
 70
     0
  0
XRECORD
  5
1775
102
{ACAD_REACTORS
330
1769
102
}
330
1769
100
AcDbXrecord
  1
{E0802072-8DB8-11D6-88E6-0090279574E7}
  0
DICTIONARYVAR
  5
1767
102
{ACAD_REACTORS
330
5A3
102
}
330
5A3
100
DictionaryVariables
280
     0
  1
1
  0
DICTIONARYVAR
  5
5A4
102
{ACAD_REACTORS
330
5A3
102
}
330
5A3
100
DictionaryVariables
280
     0
  1
96
  0
ENDSEC
  0
EOF
