  0
SECTION
  2
HEADER
  9
$ACADVER
  1
AC1014
  9
$ACADMAINTVER
 70
     9
  9
$DWGCODEPAGE
  3
ANSI_1252
  9
$INSBASE
 10
0.0
 20
0.0
 30
0.0
  9
$EXTMIN
 10
-0.18721619107787
 20
1.705804252227967
 30
0.0
  9
$EXTMAX
 10
3.298003130669258
 20
3.418430563383351
 30
0.0
  9
$LIMMIN
 10
0.0
 20
0.0
  9
$LIMMAX
 10
12.0
 20
9.0
  9
$ORTHOMODE
 70
     0
  9
$REGENMODE
 70
     1
  9
$FILLMODE
 70
     1
  9
$QTEXTMODE
 70
     0
  9
$MIRRTEXT
 70
     0
  9
$DRAGMODE
 70
     2
  9
$LTSCALE
 40
1.0
  9
$OSMODE
 70
    39
  9
$ATTMODE
 70
     1
  9
$TEXTSIZE
 40
0.125
  9
$TRACEWID
 40
0.05
  9
$TEXTSTYLE
  7
ROMANS
  9
$CLAYER
  8
DIM
  9
$CELTYPE
  6
BYLAYER
  9
$CECOLOR
 62
   256
  9
$CELTSCALE
 40
1.0
  9
$DELOBJ
 70
     1
  9
$DISPSILH
 70
     1
  9
$DIMSCALE
 40
1.0
  9
$DIMASZ
 40
0.125
  9
$DIMEXO
 40
0.125
  9
$DIMDLI
 40
0.38
  9
$DIMRND
 40
0.0
  9
$DIMDLE
 40
0.0
  9
$DIMEXE
 40
0.125
  9
$DIMTP
 40
0.016
  9
$DIMTM
 40
0.0
  9
$DIMTXT
 40
0.125
  9
$DIMCEN
 40
-0.125
  9
$DIMTSZ
 40
0.0
  9
$DIMTOL
 70
     1
  9
$DIMLIM
 70
     0
  9
$DIMTIH
 70
     1
  9
$DIMTOH
 70
     1
  9
$DIMSE1
 70
     0
  9
$DIMSE2
 70
     0
  9
$DIMTAD
 70
     0
  9
$DIMZIN
 70
     4
  9
$DIMBLK
  1

  9
$DIMASO
 70
     1
  9
$DIMSHO
 70
     1
  9
$DIMPOST
  1

  9
$DIMAPOST
  1

  9
$DIMALT
 70
     0
  9
$DIMALTD
 70
     2
  9
$DIMALTF
 40
25.4
  9
$DIMLFAC
 40
0.5
  9
$DIMTOFL
 70
     0
  9
$DIMTVP
 40
0.0
  9
$DIMTIX
 70
     0
  9
$DIMSOXD
 70
     0
  9
$DIMSAH
 70
     0
  9
$DIMBLK1
  1

  9
$DIMBLK2
  1

  9
$DIMSTYLE
  2
STANDARDDEVIATION
  9
$DIMCLRD
 70
     0
  9
$DIMCLRE
 70
     0
  9
$DIMCLRT
 70
     0
  9
$DIMTFAC
 40
1.0
  9
$DIMGAP
 40
0.09
  9
$DIMJUST
 70
     0
  9
$DIMSD1
 70
     0
  9
$DIMSD2
 70
     0
  9
$DIMTOLJ
 70
     1
  9
$DIMTZIN
 70
     4
  9
$DIMALTZ
 70
     0
  9
$DIMALTTZ
 70
     0
  9
$DIMFIT
 70
     3
  9
$DIMUPT
 70
     0
  9
$DIMUNIT
 70
     2
  9
$DIMDEC
 70
     3
  9
$DIMTDEC
 70
     3
  9
$DIMALTU
 70
     2
  9
$DIMALTTD
 70
     2
  9
$DIMTXSTY
  7
ROMANS
  9
$DIMAUNIT
 70
     0
  9
$LUNITS
 70
     2
  9
$LUPREC
 70
     4
  9
$SKETCHINC
 40
0.1
  9
$FILLETRAD
 40
0.03
  9
$AUNITS
 70
     0
  9
$AUPREC
 70
     0
  9
$MENU
  1
.
  9
$ELEVATION
 40
0.0
  9
$PELEVATION
 40
0.0
  9
$THICKNESS
 40
0.0
  9
$LIMCHECK
 70
     0
  9
$BLIPMODE
 70
     0
  9
$CHAMFERA
 40
0.5
  9
$CHAMFERB
 40
0.5
  9
$CHAMFERC
 40
1.0
  9
$CHAMFERD
 40
0.0
  9
$SKPOLY
 70
     0
  9
$TDCREATE
 40
2451107.388147361
  9
$TDUPDATE
 40
2452458.319655104
  9
$TDINDWG
 40
0.6724756713
  9
$TDUSRTIMER
 40
0.6724756713
  9
$USRTIMER
 70
     1
  9
$ANGBASE
 50
0.0
  9
$ANGDIR
 70
     0
  9
$PDMODE
 70
     0
  9
$PDSIZE
 40
0.0
  9
$PLINEWID
 40
0.0
  9
$COORDS
 70
     2
  9
$SPLFRAME
 70
     0
  9
$SPLINETYPE
 70
     6
  9
$SPLINESEGS
 70
     8
  9
$ATTDIA
 70
     0
  9
$ATTREQ
 70
     1
  9
$HANDLING
 70
 22529
  9
$HANDSEED
  5
1471
  9
$SURFTAB1
 70
     6
  9
$SURFTAB2
 70
     6
  9
$SURFTYPE
 70
     6
  9
$SURFU
 70
     6
  9
$SURFV
 70
     6
  9
$UCSNAME
  2

  9
$UCSORG
 10
0.0
 20
0.0
 30
0.0
  9
$UCSXDIR
 10
1.0
 20
0.0
 30
0.0
  9
$UCSYDIR
 10
0.0
 20
1.0
 30
0.0
  9
$PUCSNAME
  2

  9
$PUCSORG
 10
0.0
 20
0.0
 30
0.0
  9
$PUCSXDIR
 10
1.0
 20
0.0
 30
0.0
  9
$PUCSYDIR
 10
0.0
 20
1.0
 30
0.0
  9
$USERI1
 70
     0
  9
$USERI2
 70
     0
  9
$USERI3
 70
     0
  9
$USERI4
 70
     0
  9
$USERI5
 70
     0
  9
$USERR1
 40
0.0
  9
$USERR2
 40
0.0
  9
$USERR3
 40
0.0
  9
$USERR4
 40
0.0
  9
$USERR5
 40
0.0
  9
$WORLDVIEW
 70
     1
  9
$SHADEDGE
 70
     3
  9
$SHADEDIF
 70
    70
  9
$TILEMODE
 70
     1
  9
$MAXACTVP
 70
    48
  9
$PINSBASE
 10
0.0
 20
0.0
 30
0.0
  9
$PLIMCHECK
 70
     0
  9
$PEXTMIN
 10
1.000000000000000E+20
 20
1.000000000000000E+20
 30
1.000000000000000E+20
  9
$PEXTMAX
 10
-1.000000000000000E+20
 20
-1.000000000000000E+20
 30
-1.000000000000000E+20
  9
$PLIMMIN
 10
0.0
 20
0.0
  9
$PLIMMAX
 10
12.0
 20
9.0
  9
$UNITMODE
 70
     0
  9
$VISRETAIN
 70
     1
  9
$PLINEGEN
 70
     1
  9
$PSLTSCALE
 70
     1
  9
$TREEDEPTH
 70
  3020
  9
$PICKSTYLE
 70
     1
  9
$CMLSTYLE
  2
STANDARD
  9
$CMLJUST
 70
     0
  9
$CMLSCALE
 40
1.0
  9
$PROXYGRAPHICS
 70
     1
  9
$MEASUREMENT
 70
     0
  0
ENDSEC
  0
SECTION
  2
CLASSES
  0
CLASS
  1
LWPOLYLINE
  2
AcDbPolyline
  3
AutoCAD 2000
 90
        0
280
     0
281
     1
  0
CLASS
  1
DICTIONARYVAR
  2
AcDbDictionaryVar
  3
AutoCAD 2000
 90
        0
280
     0
281
     0
  0
CLASS
  1
ACDBDICTIONARYWDFLT
  2
AcDbDictionaryWithDefault
  3
AutoCAD 2000
 90
        0
280
     0
281
     0
  0
CLASS
  1
ACDBPLACEHOLDER
  2
AcDbPlaceHolder
  3
AutoCAD 2000
 90
        0
280
     0
281
     0
  0
CLASS
  1
LAYOUT
  2
AcDbLayout
  3
AutoCAD 2000
 90
        0
280
     0
281
     0
  0
CLASS
  1
LONG_TRANSACTION
  2
AcDbLongTransaction
  3
AutoCAD 2000
 90
        0
280
     0
281
     0
  0
CLASS
  1
LWPOLYLINE
  2
AcDbPolyline
  3
AutoCAD 2000
 90
        0
280
     0
281
     1
  0
CLASS
  1
HATCH
  2
AcDbHatch
  3
AutoCAD 2000
 90
        0
280
     0
281
     1
  0
CLASS
  1
XRECORD
  2
AcDbXrecord
  3
AutoCAD 2000
 90
        0
280
     0
281
     0
  0
ENDSEC
  0
SECTION
  2
TABLES
  0
TABLE
  2
VPORT
  5
8
330
0
100
AcDbSymbolTable
 70
     2
  0
VPORT
  5
144C
330
8
100
AcDbSymbolTableRecord
100
AcDbViewportTableRecord
  2
*ACTIVE
 70
     0
 10
0.0
 20
0.0
 11
1.0
 21
1.0
 12
0.5514129764525464
 22
-2.917244996301997
 13
0.0
 23
0.0
 14
0.5
 24
0.5
 15
0.5
 25
0.5
 16
0.0
 26
0.0
 36
1.0
 17
3.926160451945129
 27
5.479511252948558
 37
-0.0300717933567791
 40
2.163944400474325
 41
4.320930232558139
 42
50.0
 43
0.0
 44
0.0
 50
0.0
 51
0.0
 71
     0
 72
  2000
 73
     1
 74
     1
 75
     0
 76
     0
 77
     0
 78
     0
  0
ENDTAB
  0
TABLE
  2
LTYPE
  5
5
330
0
100
AcDbSymbolTable
 70
     1
  0
LTYPE
  5
12
330
5
100
AcDbSymbolTableRecord
100
AcDbLinetypeTableRecord
  2
BYBLOCK
 70
     0
  3

 72
    65
 73
     0
 40
0.0
  0
LTYPE
  5
13
330
5
100
AcDbSymbolTableRecord
100
AcDbLinetypeTableRecord
  2
BYLAYER
 70
     0
  3

 72
    65
 73
     0
 40
0.0
  0
LTYPE
  5
14
330
5
100
AcDbSymbolTableRecord
100
AcDbLinetypeTableRecord
  2
CONTINUOUS
 70
     0
  3
Solid line
 72
    65
 73
     0
 40
0.0
  0
ENDTAB
  0
TABLE
  2
LAYER
  5
2
330
0
100
AcDbSymbolTable
 70
     4
  0
LAYER
  5
E
330
2
100
AcDbSymbolTableRecord
100
AcDbLayerTableRecord
  2
0
 70
     0
 62
     7
  6
CONTINUOUS
  0
LAYER
  5
59
330
2
100
AcDbSymbolTableRecord
100
AcDbLayerTableRecord
  2
TEXT
 70
     0
 62
     3
  6
CONTINUOUS
  0
LAYER
  5
B83
330
2
100
AcDbSymbolTableRecord
100
AcDbLayerTableRecord
  2
DIM
 70
     0
 62
     4
  6
CONTINUOUS
  0
LAYER
  5
F00
330
2
100
AcDbSymbolTableRecord
100
AcDbLayerTableRecord
  2
ZZZ
 70
     1
 62
     7
  6
CONTINUOUS
  0
ENDTAB
  0
TABLE
  2
STYLE
  5
3
330
0
100
AcDbSymbolTable
 70
     3
  0
STYLE
  5
F
330
3
100
AcDbSymbolTableRecord
100
AcDbTextStyleTableRecord
  2
STANDARD
 70
     0
 40
0.0
 41
1.0
 50
0.0
 71
     0
 42
0.2
  3
txt
  4

  0
STYLE
  5
5B
330
3
100
AcDbSymbolTableRecord
100
AcDbTextStyleTableRecord
  2
ROMANS
 70
     0
 40
0.0
 41
1.0
 50
0.0
 71
     0
 42
0.125
  3
romans.shx
  4

  0
STYLE
  5
133B
330
3
100
AcDbSymbolTableRecord
100
AcDbTextStyleTableRecord
  2
ITALICC
 70
     0
 40
0.0
 41
1.0
 50
0.0
 71
     0
 42
0.125
  3
italicc
  4

  0
ENDTAB
  0
TABLE
  2
VIEW
  5
6
330
0
100
AcDbSymbolTable
 70
     0
  0
ENDTAB
  0
TABLE
  2
UCS
  5
7
330
0
100
AcDbSymbolTable
 70
     0
  0
ENDTAB
  0
TABLE
  2
APPID
  5
9
330
0
100
AcDbSymbolTable
 70
     2
  0
APPID
  5
10
330
9
100
AcDbSymbolTableRecord
100
AcDbRegAppTableRecord
  2
ACAD
 70
     0
  0
APPID
  5
68C
330
9
100
AcDbSymbolTableRecord
100
AcDbRegAppTableRecord
  2
AME_SOLVIEW
 70
     0
  0
ENDTAB
  0
TABLE
  2
DIMSTYLE
  5
A
330
0
100
AcDbSymbolTable
 70
     2
  0
DIMSTYLE
105
1D
330
A
100
AcDbSymbolTableRecord
100
AcDbDimStyleTableRecord
  2
STANDARD
 70
     0
  3

  4

  5

  6

  7

 40
1.0
 41
0.125
 42
0.125
 43
0.38
 44
0.125
 45
0.0
 46
0.0
 47
2.0
 48
2.0
140
0.125
141
-0.125
142
0.0
143
25.4
144
0.5
145
0.0
146
1.0
147
0.09
 71
     1
 72
     0
 73
     1
 74
     1
 75
     0
 76
     0
 77
     0
 78
     4
170
     0
171
     2
172
     0
173
     0
174
     0
175
     0
176
     0
177
     0
178
     0
270
     2
271
     3
272
     3
273
     2
274
     2
340
5B
275
     0
280
     0
281
     0
282
     0
283
     1
284
     4
285
     0
286
     0
287
     3
288
     0
  0
DIMSTYLE
105
1313
330
A
100
AcDbSymbolTableRecord
100
AcDbDimStyleTableRecord
  2
STANDARDDEVIATION
 70
     0
  3

  4

  5

  6

  7

 40
1.0
 41
0.125
 42
0.125
 43
0.38
 44
0.125
 45
0.0
 46
0.0
 47
0.016
 48
0.0
140
0.125
141
-0.125
142
0.0
143
25.4
144
0.5
145
0.0
146
1.0
147
0.09
 71
     1
 72
     0
 73
     1
 74
     1
 75
     0
 76
     0
 77
     0
 78
     4
170
     0
171
     2
172
     0
173
     0
174
     0
175
     0
176
     0
177
     0
178
     0
270
     2
271
     3
272
     3
273
     2
274
     2
340
5B
275
     0
280
     0
281
     0
282
     0
283
     1
284
     4
285
     0
286
     0
287
     3
288
     0
  0
ENDTAB
  0
TABLE
  2
BLOCK_RECORD
  5
1
330
0
100
AcDbSymbolTable
 70
     0
  0
BLOCK_RECORD
  5
18
102
{ACAD_XDICTIONARY
360
146F
102
}
330
1
100
AcDbSymbolTableRecord
100
AcDbBlockTableRecord
  2
*MODEL_SPACE
  0
BLOCK_RECORD
  5
15
102
{ACAD_XDICTIONARY
360
146D
102
}
330
1
100
AcDbSymbolTableRecord
100
AcDbBlockTableRecord
  2
*PAPER_SPACE
  0
ENDTAB
  0
ENDSEC
  0
SECTION
  2
BLOCKS
  0
BLOCK
  5
19
330
18
100
AcDbEntity
  8
0
100
AcDbBlockBegin
  2
*MODEL_SPACE
 70
     0
 10
0.0
 20
0.0
 30
0.0
  3
*MODEL_SPACE
  1

  0
ENDBLK
  5
1A
330
18
100
AcDbEntity
  8
0
100
AcDbBlockEnd
  0
BLOCK
  5
16
330
15
100
AcDbEntity
 67
     1
  8
0
100
AcDbBlockBegin
  2
*PAPER_SPACE
 70
     0
 10
0.0
 20
0.0
 30
0.0
  3
*PAPER_SPACE
  1

  0
ENDBLK
  5
17
330
15
100
AcDbEntity
 67
     1
  8
0
100
AcDbBlockEnd
  0
ENDSEC
  0
SECTION
  2
ENTITIES
  0
LWPOLYLINE
  5
B82
330
18
100
AcDbEntity
  8
0
100
AcDbPolyline
 90
       18
 70
     1
 43
0.0
 10
1.571388798524731
 20
2.583930563383351
 10
1.632369560638264
 20
2.689552341648259
 42
0.1316524975873975
 10
1.634379179581497
 20
2.69705234164826
 10
1.634379179581498
 20
3.203430563383351
 42
0.4142135623730953
 10
1.619379179581498
 20
3.218430563383352
 10
0.684379179581498
 20
3.218430563383352
 10
0.684379179581498
 20
3.418430563383351
 10
2.684379179581497
 20
3.418430563383351
 10
2.684379179581497
 20
3.218430563383352
 10
1.749379179581497
 20
3.218430563383352
 42
0.4142135623730951
 10
1.734379179581497
 20
3.203430563383351
 10
1.734379179581498
 20
2.697052341648261
 42
0.1316524975873966
 10
1.736388798524731
 20
2.689552341648261
 10
1.797369560638264
 20
2.583930563383351
 42
-0.6370702608074933
 10
1.781774456916494
 20
2.561658447088167
 10
1.6869839022465
 20
2.578372579392807
 42
0.0874886635259193
 10
1.681774456916492
 20
2.578372579392807
 10
1.586983902246501
 20
2.561658447088167
 42
-0.637070260807493
  0
LWPOLYLINE
  5
10E1
330
18
100
AcDbEntity
  8
ZZZ
100
AcDbPolyline
 90
       18
 70
     1
 43
0.0
 10
6.908756793402427
 20
5.519323099835967
 10
6.96973755551596
 20
5.413701321571057
 42
-0.6370702608074944
 10
6.95414245179419
 20
5.391429205275874
 10
6.859351897124196
 20
5.408143337580513
 42
0.087488663525917
 10
6.854142451794189
 20
5.408143337580513
 10
6.759351897124197
 20
5.391429205275874
 42
-0.6370702608074894
 10
6.743756793402427
 20
5.413701321571057
 10
6.80473755551596
 20
5.519323099835966
 42
0.1316524975873998
 10
6.806747174459193
 20
5.526823099835966
 10
6.806747174459194
 20
6.126201321571057
 42
0.4142135623730864
 10
6.791747174459194
 20
6.141201321571058
 10
5.856747174459194
 20
6.141201321571058
 10
5.856747174459194
 20
6.341201321571057
 10
7.856747174459194
 20
6.341201321571057
 10
7.856747174459194
 20
6.141201321571058
 10
6.921747174459193
 20
6.141201321571058
 42
0.4142135623730863
 10
6.906747174459193
 20
6.126201321571057
 10
6.906747174459194
 20
5.526823099835967
 42
0.1316524975873981
  0
LWPOLYLINE
  5
10E2
330
18
100
AcDbEntity
  8
ZZZ
100
AcDbPolyline
 90
       12
 70
     1
 43
0.0
 10
6.943653163691605
 20
5.503901321571057
 10
7.850030146774294
 20
5.503901321571057
 10
7.850030146774294
 20
5.303901321571057
 10
5.850030146774294
 20
5.303901321571057
 10
5.850030146774294
 20
5.503901321571057
 10
6.769841185226782
 20
5.503901321571058
 42
-0.577350269189633
 10
6.782831566283547
 20
5.481401321571058
 10
6.733756793402429
 20
5.396401321571057
 42
0.5773502691896307
 10
6.746747174459194
 20
5.373901321571056
 10
6.966747174459193
 20
5.373901321571056
 42
0.5773502691896303
 10
6.979737555515958
 20
5.396401321571057
 10
6.93066278263484
 20
5.481401321571058
 42
-0.577350269189633
  0
TEXT
  5
13C0
330
18
100
AcDbEntity
  8
TEXT
100
AcDbText
 10
0.799813007196892
 20
2.163822856310548
 30
0.0
 40
0.125
  1
PART #110627
  7
ITALICC
 72
     1
 11
1.555765388149272
 21
2.163822856310548
 31
0.0
100
AcDbText
  0
LINE
  5
13C1
330
18
100
AcDbEntity
  8
TEXT
100
AcDbLine
 10
1.523498887101335
 20
1.919469170290715
 30
0.0
 11
1.600146868393893
 21
1.919469170290715
 31
0.0
  0
LINE
  5
13C2
330
18
100
AcDbEntity
  8
TEXT
100
AcDbLine
 10
1.595666981067393
 20
1.98374586494748
 30
0.0
 11
1.528167263417876
 21
1.98374586494748
 31
0.0
  0
LWPOLYLINE
  5
13C3
330
18
100
AcDbEntity
  8
TEXT
100
AcDbPolyline
 90
        5
 70
     0
 43
0.0001332181640625
 10
-0.1136131554333395
 20
1.860519063189667
 10
-0.1002913390270907
 20
1.860519063189667
 10
-0.1002913390270907
 20
1.897154058306857
 10
-0.0636563439099009
 20
1.897154058306857
 10
-0.0636563439099009
 20
1.910475874713104
  0
LWPOLYLINE
  5
13C4
330
18
100
AcDbEntity
  8
TEXT
100
AcDbPolyline
 90
        3
 70
     0
 43
0.0006660908203125
 10
-0.0736477062145915
 20
1.957102232134983
 10
-0.1602395128552163
 20
1.957102232134983
 10
-0.1602395128552163
 20
1.870510425494356
  0
LWPOLYLINE
  5
13C5
330
18
100
AcDbEntity
  8
TEXT
100
AcDbPolyline
 90
        3
 70
     0
 43
0.0006660908203125
 10
-0.0736477062145915
 20
1.983745864947484
 10
-0.1868831456677138
 20
1.983745864947484
 10
-0.1868831456677138
 20
1.870510425494356
  0
LWPOLYLINE
  5
13C6
330
18
100
AcDbEntity
  8
TEXT
100
AcDbPolyline
 90
        5
 70
     0
 43
0.0001332181640625
 10
-0.0636563439099009
 20
1.790579527056856
 10
-0.0636563439099009
 20
1.803901343463107
 10
-0.100291339027089
 20
1.803901343463107
 10
-0.100291339027089
 20
1.840536338580293
 10
-0.1136131554333395
 20
1.840536338580293
  0
LWPOLYLINE
  5
13C7
330
18
100
AcDbEntity
  8
TEXT
100
AcDbPolyline
 90
        3
 70
     0
 43
0.0006660908203125
 10
-0.1602395128552163
 20
1.830544976275608
 10
-0.1602395128552163
 20
1.743953169634981
 10
-0.0736477062145915
 20
1.743953169634981
  0
LWPOLYLINE
  5
13C8
330
18
100
AcDbEntity
  8
TEXT
100
AcDbPolyline
 90
        3
 70
     0
 43
0.0006660908203125
 10
-0.1868831456677138
 20
1.830544976275608
 10
-0.1868831456677138
 20
1.71730953682248
 10
-0.0736477062145915
 20
1.71730953682248
  0
LWPOLYLINE
  5
13C9
330
18
100
AcDbEntity
  8
TEXT
100
AcDbPolyline
 90
        2
 70
     0
 43
0.0001332181640625
 10
-0.1602395128552163
 20
1.830544976275608
 10
-0.100291339027089
 20
1.840536338580293
  0
LWPOLYLINE
  5
13CA
330
18
100
AcDbEntity
  8
TEXT
100
AcDbPolyline
 90
        2
 70
     0
 43
0.0001332181640625
 10
-0.1136131554333395
 20
1.840536338580293
 10
-0.1868831456677138
 20
1.830544976275608
  0
LWPOLYLINE
  5
13CB
330
18
100
AcDbEntity
  8
TEXT
100
AcDbPolyline
 90
        2
 70
     0
 43
0.0006660908203125
 10
-0.1602395128552163
 20
1.830544976275608
 10
-0.1868831456677138
 20
1.830544976275608
  0
LWPOLYLINE
  5
13CC
330
18
100
AcDbEntity
  8
TEXT
100
AcDbPolyline
 90
        2
 70
     0
 43
0.0001332181640625
 10
-0.1602395128552163
 20
1.743953169634981
 10
-0.100291339027089
 20
1.803901343463107
  0
LWPOLYLINE
  5
13CD
330
18
100
AcDbEntity
  8
TEXT
100
AcDbPolyline
 90
        2
 70
     0
 43
0.0006660908203125
 10
-0.1602395128552163
 20
1.870510425494356
 10
-0.1868831456677138
 20
1.870510425494356
  0
LWPOLYLINE
  5
13CE
330
18
100
AcDbEntity
  8
TEXT
100
AcDbPolyline
 90
        2
 70
     0
 43
0.0001332181640625
 10
-0.1868831456677138
 20
1.870510425494356
 10
-0.1136131554333395
 20
1.860519063189667
  0
LWPOLYLINE
  5
13CF
330
18
100
AcDbEntity
  8
TEXT
100
AcDbPolyline
 90
        2
 70
     0
 43
0.0001332181640625
 10
-0.1602395128552163
 20
1.870510425494356
 10
-0.1002913390270907
 20
1.860519063189667
  0
LWPOLYLINE
  5
13D0
330
18
100
AcDbEntity
  8
TEXT
100
AcDbPolyline
 90
        2
 70
     0
 43
0.0001332181640625
 10
-0.1602395128552163
 20
1.957102232134983
 10
-0.1002913390270907
 20
1.897154058306857
  0
LWPOLYLINE
  5
13D1
330
18
100
AcDbEntity
  8
TEXT
100
AcDbPolyline
 90
        5
 70
     0
 43
0.0001332181640625
 10
0.0062831922229099
 20
1.840536338580293
 10
-0.0070386241833389
 20
1.840536338580293
 10
-0.0070386241833389
 20
1.803901343463107
 10
-0.0436736193005287
 20
1.803901343463107
 10
-0.0436736193005287
 20
1.790579527056856
  0
LWPOLYLINE
  5
13D2
330
18
100
AcDbEntity
  8
TEXT
100
AcDbPolyline
 90
        2
 70
     0
 43
0.0001332181640625
 10
0.0529095496447849
 20
1.830544976275608
 10
-0.0070386241833389
 20
1.840536338580293
  0
LWPOLYLINE
  5
13D3
330
18
100
AcDbEntity
  8
TEXT
100
AcDbPolyline
 90
        2
 70
     0
 43
0.0001332181640625
 10
0.0795531824572859
 20
1.830544976275608
 10
0.0062831922229099
 20
1.840536338580293
  0
LWPOLYLINE
  5
13D4
330
18
100
AcDbEntity
  8
TEXT
100
AcDbPolyline
 90
        3
 70
     0
 43
0.0006660908203125
 10
-0.0336822569958399
 20
1.71730953682248
 10
0.0795531824572859
 20
1.71730953682248
 10
0.0795531824572859
 20
1.830544976275608
  0
LWPOLYLINE
  5
13D5
330
18
100
AcDbEntity
  8
TEXT
100
AcDbPolyline
 90
        3
 70
     0
 43
0.0006660908203125
 10
-0.0336822569958399
 20
1.743953169634981
 10
0.0529095496447849
 20
1.743953169634981
 10
0.0529095496447849
 20
1.830544976275608
  0
LWPOLYLINE
  5
13D6
330
18
100
AcDbEntity
  8
TEXT
100
AcDbPolyline
 90
        2
 70
     0
 43
0.0001332181640625
 10
0.0529095496447849
 20
1.743953169634981
 10
-0.0070386241833389
 20
1.803901343463107
  0
LWPOLYLINE
  5
13D7
330
18
100
AcDbEntity
  8
TEXT
100
AcDbPolyline
 90
        2
 70
     0
 43
0.0006660908203125
 10
-0.0336822569958399
 20
1.743953169634981
 10
-0.0336822569958399
 20
1.71730953682248
  0
LWPOLYLINE
  5
13D8
330
18
100
AcDbEntity
  8
TEXT
100
AcDbPolyline
 90
        2
 70
     0
 43
0.0001332181640625
 10
-0.0436736193005287
 20
1.790579527056856
 10
-0.0336822569958399
 20
1.71730953682248
  0
LWPOLYLINE
  5
13D9
330
18
100
AcDbEntity
  8
TEXT
100
AcDbPolyline
 90
        2
 70
     0
 43
0.0001332181640625
 10
-0.0336822569958399
 20
1.743953169634981
 10
-0.0436736193005287
 20
1.803901343463107
  0
LWPOLYLINE
  5
13DA
330
18
100
AcDbEntity
  8
TEXT
100
AcDbPolyline
 90
        2
 70
     0
 43
0.0001332181640625
 10
-0.0736477062145915
 20
1.71730953682248
 10
-0.0636563439099009
 20
1.790579527056856
  0
LWPOLYLINE
  5
13DB
330
18
100
AcDbEntity
  8
TEXT
100
AcDbPolyline
 90
        2
 70
     0
 43
0.0001332181640625
 10
-0.0736477062145915
 20
1.743953169634981
 10
-0.0636563439099009
 20
1.803901343463107
  0
LWPOLYLINE
  5
13DC
330
18
100
AcDbEntity
  8
TEXT
100
AcDbPolyline
 90
        2
 70
     0
 43
0.0006660908203125
 10
-0.0736477062145915
 20
1.743953169634981
 10
-0.0736477062145915
 20
1.71730953682248
  0
LWPOLYLINE
  5
13DD
330
18
100
AcDbEntity
  8
TEXT
100
AcDbPolyline
 90
        2
 70
     0
 43
0.0006660908203125
 10
0.0529095496447849
 20
1.830544976275608
 10
0.0795531824572859
 20
1.830544976275608
  0
LWPOLYLINE
  5
13DE
330
18
100
AcDbEntity
  8
TEXT
100
AcDbPolyline
 90
        2
 70
     0
 43
0.0001332181640625
 10
0.0529095496447849
 20
1.957102232134983
 10
-0.0070386241833389
 20
1.897154058306857
  0
LWPOLYLINE
  5
13DF
330
18
100
AcDbEntity
  8
TEXT
100
AcDbPolyline
 90
        2
 70
     0
 43
0.0001332181640625
 10
0.0529095496447849
 20
1.870510425494356
 10
-0.0070386241833389
 20
1.860519063189667
  0
LWPOLYLINE
  5
13E0
330
18
100
AcDbEntity
  8
TEXT
100
AcDbPolyline
 90
        2
 70
     0
 43
0.0001332181640625
 10
0.0062831922229099
 20
1.860519063189667
 10
0.0795531824572859
 20
1.870510425494356
  0
LWPOLYLINE
  5
13E1
330
18
100
AcDbEntity
  8
TEXT
100
AcDbPolyline
 90
        3
 70
     0
 43
0.0006660908203125
 10
0.0529095496447849
 20
1.870510425494356
 10
0.0529095496447849
 20
1.957102232134983
 10
-0.0336822569958399
 20
1.957102232134983
  0
LWPOLYLINE
  5
13E2
330
18
100
AcDbEntity
  8
TEXT
100
AcDbPolyline
 90
        3
 70
     0
 43
0.0006660908203125
 10
0.0795531824572859
 20
1.870510425494356
 10
0.0795531824572859
 20
1.983745864947484
 10
-0.0336822569958399
 20
1.983745864947484
  0
LWPOLYLINE
  5
13E3
330
18
100
AcDbEntity
  8
TEXT
100
AcDbPolyline
 90
        2
 70
     0
 43
0.0001332181640625
 10
-0.0336822569958399
 20
1.983745864947484
 10
-0.0436736193005287
 20
1.910475874713104
  0
LWPOLYLINE
  5
13E4
330
18
100
AcDbEntity
  8
TEXT
100
AcDbPolyline
 90
        2
 70
     0
 43
0.0001332181640625
 10
-0.0336822569958399
 20
1.957102232134983
 10
-0.0436736193005287
 20
1.897154058306857
  0
LWPOLYLINE
  5
13E5
330
18
100
AcDbEntity
  8
TEXT
100
AcDbPolyline
 90
        2
 70
     0
 43
0.0006660908203125
 10
-0.0336822569958399
 20
1.957102232134983
 10
-0.0336822569958399
 20
1.983745864947484
  0
LWPOLYLINE
  5
13E6
330
18
100
AcDbEntity
  8
TEXT
100
AcDbPolyline
 90
        5
 70
     0
 43
0.0001332181640625
 10
-0.0436736193005287
 20
1.910475874713104
 10
-0.0436736193005287
 20
1.897154058306857
 10
-0.0070386241833389
 20
1.897154058306857
 10
-0.0070386241833389
 20
1.860519063189667
 10
0.0062831922229099
 20
1.860519063189667
  0
LWPOLYLINE
  5
13E7
330
18
100
AcDbEntity
  8
TEXT
100
AcDbPolyline
 90
        2
 70
     0
 43
0.0001332181640625
 10
-0.0736477062145915
 20
1.957102232134983
 10
-0.0636563439099009
 20
1.897154058306857
  0
LWPOLYLINE
  5
13E8
330
18
100
AcDbEntity
  8
TEXT
100
AcDbPolyline
 90
        2
 70
     0
 43
0.0001332181640625
 10
-0.0636563439099009
 20
1.910475874713104
 10
-0.0736477062145915
 20
1.983745864947484
  0
LWPOLYLINE
  5
13E9
330
18
100
AcDbEntity
  8
TEXT
100
AcDbPolyline
 90
        2
 70
     0
 43
0.0006660908203125
 10
-0.0736477062145915
 20
1.957102232134983
 10
-0.0736477062145915
 20
1.983745864947484
  0
LWPOLYLINE
  5
13EA
330
18
100
AcDbEntity
  8
TEXT
100
AcDbPolyline
 90
        2
 70
     0
 43
0.0006660908203125
 10
0.0529095496447849
 20
1.870510425494356
 10
0.0795531824572859
 20
1.870510425494356
  0
LWPOLYLINE
  5
13EB
330
18
100
AcDbEntity
  8
TEXT
100
AcDbPolyline
 90
        2
 70
     0
 43
0.0
 10
0.7983331032059163
 20
1.768824174173897
 42
0.3318488747599744
 10
0.8674523957712292
 20
1.717272831958969
 42
-6.868794160588311
  0
LINE
  5
13EC
330
18
100
AcDbEntity
  8
TEXT
100
AcDbLine
 10
0.8663128222750335
 20
2.051757342686291
 30
0.0
 11
0.7995041097086686
 21
2.051757342686291
 31
0.0
  0
LINE
  5
13ED
330
18
100
AcDbEntity
  8
TEXT
100
AcDbLine
 10
0.5201617420895746
 20
1.98374586494748
 30
0.0
 11
0.3444299891910632
 21
1.98374586494748
 31
0.0
  0
ARC
  5
13EE
330
18
100
AcDbEntity
  8
TEXT
100
AcDbCircle
 10
0.4152674555496128
 20
1.800468640319526
 30
0.0
 40
0.0831958083605586
100
AcDbArc
 50
270.0
 51
90.0
  0
LINE
  5
13EF
330
18
100
AcDbEntity
  8
TEXT
100
AcDbLine
 10
0.3496673193053112
 20
1.919469170290715
 30
0.0
 11
0.5165729733342817
 21
1.919469170290715
 31
0.0
  0
LINE
  5
13F0
330
18
100
AcDbEntity
  8
TEXT
100
AcDbLine
 10
0.420207829455892
 20
1.785629838292408
 30
0.0
 11
0.2623425297445578
 21
1.785629838292408
 31
0.0
  0
LINE
  5
13F1
330
18
100
AcDbEntity
  8
TEXT
100
AcDbLine
 10
0.2623425297445596
 20
1.717272831958969
 30
0.0
 11
0.4152674555496123
 21
1.717272831958969
 31
0.0
  0
ARC
  5
13F2
330
18
100
AcDbEntity
  8
TEXT
100
AcDbCircle
 10
0.3444299891910636
 20
1.901658405500978
 30
0.0
 40
0.0820874594465043
100
AcDbArc
 50
90.0
 51
270.0
  0
LINE
  5
13F3
330
18
100
AcDbEntity
  8
TEXT
100
AcDbLine
 10
0.2623425297445578
 20
1.785629838292408
 30
0.0
 11
0.2623425297445596
 21
1.717272831958969
 31
0.0
  0
LINE
  5
13F4
330
18
100
AcDbEntity
  8
TEXT
100
AcDbLine
 10
0.3444299891910632
 20
1.819570946054473
 30
0.0
 11
0.420207829455892
 21
1.819570946054473
 31
0.0
  0
ARC
  5
13F5
330
18
100
AcDbEntity
  8
TEXT
100
AcDbCircle
 10
0.4202078294558925
 20
1.802600392173443
 30
0.0
 40
0.0169705538810321
100
AcDbArc
 50
270.0
 51
90.0
  0
LINE
  5
13F6
330
18
100
AcDbEntity
  8
TEXT
100
AcDbLine
 10
0.4152674555496123
 20
1.883664448680087
 30
0.0
 11
0.3496673193053112
 21
1.883664448680087
 31
0.0
  0
ARC
  5
13F7
330
18
100
AcDbEntity
  8
TEXT
100
AcDbCircle
 10
0.3496673193053117
 20
1.901566809485403
 30
0.0
 40
0.017902360805315
100
AcDbArc
 50
90.0
 51
270.0
  0
LINE
  5
13F8
330
18
100
AcDbEntity
  8
TEXT
100
AcDbLine
 10
0.7106336341094269
 20
1.88287386883436
 30
0.0
 11
0.652003313077489
 21
1.98374586494748
 31
0.0
  0
LINE
  5
13F9
330
18
100
AcDbEntity
  8
TEXT
100
AcDbLine
 10
0.5704595808143873
 20
1.717272831958969
 30
0.0
 11
0.6670998318893818
 21
1.717543471057251
 31
0.0
  0
LWPOLYLINE
  5
13FA
330
18
100
AcDbEntity
  8
TEXT
100
AcDbPolyline
 90
        6
 70
     1
 43
0.0
 10
0.6129833843895374
 20
1.919469170290715
 10
0.5826667901693292
 20
1.919469170290715
 10
0.5826667901693292
 20
1.79635817223582
 42
0.407328721240804
 10
0.5942104413308056
 20
1.784539257559434
 10
0.6548321403755364
 20
1.784539257559434
 10
0.6722974807828544
 20
1.817351486602913
  0
LINE
  5
13FB
330
18
100
AcDbEntity
  8
TEXT
100
AcDbLine
 10
0.5165729733342817
 20
1.919469170290715
 30
0.0
 11
0.5165729733342817
 21
1.777065223297019
 31
0.0
  0
ARC
  5
13FC
330
18
100
AcDbEntity
  8
TEXT
100
AcDbCircle
 10
0.5766889913080342
 20
1.777065223297019
 30
0.0
 40
0.0601160179737537
100
AcDbArc
 50
180.0000000000003
 51
264.0521544866073
  0
LINE
  5
13FD
330
18
100
AcDbEntity
  8
TEXT
100
AcDbLine
 10
0.5802043469335816
 20
2.018133782541618
 30
0.0
 11
0.5201617420895746
 21
2.018133782541618
 31
0.0
  0
LINE
  5
13FE
330
18
100
AcDbEntity
  8
TEXT
100
AcDbLine
 10
0.5201617420895746
 20
2.018133782541618
 30
0.0
 11
0.5201617420895746
 21
1.98374586494748
 31
0.0
  0
LINE
  5
13FF
330
18
100
AcDbEntity
  8
TEXT
100
AcDbLine
 10
0.5802043469335816
 20
1.98374586494748
 30
0.0
 11
0.5802043469335816
 21
2.018133782541618
 31
0.0
  0
LINE
  5
1400
330
18
100
AcDbEntity
  8
TEXT
100
AcDbLine
 10
0.652003313077489
 20
1.98374586494748
 30
0.0
 11
0.5802043469335816
 21
1.98374586494748
 31
0.0
  0
LINE
  5
1401
330
18
100
AcDbEntity
  8
TEXT
100
AcDbLine
 10
0.7010333971124725
 20
1.737231338063982
 30
0.0
 11
0.7983331032059171
 21
1.90158154899925
 31
0.0
  0
LINE
  5
1402
330
18
100
AcDbEntity
  8
TEXT
100
AcDbLine
 10
0.7983331032059171
 20
1.90158154899925
 30
0.0
 11
0.7983331032059171
 21
1.768824174173894
 31
0.0
  0
ARC
  5
1403
330
18
100
AcDbEntity
  8
TEXT
100
AcDbCircle
 10
0.666989837200259
 20
1.756820554232665
 30
0.0
 40
0.0392772371940762
100
AcDbArc
 50
270.1604552698595
 51
330.0831797321295
  0
LINE
  5
1404
330
18
100
AcDbEntity
  8
TEXT
100
AcDbLine
 10
0.7693821969152923
 20
1.98374586494748
 30
0.0
 11
0.7106336341094269
 21
1.88287386883436
 31
0.0
  0
LINE
  5
1405
330
18
100
AcDbEntity
  8
TEXT
100
AcDbLine
 10
0.7995041097086686
 20
2.051757342686291
 30
0.0
 11
0.7995041097086686
 21
1.98374586494748
 31
0.0
  0
LINE
  5
1406
330
18
100
AcDbEntity
  8
TEXT
100
AcDbLine
 10
0.7995041097086686
 20
1.98374586494748
 30
0.0
 11
0.7693821969152923
 21
1.98374586494748
 31
0.0
  0
LWPOLYLINE
  5
1407
330
18
100
AcDbEntity
  8
TEXT
100
AcDbPolyline
 90
        4
 70
     0
 43
0.0
 10
1.151590231328826
 20
1.911915381124605
 10
1.151590231328826
 20
1.717272831958969
 10
1.220068514616684
 20
1.717272831958969
 10
1.220068514616684
 20
1.760763776909407
 42
-1.714843617202739
  0
LWPOLYLINE
  5
1408
330
18
100
AcDbEntity
  8
TEXT
100
AcDbPolyline
 90
        2
 70
     0
 43
0.0
 10
1.186724581873036
 20
1.983745864947484
 42
-0.3277054968067132
 10
1.222506272586201
 20
1.95542331917784
 42
6.667889725900311
  0
LWPOLYLINE
  5
1409
330
18
100
AcDbEntity
  8
TEXT
100
AcDbPolyline
 90
        2
 70
     0
 43
0.0
 10
1.015291009293809
 20
1.919469170290715
 42
-0.4142135623731017
 10
1.022844798459923
 20
1.911915381124605
 42
-0.9999999999999998
  0
LINE
  5
140A
330
18
100
AcDbEntity
  8
TEXT
100
AcDbLine
 10
1.03264273234383
 20
1.98374586494748
 30
0.0
 11
0.8986246764126937
 21
1.98374586494748
 31
0.0
  0
LINE
  5
140B
330
18
100
AcDbEntity
  8
TEXT
100
AcDbLine
 10
0.9654557294706629
 20
1.717272831958969
 30
0.0
 11
0.9654557294706629
 21
1.919469170290715
 31
0.0
  0
LINE
  5
140C
330
18
100
AcDbEntity
  8
TEXT
100
AcDbLine
 10
0.8986246764126937
 20
1.98374586494748
 30
0.0
 11
0.8986246764126937
 21
1.782881658215072
 31
0.0
  0
LINE
  5
140D
330
18
100
AcDbEntity
  8
TEXT
100
AcDbLine
 10
0.8663128222750335
 20
1.799660670061968
 30
0.0
 11
0.8663128222750335
 21
2.051757342686291
 31
0.0
  0
LINE
  5
140E
330
18
100
AcDbEntity
  8
TEXT
100
AcDbLine
 10
0.8674523957712283
 20
1.717272831958969
 30
0.0
 11
0.9654557294706629
 21
1.717272831958969
 31
0.0
  0
LINE
  5
140F
330
18
100
AcDbEntity
  8
TEXT
100
AcDbLine
 10
0.8986246764126937
 20
1.782881658215072
 30
0.0
 11
0.8816310395280924
 21
1.782881658215072
 31
0.0
  0
ARC
  5
1410
330
18
100
AcDbEntity
  8
TEXT
100
AcDbCircle
 10
0.8816310395280915
 20
1.798263464458497
 30
0.0
 40
0.0153818062434269
100
AcDbArc
 50
174.7883570302258
 51
270.0
  0
LINE
  5
1411
330
18
100
AcDbEntity
  8
TEXT
100
AcDbLine
 10
0.9654557294706629
 20
1.919469170290715
 30
0.0
 11
1.01529100929381
 21
1.919469170290715
 31
0.0
  0
LINE
  5
1412
330
18
100
AcDbEntity
  8
TEXT
100
AcDbLine
 10
1.022844798459924
 20
1.911915381124605
 30
0.0
 11
1.022844798459924
 21
1.717272831958969
 31
0.0
  0
LINE
  5
1413
330
18
100
AcDbEntity
  8
TEXT
100
AcDbLine
 10
1.089902845241764
 20
1.717272831958969
 30
0.0
 11
1.089902845241764
 21
1.919469170290715
 31
0.0
  0
LINE
  5
1414
330
18
100
AcDbEntity
  8
TEXT
100
AcDbLine
 10
1.022844798459924
 20
1.717272831958969
 30
0.0
 11
1.089902845241764
 21
1.717272831958969
 31
0.0
  0
LWPOLYLINE
  5
1415
330
18
100
AcDbEntity
  8
TEXT
100
AcDbPolyline
 90
        3
 70
     0
 43
0.0
 10
1.186724581873036
 20
1.983745864947484
 10
1.068424423056992
 20
1.983745864947484
 10
1.068424423056992
 20
1.956578368186588
 42
-1.960274751411753
  0
LINE
  5
1416
330
18
100
AcDbEntity
  8
TEXT
100
AcDbLine
 10
1.089902845241764
 20
1.919469170290715
 30
0.0
 11
1.144036442162714
 21
1.919469170290715
 31
0.0
  0
LWPOLYLINE
  5
1417
330
18
100
AcDbEntity
  8
TEXT
100
AcDbPolyline
 90
        2
 70
     0
 43
0.0
 10
1.03264273234383
 20
1.983745864947484
 42
-0.3328679258950098
 10
1.068424423056992
 20
1.956578368186588
 42
6.772930709997214
  0
LWPOLYLINE
  5
1418
330
18
100
AcDbEntity
  8
TEXT
100
AcDbPolyline
 90
        2
 70
     0
 43
0.0
 10
1.144036442162713
 20
1.919469170290715
 42
-0.4142135623731017
 10
1.151590231328826
 20
1.911915381124605
 42
-0.9999999999999998
  0
ARC
  5
1419
330
18
100
AcDbEntity
  8
TEXT
100
AcDbCircle
 10
1.355311242026193
 20
1.942162297826578
 30
0.0
 40
0.0416329381542859
100
AcDbArc
 50
26.56974201007528
 51
87.20939649401342
  0
LWPOLYLINE
  5
141A
330
18
100
AcDbEntity
  8
TEXT
100
AcDbPolyline
 90
        2
 70
     0
 43
0.0
 10
1.26314444748432
 20
1.717272831958969
 10
1.397161865115696
 20
1.717272831958969
 42
0.9999999999999998
  0
LWPOLYLINE
  5
141B
330
18
100
AcDbEntity
  8
TEXT
100
AcDbPolyline
 90
        4
 70
     1
 43
0.0
 10
1.377039400045804
 20
1.820236809942994
 10
1.288379081385945
 20
1.820236809942994
 42
0.9999999999999998
 10
1.288379081385945
 20
1.777838269439134
 10
1.377039400045804
 20
1.777838269439134
 42
1.0
  0
LWPOLYLINE
  5
141C
330
18
100
AcDbEntity
  8
TEXT
100
AcDbPolyline
 90
        2
 70
     0
 43
0.0
 10
1.220068514616684
 20
1.760763776909407
 42
0.2901071551932823
 10
1.26314444748432
 20
1.717272831958969
 42
5.328517124445801
  0
LINE
  5
141D
330
18
100
AcDbEntity
  8
TEXT
100
AcDbLine
 10
1.357338181803261
 20
1.98374586494748
 30
0.0
 11
1.222506272586202
 21
1.98374586494748
 31
0.0
  0
LINE
  5
141E
330
18
100
AcDbEntity
  8
TEXT
100
AcDbLine
 10
1.281820368979521
 20
1.882194196828582
 30
0.0
 11
1.364108358762904
 21
1.882194196828582
 31
0.0
  0
LINE
  5
141F
330
18
100
AcDbEntity
  8
TEXT
100
AcDbLine
 10
1.328307283458783
 20
1.919469170290715
 30
0.0
 11
1.221101010071493
 21
1.919469170290715
 31
0.0
  0
LINE
  5
1420
330
18
100
AcDbEntity
  8
TEXT
100
AcDbLine
 10
1.222506272586202
 20
1.98374586494748
 30
0.0
 11
1.222506272586202
 21
1.955423319177836
 31
0.0
  0
ARC
  5
1421
330
18
100
AcDbEntity
  8
TEXT
100
AcDbCircle
 10
1.28182036897952
 20
1.814508615684464
 30
0.0
 40
0.0676855811441166
100
AcDbArc
 50
90.0
 51
153.7768192527749
  0
LINE
  5
1422
330
18
100
AcDbEntity
  8
TEXT
100
AcDbLine
 10
1.221101010071493
 20
1.919469170290715
 30
0.0
 11
1.221101010071493
 21
1.844416764216508
 31
0.0
  0
LINE
  5
1423
330
18
100
AcDbEntity
  8
TEXT
100
AcDbLine
 10
1.364108358762904
 20
1.882194196828582
 30
0.0
 11
1.35384359834934
 21
1.903444736401277
 31
0.0
  0
ARC
  5
1424
330
18
100
AcDbEntity
  8
TEXT
100
AcDbCircle
 10
1.328307283458782
 20
1.891109795290717
 30
0.0
 40
0.028359375
100
AcDbArc
 50
25.78218179591245
 51
90.0
  0
LINE
  5
1425
330
18
100
AcDbEntity
  8
TEXT
100
AcDbLine
 10
1.498593011818676
 20
1.717272831958969
 30
0.0
 11
1.49859301181867
 21
1.894563337390438
 31
0.0
  0
LWPOLYLINE
  5
1426
330
18
100
AcDbEntity
  8
TEXT
100
AcDbPolyline
 90
        2
 70
     0
 43
0.0
 10
1.440237797983341
 20
1.717272831958969
 10
1.498593011818675
 20
1.717272831958969
  0
LWPOLYLINE
  5
1427
330
18
100
AcDbEntity
  8
TEXT
100
AcDbPolyline
 90
        2
 70
     0
 43
0.0
 10
1.440237797983341
 20
1.760763776909407
 42
-0.2901071551932486
 10
1.397161865115696
 20
1.717272831958969
 42
-5.328517124445184
  0
LWPOLYLINE
  5
1428
330
18
100
AcDbEntity
  8
TEXT
100
AcDbPolyline
 90
        2
 70
     0
 43
0.0
 10
1.440237797983341
 20
1.760763776909407
 10
1.440237797983341
 20
1.717272831958969
  0
LINE
  5
1429
330
18
100
AcDbEntity
  8
TEXT
100
AcDbLine
 10
1.500195026977803
 20
1.98374586494748
 30
0.0
 11
1.436298120678302
 21
1.98374586494748
 31
0.0
  0
LINE
  5
142A
330
18
100
AcDbEntity
  8
TEXT
100
AcDbLine
 10
1.436298120678302
 20
1.98374586494748
 30
0.0
 11
1.436298120678302
 21
1.878533886394053
 31
0.0
  0
LINE
  5
142B
330
18
100
AcDbEntity
  8
TEXT
100
AcDbLine
 10
1.436298120678302
 20
1.878533886394053
 30
0.0
 11
1.392547349496401
 21
1.960784162390198
 31
0.0
  0
ARC
  5
142C
330
18
100
AcDbEntity
  8
TEXT
100
AcDbCircle
 10
1.523498887101334
 20
1.894563295008052
 30
0.0
 40
0.0249058752826653
100
AcDbArc
 50
89.99971217465335
 51
179.9999999999985
  0
ARC
  5
142D
330
18
100
AcDbEntity
  8
TEXT
100
AcDbCircle
 10
1.531387844040912
 20
1.952500137665215
 30
0.0
 40
0.0314112657011332
100
AcDbArc
 50
95.88484768694724
 51
173.2388340632136
  0
LINE
  5
142E
330
18
100
AcDbEntity
  8
TEXT
100
AcDbLine
 10
1.500195026977803
 20
1.956198215086605
 30
0.0
 11
1.500195026977803
 21
1.98374586494748
 31
0.0
  0
TEXT
  5
142F
330
18
100
AcDbEntity
  8
TEXT
100
AcDbText
 10
1.969070546399594
 20
1.810158640604465
 30
0.0
 40
0.0522247191011236
  1
Minneapolis, MN 55432-0008
 41
1.11444212721585
 72
     5
 11
3.298003130669258
 21
1.810158640604465
 31
0.0
100
AcDbText
  0
TEXT
  5
1430
330
18
100
AcDbEntity
  8
TEXT
100
AcDbText
 10
1.969070546399594
 20
1.903417067570758
 30
0.0
 40
0.0522247191011236
  1
6536 Main St. N.E. * P.O. Box 32008
 41
0.8388932496075355
 72
     5
 11
3.298003130669258
 21
1.903417067570758
 31
0.0
100
AcDbText
  0
TEXT
  5
1431
330
18
100
AcDbEntity
  8
TEXT
100
AcDbText
 10
1.969070546399594
 20
1.99667549453705
 30
0.0
 40
0.0522247191011236
  1
Stylmark  Incorporated
 41
1.221428571428571
 72
     5
 11
3.298003130669258
 21
1.99667549453705
 31
0.0
100
AcDbText
  0
TEXT
  5
1432
330
18
100
AcDbEntity
  8
TEXT
100
AcDbText
 10
1.969070546399594
 20
1.716900213638173
 30
0.0
 40
0.0522247191011236
  1
Phone  1-800-328-2495
 41
1.272321428571429
 72
     5
 11
3.298003130669258
 21
1.716900213638173
 31
0.0
100
AcDbText
  0
LINE
  5
1433
330
18
100
AcDbEntity
  8
TEXT
100
AcDbLine
 10
1.721514734936579
 20
1.873852622006507
 30
0.0
 11
1.786071850902284
 21
1.98374586494748
 31
0.0
  0
LINE
  5
1434
330
18
100
AcDbEntity
  8
TEXT
100
AcDbLine
 10
1.786071850902284
 20
1.98374586494748
 30
0.0
 11
1.711080018172657
 21
1.98374586494748
 31
0.0
  0
LINE
  5
1435
330
18
100
AcDbEntity
  8
TEXT
100
AcDbLine
 10
1.740428585923983
 20
1.717272831958969
 30
0.0
 11
1.817006958300189
 21
1.717272831958969
 31
0.0
  0
LINE
  5
1436
330
18
100
AcDbEntity
  8
TEXT
100
AcDbLine
 10
1.817006958300189
 20
1.717272831958969
 30
0.0
 11
1.721514734936579
 21
1.873852622006507
 31
0.0
  0
LINE
  5
1437
330
18
100
AcDbEntity
  8
TEXT
100
AcDbLine
 10
1.664525052712519
 20
1.717272831958969
 30
0.0
 11
1.664525052712519
 21
1.848852400435149
 31
0.0
  0
LINE
  5
1438
330
18
100
AcDbEntity
  8
TEXT
100
AcDbLine
 10
1.664525052712519
 20
1.848852400435149
 30
0.0
 11
1.740428585923983
 21
1.717272831958969
 31
0.0
  0
LINE
  5
1439
330
18
100
AcDbEntity
  8
TEXT
100
AcDbLine
 10
1.600146868393893
 20
1.919469170290715
 30
0.0
 11
1.600146868393898
 21
1.717272831958969
 31
0.0
  0
LINE
  5
143A
330
18
100
AcDbEntity
  8
TEXT
100
AcDbLine
 10
1.600146868393898
 20
1.717272831958969
 30
0.0
 11
1.664525052712519
 21
1.717272831958969
 31
0.0
  0
LINE
  5
143B
330
18
100
AcDbEntity
  8
TEXT
100
AcDbLine
 10
1.663981859616671
 20
2.049210070715081
 30
0.0
 11
1.595666981067398
 21
2.049210070715081
 31
0.0
  0
LINE
  5
143C
330
18
100
AcDbEntity
  8
TEXT
100
AcDbLine
 10
1.595666981067398
 20
2.049210070715081
 30
0.0
 11
1.595666981067393
 21
1.98374586494748
 31
0.0
  0
LINE
  5
143D
330
18
100
AcDbEntity
  8
TEXT
100
AcDbLine
 10
1.711080018172656
 20
1.98374586494748
 30
0.0
 11
1.663981859616671
 21
1.907880538535942
 31
0.0
  0
LINE
  5
143E
330
18
100
AcDbEntity
  8
TEXT
100
AcDbLine
 10
1.663981859616671
 20
1.907880538535942
 30
0.0
 11
1.663981859616671
 21
2.049210070715081
 31
0.0
  0
VIEWPORT
  5
689
330
15
100
AcDbEntity
 67
     1
  8
0
100
AcDbViewport
 10
6.497041420118343
 20
4.5
 30
0.0
 40
12.99408284023668
 41
9.0
 68
     1
 69
     1
1001
ACAD
1000
MVIEW
1002
{
1070
    16
1010
0.0
1020
0.0
1030
0.0
1010
0.0
1020
0.0
1030
1.0
1040
0.0
1040
9.0
1040
6.497041420118343
1040
4.5
1040
50.0
1040
0.0
1040
0.0
1070
     0
1070
 20000
1070
     1
1070
     1
1070
     0
1070
     0
1070
     0
1070
     0
1040
0.0
1040
0.0
1040
0.0
1040
0.5
1040
0.5
1040
0.5
1040
0.5
1070
     0
1002
{
1002
}
1002
}
  0
ENDSEC
  0
SECTION
  2
OBJECTS
  0
DICTIONARY
  5
C
330
0
100
AcDbDictionary
  3
ACAD_GROUP
350
D
  3
ACAD_LAYOUT
350
1443
  3
ACAD_MLINESTYLE
350
1B
  3
ACAD_PLOTSETTINGS
350
1444
  3
ACAD_PLOTSTYLENAME
350
1441
  3
ACDBHEADERROUNDTRIPXREC
350
144D
  3
ACDBVARIABLEDICTIONARY
350
5A3
  0
DICTIONARY
  5
146F
330
18
100
AcDbDictionary
280
     1
  3
ACAD_LAYOUTSELFREF
360
1470
  0
DICTIONARY
  5
146D
330
15
100
AcDbDictionary
280
     1
  3
ACAD_LAYOUTSELFREF
360
146E
  0
DICTIONARY
  5
D
102
{ACAD_REACTORS
330
C
102
}
330
C
100
AcDbDictionary
  3
*A1
350
5D
  3
*A2
350
218
  3
*A3
350
9BF
  3
*A4
350
B78
  3
*A5
350
F05
  3
*A6
350
F06
  3
*A7
350
F07
  3
*A8
350
F08
  3
*A9
350
11AD
  0
DICTIONARY
  5
1443
102
{ACAD_REACTORS
330
C
102
}
330
C
100
AcDbDictionary
  0
DICTIONARY
  5
1B
102
{ACAD_REACTORS
330
C
102
}
330
C
100
AcDbDictionary
  3
STANDARD
350
1C
  0
DICTIONARY
  5
1444
102
{ACAD_REACTORS
330
C
102
}
330
C
100
AcDbDictionary
  0
ACDBDICTIONARYWDFLT
  5
1441
102
{ACAD_REACTORS
330
C
102
}
330
C
100
AcDbDictionary
281
     1
  3
Normal
350
1442
100
AcDbDictionaryWithDefault
340
1442
  0
DICTIONARY
  5
144D
102
{ACAD_REACTORS
330
C
102
}
330
C
100
AcDbDictionary
  3
CEPSNTYPE
350
1457
  3
FINGERPRINTGUID
350
1458
  3
HYPERLINKBASE
350
1450
  3
INSUNITS
350
1456
  3
LAYOUTDICT
350
1452
  3
LWETCUNION
350
1455
  3
PLOTSETDICT
350
1453
  3
PLOTSTYLNAMDICT
350
1454
  3
PSVPSCALE
350
145A
  3
PUCSBASE
350
145D
  3
PUCSORGBACK
350
1463
  3
PUCSORGBOTTOM
350
145F
  3
PUCSORGFRONT
350
1462
  3
PUCSORGLEFT
350
1460
  3
PUCSORGRIGHT
350
1461
  3
PUCSORGTOP
350
145E
  3
PUCSORTHOREF
350
145B
  3
PUCSORTHOVIEW
350
145C
  3
STYLESHEET
350
1451
  3
TSTACKALIGN
350
144E
  3
TSTACKSIZE
350
144F
  3
UCSBASE
350
1466
  3
UCSORGBACK
350
146C
  3
UCSORGBOTTOM
350
1468
  3
UCSORGFRONT
350
146B
  3
UCSORGLEFT
350
1469
  3
UCSORGRIGHT
350
146A
  3
UCSORGTOP
350
1467
  3
UCSORTHOREF
350
1464
  3
UCSORTHOVIEW
350
1465
  3
VERSIONGUID
350
1459
  0
DICTIONARY
  5
5A3
102
{ACAD_REACTORS
330
C
102
}
330
C
100
AcDbDictionary
  3
DIMASSOC
350
144B
  3
SORTENTS
350
5A4
  0
XRECORD
  5
1470
102
{ACAD_REACTORS
330
146F
102
}
330
146F
100
AcDbXrecord
340
18
  0
XRECORD
  5
146E
102
{ACAD_REACTORS
330
146D
102
}
330
146D
100
AcDbXrecord
340
15
  0
GROUP
  5
5D
102
{ACAD_REACTORS
330
D
102
}
330
D
100
AcDbGroup
300
BORDER FRAME 10-1-95
 70
     3
 71
     1
  0
GROUP
  5
218
102
{ACAD_REACTORS
330
D
102
}
330
D
100
AcDbGroup
300

 70
     1
 71
     1
  0
GROUP
  5
9BF
102
{ACAD_REACTORS
330
D
102
}
330
D
100
AcDbGroup
300
BORDER FRAME 10-1-95
 70
     3
 71
     1
  0
GROUP
  5
B78
102
{ACAD_REACTORS
330
D
102
}
330
D
100
AcDbGroup
300

 70
     1
 71
     1
  0
GROUP
  5
F05
102
{ACAD_REACTORS
330
D
102
}
330
D
100
AcDbGroup
300
BORDER FRAME 10-1-95
 70
     3
 71
     1
  0
GROUP
  5
F06
102
{ACAD_REACTORS
330
D
102
}
330
D
100
AcDbGroup
300

 70
     1
 71
     1
  0
GROUP
  5
F07
102
{ACAD_REACTORS
330
D
102
}
330
D
100
AcDbGroup
300
BORDER FRAME 10-1-95
 70
     3
 71
     1
  0
GROUP
  5
F08
102
{ACAD_REACTORS
330
D
102
}
330
D
100
AcDbGroup
300

 70
     3
 71
     1
  0
GROUP
  5
11AD
102
{ACAD_REACTORS
330
D
102
}
330
D
100
AcDbGroup
300

 70
     1
 71
     1
  0
MLINESTYLE
  5
1C
102
{ACAD_REACTORS
330
1B
102
}
330
1B
100
AcDbMlineStyle
  2
STANDARD
 70
     0
  3

 62
   256
 51
90.0
 52
90.0
 71
     2
 49
0.5
 62
   256
  6
BYLAYER
 49
-0.5
 62
   256
  6
BYLAYER
  0
ACDBPLACEHOLDER
  5
1442
102
{ACAD_REACTORS
330
1441
102
}
330
1441
100
AcDbPlaceHolder
280
     0
  0
XRECORD
  5
1457
102
{ACAD_REACTORS
330
144D
102
}
330
144D
100
AcDbXrecord
 90
        0
  0
XRECORD
  5
1458
102
{ACAD_REACTORS
330
144D
102
}
330
144D
100
AcDbXrecord
  1
{DBB38DB0-8DB8-11D6-88E6-0090279574E7}
  0
XRECORD
  5
1450
102
{ACAD_REACTORS
330
144D
102
}
330
144D
100
AcDbXrecord
  1

  0
XRECORD
  5
1456
102
{ACAD_REACTORS
330
144D
102
}
330
144D
100
AcDbXrecord
 90
        0
  0
XRECORD
  5
1452
102
{ACAD_REACTORS
330
144D
102
}
330
144D
100
AcDbXrecord
340
1443
  0
XRECORD
  5
1455
102
{ACAD_REACTORS
330
144D
102
}
330
144D
100
AcDbXrecord
 90
    14877
  0
XRECORD
  5
1453
102
{ACAD_REACTORS
330
144D
102
}
330
144D
100
AcDbXrecord
340
1444
  0
XRECORD
  5
1454
102
{ACAD_REACTORS
330
144D
102
}
330
144D
100
AcDbXrecord
340
1441
  0
XRECORD
  5
145A
102
{ACAD_REACTORS
330
144D
102
}
330
144D
100
AcDbXrecord
 40
0.0
  0
XRECORD
  5
145D
102
{ACAD_REACTORS
330
144D
102
}
330
144D
100
AcDbXrecord
340
0
  0
XRECORD
  5
1463
102
{ACAD_REACTORS
330
144D
102
}
330
144D
100
AcDbXrecord
 10
0.0
 20
0.0
 30
0.0
  0
XRECORD
  5
145F
102
{ACAD_REACTORS
330
144D
102
}
330
144D
100
AcDbXrecord
 10
0.0
 20
0.0
 30
0.0
  0
XRECORD
  5
1462
102
{ACAD_REACTORS
330
144D
102
}
330
144D
100
AcDbXrecord
 10
0.0
 20
0.0
 30
0.0
  0
XRECORD
  5
1460
102
{ACAD_REACTORS
330
144D
102
}
330
144D
100
AcDbXrecord
 10
0.0
 20
0.0
 30
0.0
  0
XRECORD
  5
1461
102
{ACAD_REACTORS
330
144D
102
}
330
144D
100
AcDbXrecord
 10
0.0
 20
0.0
 30
0.0
  0
XRECORD
  5
145E
102
{ACAD_REACTORS
330
144D
102
}
330
144D
100
AcDbXrecord
 10
0.0
 20
0.0
 30
0.0
  0
XRECORD
  5
145B
102
{ACAD_REACTORS
330
144D
102
}
330
144D
100
AcDbXrecord
340
0
  0
XRECORD
  5
145C
102
{ACAD_REACTORS
330
144D
102
}
330
144D
100
AcDbXrecord
 70
     0
  0
XRECORD
  5
1451
102
{ACAD_REACTORS
330
144D
102
}
330
144D
100
AcDbXrecord
  1

  0
XRECORD
  5
144E
102
{ACAD_REACTORS
330
144D
102
}
330
144D
100
AcDbXrecord
 90
        1
  0
XRECORD
  5
144F
102
{ACAD_REACTORS
330
144D
102
}
330
144D
100
AcDbXrecord
 90
       70
  0
XRECORD
  5
1466
102
{ACAD_REACTORS
330
144D
102
}
330
144D
100
AcDbXrecord
340
0
  0
XRECORD
  5
146C
102
{ACAD_REACTORS
330
144D
102
}
330
144D
100
AcDbXrecord
 10
0.0
 20
0.0
 30
0.0
  0
XRECORD
  5
1468
102
{ACAD_REACTORS
330
144D
102
}
330
144D
100
AcDbXrecord
 10
0.0
 20
0.0
 30
0.0
  0
XRECORD
  5
146B
102
{ACAD_REACTORS
330
144D
102
}
330
144D
100
AcDbXrecord
 10
0.0
 20
0.0
 30
0.0
  0
XRECORD
  5
1469
102
{ACAD_REACTORS
330
144D
102
}
330
144D
100
AcDbXrecord
 10
0.0
 20
0.0
 30
0.0
  0
XRECORD
  5
146A
102
{ACAD_REACTORS
330
144D
102
}
330
144D
100
AcDbXrecord
 10
0.0
 20
0.0
 30
0.0
  0
XRECORD
  5
1467
102
{ACAD_REACTORS
330
144D
102
}
330
144D
100
AcDbXrecord
 10
0.0
 20
0.0
 30
0.0
  0
XRECORD
  5
1464
102
{ACAD_REACTORS
330
144D
102
}
330
144D
100
AcDbXrecord
340
0
  0
XRECORD
  5
1465
102
{ACAD_REACTORS
330
144D
102
}
330
144D
100
AcDbXrecord
 70
     0
  0
XRECORD
  5
1459
102
{ACAD_REACTORS
330
144D
102
}
330
144D
100
AcDbXrecord
  1
{DBB38DB2-8DB8-11D6-88E6-0090279574E7}
  0
DICTIONARYVAR
  5
144B
102
{ACAD_REACTORS
330
5A3
102
}
330
5A3
100
DictionaryVariables
280
     0
  1
1
  0
DICTIONARYVAR
  5
5A4
102
{ACAD_REACTORS
330
5A3
102
}
330
5A3
100
DictionaryVariables
280
     0
  1
96
  0
ENDSEC
  0
EOF
