  0
SECTION
  2
HEADER
  9
$ACADVER
  1
AC1014
  9
$ACADMAINTVER
 70
     9
  9
$DWGCODEPAGE
  3
ANSI_1252
  9
$INSBASE
 10
0.0
 20
0.0
 30
0.0
  9
$EXTMIN
 10
-0.1803293603335774
 20
1.855435996772655
 30
0.0
  9
$EXTMAX
 10
3.30488996141355
 20
2.890786173666858
 30
0.0
  9
$LIMMIN
 10
0.0
 20
0.0
  9
$LIMMAX
 10
12.0
 20
9.0
  9
$ORTHOMODE
 70
     0
  9
$REGENMODE
 70
     1
  9
$FILLMODE
 70
     1
  9
$QTEXTMODE
 70
     0
  9
$MIRRTEXT
 70
     0
  9
$DRAGMODE
 70
     2
  9
$LTSCALE
 40
1.0
  9
$OSMODE
 70
    39
  9
$ATTMODE
 70
     1
  9
$TEXTSIZE
 40
0.125
  9
$TRACEWID
 40
0.05
  9
$TEXTSTYLE
  7
ROMANS
  9
$CLAYER
  8
DIM
  9
$CELTYPE
  6
BYLAYER
  9
$CECOLOR
 62
   256
  9
$CELTSCALE
 40
1.0
  9
$DELOBJ
 70
     1
  9
$DISPSILH
 70
     1
  9
$DIMSCALE
 40
1.0
  9
$DIMASZ
 40
0.125
  9
$DIMEXO
 40
0.125
  9
$DIMDLI
 40
0.38
  9
$DIMRND
 40
0.0
  9
$DIMDLE
 40
0.0
  9
$DIMEXE
 40
0.125
  9
$DIMTP
 40
0.01
  9
$DIMTM
 40
0.01
  9
$DIMTXT
 40
0.125
  9
$DIMCEN
 40
-0.125
  9
$DIMTSZ
 40
0.0
  9
$DIMTOL
 70
     1
  9
$DIMLIM
 70
     0
  9
$DIMTIH
 70
     1
  9
$DIMTOH
 70
     1
  9
$DIMSE1
 70
     0
  9
$DIMSE2
 70
     0
  9
$DIMTAD
 70
     0
  9
$DIMZIN
 70
     4
  9
$DIMBLK
  1

  9
$DIMASO
 70
     1
  9
$DIMSHO
 70
     1
  9
$DIMPOST
  1

  9
$DIMAPOST
  1

  9
$DIMALT
 70
     0
  9
$DIMALTD
 70
     2
  9
$DIMALTF
 40
25.4
  9
$DIMLFAC
 40
0.5
  9
$DIMTOFL
 70
     0
  9
$DIMTVP
 40
0.0
  9
$DIMTIX
 70
     0
  9
$DIMSOXD
 70
     0
  9
$DIMSAH
 70
     0
  9
$DIMBLK1
  1

  9
$DIMBLK2
  1

  9
$DIMSTYLE
  2
STANDARD
  9
$DIMCLRD
 70
     0
  9
$DIMCLRE
 70
     0
  9
$DIMCLRT
 70
     0
  9
$DIMTFAC
 40
1.0
  9
$DIMGAP
 40
0.09
  9
$DIMJUST
 70
     0
  9
$DIMSD1
 70
     0
  9
$DIMSD2
 70
     0
  9
$DIMTOLJ
 70
     1
  9
$DIMTZIN
 70
     4
  9
$DIMALTZ
 70
     0
  9
$DIMALTTZ
 70
     0
  9
$DIMFIT
 70
     3
  9
$DIMUPT
 70
     0
  9
$DIMUNIT
 70
     2
  9
$DIMDEC
 70
     3
  9
$DIMTDEC
 70
     3
  9
$DIMALTU
 70
     2
  9
$DIMALTTD
 70
     2
  9
$DIMTXSTY
  7
ROMANS
  9
$DIMAUNIT
 70
     0
  9
$LUNITS
 70
     2
  9
$LUPREC
 70
     4
  9
$SKETCHINC
 40
0.1
  9
$FILLETRAD
 40
0.25
  9
$AUNITS
 70
     0
  9
$AUPREC
 70
     0
  9
$MENU
  1
.
  9
$ELEVATION
 40
0.0
  9
$PELEVATION
 40
0.0
  9
$THICKNESS
 40
0.0
  9
$LIMCHECK
 70
     0
  9
$BLIPMODE
 70
     0
  9
$CHAMFERA
 40
0.5
  9
$CHAMFERB
 40
0.5
  9
$CHAMFERC
 40
1.0
  9
$CHAMFERD
 40
0.0
  9
$SKPOLY
 70
     0
  9
$TDCREATE
 40
2451107.388147361
  9
$TDUPDATE
 40
2452458.319561562
  9
$TDINDWG
 40
0.6499131366
  9
$TDUSRTIMER
 40
0.6499131366
  9
$USRTIMER
 70
     1
  9
$ANGBASE
 50
0.0
  9
$ANGDIR
 70
     0
  9
$PDMODE
 70
     0
  9
$PDSIZE
 40
0.0
  9
$PLINEWID
 40
0.0
  9
$COORDS
 70
     2
  9
$SPLFRAME
 70
     0
  9
$SPLINETYPE
 70
     6
  9
$SPLINESEGS
 70
     8
  9
$ATTDIA
 70
     0
  9
$ATTREQ
 70
     1
  9
$HANDLING
 70
 22529
  9
$HANDSEED
  5
12E3
  9
$SURFTAB1
 70
     6
  9
$SURFTAB2
 70
     6
  9
$SURFTYPE
 70
     6
  9
$SURFU
 70
     6
  9
$SURFV
 70
     6
  9
$UCSNAME
  2

  9
$UCSORG
 10
0.0
 20
0.0
 30
0.0
  9
$UCSXDIR
 10
1.0
 20
0.0
 30
0.0
  9
$UCSYDIR
 10
0.0
 20
1.0
 30
0.0
  9
$PUCSNAME
  2

  9
$PUCSORG
 10
0.0
 20
0.0
 30
0.0
  9
$PUCSXDIR
 10
1.0
 20
0.0
 30
0.0
  9
$PUCSYDIR
 10
0.0
 20
1.0
 30
0.0
  9
$USERI1
 70
     0
  9
$USERI2
 70
     0
  9
$USERI3
 70
     0
  9
$USERI4
 70
     0
  9
$USERI5
 70
     0
  9
$USERR1
 40
0.0
  9
$USERR2
 40
0.0
  9
$USERR3
 40
0.0
  9
$USERR4
 40
0.0
  9
$USERR5
 40
0.0
  9
$WORLDVIEW
 70
     1
  9
$SHADEDGE
 70
     3
  9
$SHADEDIF
 70
    70
  9
$TILEMODE
 70
     1
  9
$MAXACTVP
 70
    48
  9
$PINSBASE
 10
0.0
 20
0.0
 30
0.0
  9
$PLIMCHECK
 70
     0
  9
$PEXTMIN
 10
1.000000000000000E+20
 20
1.000000000000000E+20
 30
1.000000000000000E+20
  9
$PEXTMAX
 10
-1.000000000000000E+20
 20
-1.000000000000000E+20
 30
-1.000000000000000E+20
  9
$PLIMMIN
 10
0.0
 20
0.0
  9
$PLIMMAX
 10
12.0
 20
9.0
  9
$UNITMODE
 70
     0
  9
$VISRETAIN
 70
     1
  9
$PLINEGEN
 70
     1
  9
$PSLTSCALE
 70
     1
  9
$TREEDEPTH
 70
  3020
  9
$PICKSTYLE
 70
     1
  9
$CMLSTYLE
  2
STANDARD
  9
$CMLJUST
 70
     0
  9
$CMLSCALE
 40
1.0
  9
$PROXYGRAPHICS
 70
     1
  9
$MEASUREMENT
 70
     0
  0
ENDSEC
  0
SECTION
  2
CLASSES
  0
CLASS
  1
LWPOLYLINE
  2
AcDbPolyline
  3
AutoCAD 2000
 90
        0
280
     0
281
     1
  0
CLASS
  1
DICTIONARYVAR
  2
AcDbDictionaryVar
  3
AutoCAD 2000
 90
        0
280
     0
281
     0
  0
CLASS
  1
ACDBDICTIONARYWDFLT
  2
AcDbDictionaryWithDefault
  3
AutoCAD 2000
 90
        0
280
     0
281
     0
  0
CLASS
  1
ACDBPLACEHOLDER
  2
AcDbPlaceHolder
  3
AutoCAD 2000
 90
        0
280
     0
281
     0
  0
CLASS
  1
LAYOUT
  2
AcDbLayout
  3
AutoCAD 2000
 90
        0
280
     0
281
     0
  0
CLASS
  1
LONG_TRANSACTION
  2
AcDbLongTransaction
  3
AutoCAD 2000
 90
        0
280
     0
281
     0
  0
CLASS
  1
LWPOLYLINE
  2
AcDbPolyline
  3
AutoCAD 2000
 90
        0
280
     0
281
     1
  0
CLASS
  1
HATCH
  2
AcDbHatch
  3
AutoCAD 2000
 90
        0
280
     0
281
     1
  0
CLASS
  1
XRECORD
  2
AcDbXrecord
  3
AutoCAD 2000
 90
        0
280
     0
281
     0
  0
ENDSEC
  0
SECTION
  2
TABLES
  0
TABLE
  2
VPORT
  5
8
330
0
100
AcDbSymbolTable
 70
     2
  0
VPORT
  5
12BE
330
8
100
AcDbSymbolTableRecord
100
AcDbViewportTableRecord
  2
*ACTIVE
 70
     0
 10
0.0
 20
0.0
 11
1.0
 21
1.0
 12
0.5587432987267072
 22
-3.106341065858071
 13
0.0
 23
0.0
 14
0.5
 24
0.5
 15
0.5
 25
0.5
 16
0.0
 26
0.0
 36
1.0
 17
3.926160451945129
 27
5.479511252948558
 37
-0.0300717933567791
 40
2.163944400474325
 41
4.320930232558139
 42
50.0
 43
0.0
 44
0.0
 50
0.0
 51
0.0
 71
     0
 72
  2000
 73
     1
 74
     1
 75
     0
 76
     0
 77
     0
 78
     0
  0
ENDTAB
  0
TABLE
  2
LTYPE
  5
5
330
0
100
AcDbSymbolTable
 70
     1
  0
LTYPE
  5
12
330
5
100
AcDbSymbolTableRecord
100
AcDbLinetypeTableRecord
  2
BYBLOCK
 70
     0
  3

 72
    65
 73
     0
 40
0.0
  0
LTYPE
  5
13
330
5
100
AcDbSymbolTableRecord
100
AcDbLinetypeTableRecord
  2
BYLAYER
 70
     0
  3

 72
    65
 73
     0
 40
0.0
  0
LTYPE
  5
14
330
5
100
AcDbSymbolTableRecord
100
AcDbLinetypeTableRecord
  2
CONTINUOUS
 70
     0
  3
Solid line
 72
    65
 73
     0
 40
0.0
  0
ENDTAB
  0
TABLE
  2
LAYER
  5
2
330
0
100
AcDbSymbolTable
 70
     3
  0
LAYER
  5
E
330
2
100
AcDbSymbolTableRecord
100
AcDbLayerTableRecord
  2
0
 70
     0
 62
     7
  6
CONTINUOUS
  0
LAYER
  5
59
330
2
100
AcDbSymbolTableRecord
100
AcDbLayerTableRecord
  2
TEXT
 70
     0
 62
     3
  6
CONTINUOUS
  0
LAYER
  5
B83
330
2
100
AcDbSymbolTableRecord
100
AcDbLayerTableRecord
  2
DIM
 70
     0
 62
     4
  6
CONTINUOUS
  0
ENDTAB
  0
TABLE
  2
STYLE
  5
3
330
0
100
AcDbSymbolTable
 70
     3
  0
STYLE
  5
F
330
3
100
AcDbSymbolTableRecord
100
AcDbTextStyleTableRecord
  2
STANDARD
 70
     0
 40
0.0
 41
1.0
 50
0.0
 71
     0
 42
0.2
  3
txt
  4

  0
STYLE
  5
5B
330
3
100
AcDbSymbolTableRecord
100
AcDbTextStyleTableRecord
  2
ROMANS
 70
     0
 40
0.0
 41
1.0
 50
0.0
 71
     0
 42
0.125
  3
romans.shx
  4

  0
STYLE
  5
11AD
330
3
100
AcDbSymbolTableRecord
100
AcDbTextStyleTableRecord
  2
ITALICC
 70
     0
 40
0.0
 41
1.0
 50
0.0
 71
     0
 42
0.125
  3
italicc
  4

  0
ENDTAB
  0
TABLE
  2
VIEW
  5
6
330
0
100
AcDbSymbolTable
 70
     0
  0
ENDTAB
  0
TABLE
  2
UCS
  5
7
330
0
100
AcDbSymbolTable
 70
     0
  0
ENDTAB
  0
TABLE
  2
APPID
  5
9
330
0
100
AcDbSymbolTable
 70
     2
  0
APPID
  5
10
330
9
100
AcDbSymbolTableRecord
100
AcDbRegAppTableRecord
  2
ACAD
 70
     0
  0
APPID
  5
68C
330
9
100
AcDbSymbolTableRecord
100
AcDbRegAppTableRecord
  2
AME_SOLVIEW
 70
     0
  0
ENDTAB
  0
TABLE
  2
DIMSTYLE
  5
A
330
0
100
AcDbSymbolTable
 70
     1
  0
DIMSTYLE
105
1D
330
A
100
AcDbSymbolTableRecord
100
AcDbDimStyleTableRecord
  2
STANDARD
 70
     0
  3

  4

  5

  6

  7

 40
1.0
 41
0.125
 42
0.125
 43
0.38
 44
0.125
 45
0.0
 46
0.0
 47
0.01
 48
0.01
140
0.125
141
-0.125
142
0.0
143
25.4
144
0.5
145
0.0
146
1.0
147
0.09
 71
     1
 72
     0
 73
     1
 74
     1
 75
     0
 76
     0
 77
     0
 78
     4
170
     0
171
     2
172
     0
173
     0
174
     0
175
     0
176
     0
177
     0
178
     0
270
     2
271
     3
272
     3
273
     2
274
     2
340
5B
275
     0
280
     0
281
     0
282
     0
283
     1
284
     4
285
     0
286
     0
287
     3
288
     0
  0
ENDTAB
  0
TABLE
  2
BLOCK_RECORD
  5
1
330
0
100
AcDbSymbolTable
 70
     0
  0
BLOCK_RECORD
  5
18
102
{ACAD_XDICTIONARY
360
12E1
102
}
330
1
100
AcDbSymbolTableRecord
100
AcDbBlockTableRecord
  2
*MODEL_SPACE
  0
BLOCK_RECORD
  5
15
102
{ACAD_XDICTIONARY
360
12DF
102
}
330
1
100
AcDbSymbolTableRecord
100
AcDbBlockTableRecord
  2
*PAPER_SPACE
  0
ENDTAB
  0
ENDSEC
  0
SECTION
  2
BLOCKS
  0
BLOCK
  5
19
330
18
100
AcDbEntity
  8
0
100
AcDbBlockBegin
  2
*MODEL_SPACE
 70
     0
 10
0.0
 20
0.0
 30
0.0
  3
*MODEL_SPACE
  1

  0
ENDBLK
  5
1A
330
18
100
AcDbEntity
  8
0
100
AcDbBlockEnd
  0
BLOCK
  5
16
330
15
100
AcDbEntity
 67
     1
  8
0
100
AcDbBlockBegin
  2
*PAPER_SPACE
 70
     0
 10
0.0
 20
0.0
 30
0.0
  3
*PAPER_SPACE
  1

  0
ENDBLK
  5
17
330
15
100
AcDbEntity
 67
     1
  8
0
100
AcDbBlockEnd
  0
ENDSEC
  0
SECTION
  2
ENTITIES
  0
LWPOLYLINE
  5
ED3
330
18
100
AcDbEntity
  8
0
100
AcDbPolyline
 90
       12
 70
     1
 43
0.0
 10
1.74632345308766
 20
2.887036173666857
 10
2.652700436170349
 20
2.887036173666857
 10
2.652700436170349
 20
2.687036173666857
 10
0.652700436170349
 20
2.687036173666857
 10
0.652700436170349
 20
2.887036173666857
 10
1.572511474622837
 20
2.887036173666858
 42
-0.577350269189633
 10
1.585501855679603
 20
2.864536173666858
 10
1.536427082798483
 20
2.779536173666858
 42
0.5773502691896307
 10
1.549417463855249
 20
2.757036173666857
 10
1.769417463855247
 20
2.757036173666857
 42
0.5773502691896303
 10
1.782407844912013
 20
2.779536173666858
 10
1.733333072030894
 20
2.864536173666858
 42
-0.577350269189633
  0
TEXT
  5
1232
330
18
100
AcDbEntity
  8
TEXT
100
AcDbText
 10
0.809676028417375
 20
2.313454600855237
 30
0.0
 40
0.125
  1
PART #110626
  7
ITALICC
 72
     1
 11
1.562652218893565
 21
2.313454600855237
 31
0.0
100
AcDbText
  0
LINE
  5
1233
330
18
100
AcDbEntity
  8
TEXT
100
AcDbLine
 10
1.530385717845628
 20
2.069100914835403
 30
0.0
 11
1.607033699138185
 21
2.069100914835403
 31
0.0
  0
LINE
  5
1234
330
18
100
AcDbEntity
  8
TEXT
100
AcDbLine
 10
1.602553811811685
 20
2.133377609492169
 30
0.0
 11
1.535054094162169
 21
2.133377609492169
 31
0.0
  0
LWPOLYLINE
  5
1235
330
18
100
AcDbEntity
  8
TEXT
100
AcDbPolyline
 90
        5
 70
     0
 43
0.0001332181640625
 10
-0.1067263246890469
 20
2.010150807734356
 10
-0.0934045082827981
 20
2.010150807734356
 10
-0.0934045082827981
 20
2.046785802851545
 10
-0.0567695131656083
 20
2.046785802851545
 10
-0.0567695131656083
 20
2.060107619257792
  0
LWPOLYLINE
  5
1236
330
18
100
AcDbEntity
  8
TEXT
100
AcDbPolyline
 90
        3
 70
     0
 43
0.0006660908203125
 10
-0.0667608754702989
 20
2.106733976679671
 10
-0.1533526821109237
 20
2.106733976679671
 10
-0.1533526821109237
 20
2.020142170039044
  0
LWPOLYLINE
  5
1237
330
18
100
AcDbEntity
  8
TEXT
100
AcDbPolyline
 90
        3
 70
     0
 43
0.0006660908203125
 10
-0.0667608754702989
 20
2.133377609492172
 10
-0.1799963149234212
 20
2.133377609492172
 10
-0.1799963149234212
 20
2.020142170039044
  0
LWPOLYLINE
  5
1238
330
18
100
AcDbEntity
  8
TEXT
100
AcDbPolyline
 90
        5
 70
     0
 43
0.0001332181640625
 10
-0.0567695131656083
 20
1.940211271601545
 10
-0.0567695131656083
 20
1.953533088007795
 10
-0.0934045082827964
 20
1.953533088007795
 10
-0.0934045082827964
 20
1.990168083124982
 10
-0.1067263246890469
 20
1.990168083124982
  0
LWPOLYLINE
  5
1239
330
18
100
AcDbEntity
  8
TEXT
100
AcDbPolyline
 90
        3
 70
     0
 43
0.0006660908203125
 10
-0.1533526821109237
 20
1.980176720820296
 10
-0.1533526821109237
 20
1.89358491417967
 10
-0.0667608754702989
 20
1.89358491417967
  0
LWPOLYLINE
  5
123A
330
18
100
AcDbEntity
  8
TEXT
100
AcDbPolyline
 90
        3
 70
     0
 43
0.0006660908203125
 10
-0.1799963149234212
 20
1.980176720820296
 10
-0.1799963149234212
 20
1.866941281367169
 10
-0.0667608754702989
 20
1.866941281367169
  0
LWPOLYLINE
  5
123B
330
18
100
AcDbEntity
  8
TEXT
100
AcDbPolyline
 90
        2
 70
     0
 43
0.0001332181640625
 10
-0.1533526821109237
 20
1.980176720820296
 10
-0.0934045082827964
 20
1.990168083124982
  0
LWPOLYLINE
  5
123C
330
18
100
AcDbEntity
  8
TEXT
100
AcDbPolyline
 90
        2
 70
     0
 43
0.0001332181640625
 10
-0.1067263246890469
 20
1.990168083124982
 10
-0.1799963149234212
 20
1.980176720820296
  0
LWPOLYLINE
  5
123D
330
18
100
AcDbEntity
  8
TEXT
100
AcDbPolyline
 90
        2
 70
     0
 43
0.0006660908203125
 10
-0.1533526821109237
 20
1.980176720820296
 10
-0.1799963149234212
 20
1.980176720820296
  0
LWPOLYLINE
  5
123E
330
18
100
AcDbEntity
  8
TEXT
100
AcDbPolyline
 90
        2
 70
     0
 43
0.0001332181640625
 10
-0.1533526821109237
 20
1.89358491417967
 10
-0.0934045082827964
 20
1.953533088007795
  0
LWPOLYLINE
  5
123F
330
18
100
AcDbEntity
  8
TEXT
100
AcDbPolyline
 90
        2
 70
     0
 43
0.0006660908203125
 10
-0.1533526821109237
 20
2.020142170039044
 10
-0.1799963149234212
 20
2.020142170039044
  0
LWPOLYLINE
  5
1240
330
18
100
AcDbEntity
  8
TEXT
100
AcDbPolyline
 90
        2
 70
     0
 43
0.0001332181640625
 10
-0.1799963149234212
 20
2.020142170039044
 10
-0.1067263246890469
 20
2.010150807734356
  0
LWPOLYLINE
  5
1241
330
18
100
AcDbEntity
  8
TEXT
100
AcDbPolyline
 90
        2
 70
     0
 43
0.0001332181640625
 10
-0.1533526821109237
 20
2.020142170039044
 10
-0.0934045082827981
 20
2.010150807734356
  0
LWPOLYLINE
  5
1242
330
18
100
AcDbEntity
  8
TEXT
100
AcDbPolyline
 90
        2
 70
     0
 43
0.0001332181640625
 10
-0.1533526821109237
 20
2.106733976679671
 10
-0.0934045082827981
 20
2.046785802851545
  0
LWPOLYLINE
  5
1243
330
18
100
AcDbEntity
  8
TEXT
100
AcDbPolyline
 90
        5
 70
     0
 43
0.0001332181640625
 10
0.0131700229672025
 20
1.990168083124982
 10
-0.0001517934390463
 20
1.990168083124982
 10
-0.0001517934390463
 20
1.953533088007795
 10
-0.0367867885562361
 20
1.953533088007795
 10
-0.0367867885562361
 20
1.940211271601545
  0
LWPOLYLINE
  5
1244
330
18
100
AcDbEntity
  8
TEXT
100
AcDbPolyline
 90
        2
 70
     0
 43
0.0001332181640625
 10
0.0597963803890775
 20
1.980176720820296
 10
-0.0001517934390463
 20
1.990168083124982
  0
LWPOLYLINE
  5
1245
330
18
100
AcDbEntity
  8
TEXT
100
AcDbPolyline
 90
        2
 70
     0
 43
0.0001332181640625
 10
0.0864400132015786
 20
1.980176720820296
 10
0.0131700229672025
 20
1.990168083124982
  0
LWPOLYLINE
  5
1246
330
18
100
AcDbEntity
  8
TEXT
100
AcDbPolyline
 90
        3
 70
     0
 43
0.0006660908203125
 10
-0.0267954262515473
 20
1.866941281367169
 10
0.0864400132015786
 20
1.866941281367169
 10
0.0864400132015786
 20
1.980176720820296
  0
LWPOLYLINE
  5
1247
330
18
100
AcDbEntity
  8
TEXT
100
AcDbPolyline
 90
        3
 70
     0
 43
0.0006660908203125
 10
-0.0267954262515473
 20
1.89358491417967
 10
0.0597963803890775
 20
1.89358491417967
 10
0.0597963803890775
 20
1.980176720820296
  0
LWPOLYLINE
  5
1248
330
18
100
AcDbEntity
  8
TEXT
100
AcDbPolyline
 90
        2
 70
     0
 43
0.0001332181640625
 10
0.0597963803890775
 20
1.89358491417967
 10
-0.0001517934390463
 20
1.953533088007795
  0
LWPOLYLINE
  5
1249
330
18
100
AcDbEntity
  8
TEXT
100
AcDbPolyline
 90
        2
 70
     0
 43
0.0006660908203125
 10
-0.0267954262515473
 20
1.89358491417967
 10
-0.0267954262515473
 20
1.866941281367169
  0
LWPOLYLINE
  5
124A
330
18
100
AcDbEntity
  8
TEXT
100
AcDbPolyline
 90
        2
 70
     0
 43
0.0001332181640625
 10
-0.0367867885562361
 20
1.940211271601545
 10
-0.0267954262515473
 20
1.866941281367169
  0
LWPOLYLINE
  5
124B
330
18
100
AcDbEntity
  8
TEXT
100
AcDbPolyline
 90
        2
 70
     0
 43
0.0001332181640625
 10
-0.0267954262515473
 20
1.89358491417967
 10
-0.0367867885562361
 20
1.953533088007795
  0
LWPOLYLINE
  5
124C
330
18
100
AcDbEntity
  8
TEXT
100
AcDbPolyline
 90
        2
 70
     0
 43
0.0001332181640625
 10
-0.0667608754702989
 20
1.866941281367169
 10
-0.0567695131656083
 20
1.940211271601545
  0
LWPOLYLINE
  5
124D
330
18
100
AcDbEntity
  8
TEXT
100
AcDbPolyline
 90
        2
 70
     0
 43
0.0001332181640625
 10
-0.0667608754702989
 20
1.89358491417967
 10
-0.0567695131656083
 20
1.953533088007795
  0
LWPOLYLINE
  5
124E
330
18
100
AcDbEntity
  8
TEXT
100
AcDbPolyline
 90
        2
 70
     0
 43
0.0006660908203125
 10
-0.0667608754702989
 20
1.89358491417967
 10
-0.0667608754702989
 20
1.866941281367169
  0
LWPOLYLINE
  5
124F
330
18
100
AcDbEntity
  8
TEXT
100
AcDbPolyline
 90
        2
 70
     0
 43
0.0006660908203125
 10
0.0597963803890775
 20
1.980176720820296
 10
0.0864400132015786
 20
1.980176720820296
  0
LWPOLYLINE
  5
1250
330
18
100
AcDbEntity
  8
TEXT
100
AcDbPolyline
 90
        2
 70
     0
 43
0.0001332181640625
 10
0.0597963803890775
 20
2.106733976679671
 10
-0.0001517934390463
 20
2.046785802851545
  0
LWPOLYLINE
  5
1251
330
18
100
AcDbEntity
  8
TEXT
100
AcDbPolyline
 90
        2
 70
     0
 43
0.0001332181640625
 10
0.0597963803890775
 20
2.020142170039044
 10
-0.0001517934390463
 20
2.010150807734356
  0
LWPOLYLINE
  5
1252
330
18
100
AcDbEntity
  8
TEXT
100
AcDbPolyline
 90
        2
 70
     0
 43
0.0001332181640625
 10
0.0131700229672025
 20
2.010150807734356
 10
0.0864400132015786
 20
2.020142170039044
  0
LWPOLYLINE
  5
1253
330
18
100
AcDbEntity
  8
TEXT
100
AcDbPolyline
 90
        3
 70
     0
 43
0.0006660908203125
 10
0.0597963803890775
 20
2.020142170039044
 10
0.0597963803890775
 20
2.106733976679671
 10
-0.0267954262515473
 20
2.106733976679671
  0
LWPOLYLINE
  5
1254
330
18
100
AcDbEntity
  8
TEXT
100
AcDbPolyline
 90
        3
 70
     0
 43
0.0006660908203125
 10
0.0864400132015786
 20
2.020142170039044
 10
0.0864400132015786
 20
2.133377609492172
 10
-0.0267954262515473
 20
2.133377609492172
  0
LWPOLYLINE
  5
1255
330
18
100
AcDbEntity
  8
TEXT
100
AcDbPolyline
 90
        2
 70
     0
 43
0.0001332181640625
 10
-0.0267954262515473
 20
2.133377609492172
 10
-0.0367867885562361
 20
2.060107619257792
  0
LWPOLYLINE
  5
1256
330
18
100
AcDbEntity
  8
TEXT
100
AcDbPolyline
 90
        2
 70
     0
 43
0.0001332181640625
 10
-0.0267954262515473
 20
2.106733976679671
 10
-0.0367867885562361
 20
2.046785802851545
  0
LWPOLYLINE
  5
1257
330
18
100
AcDbEntity
  8
TEXT
100
AcDbPolyline
 90
        2
 70
     0
 43
0.0006660908203125
 10
-0.0267954262515473
 20
2.106733976679671
 10
-0.0267954262515473
 20
2.133377609492172
  0
LWPOLYLINE
  5
1258
330
18
100
AcDbEntity
  8
TEXT
100
AcDbPolyline
 90
        5
 70
     0
 43
0.0001332181640625
 10
-0.0367867885562361
 20
2.060107619257792
 10
-0.0367867885562361
 20
2.046785802851545
 10
-0.0001517934390463
 20
2.046785802851545
 10
-0.0001517934390463
 20
2.010150807734356
 10
0.0131700229672025
 20
2.010150807734356
  0
LWPOLYLINE
  5
1259
330
18
100
AcDbEntity
  8
TEXT
100
AcDbPolyline
 90
        2
 70
     0
 43
0.0001332181640625
 10
-0.0667608754702989
 20
2.106733976679671
 10
-0.0567695131656083
 20
2.046785802851545
  0
LWPOLYLINE
  5
125A
330
18
100
AcDbEntity
  8
TEXT
100
AcDbPolyline
 90
        2
 70
     0
 43
0.0001332181640625
 10
-0.0567695131656083
 20
2.060107619257792
 10
-0.0667608754702989
 20
2.133377609492172
  0
LWPOLYLINE
  5
125B
330
18
100
AcDbEntity
  8
TEXT
100
AcDbPolyline
 90
        2
 70
     0
 43
0.0006660908203125
 10
-0.0667608754702989
 20
2.106733976679671
 10
-0.0667608754702989
 20
2.133377609492172
  0
LWPOLYLINE
  5
125C
330
18
100
AcDbEntity
  8
TEXT
100
AcDbPolyline
 90
        2
 70
     0
 43
0.0006660908203125
 10
0.0597963803890775
 20
2.020142170039044
 10
0.0864400132015786
 20
2.020142170039044
  0
LWPOLYLINE
  5
125D
330
18
100
AcDbEntity
  8
TEXT
100
AcDbPolyline
 90
        2
 70
     0
 43
0.0
 10
0.8052199339502088
 20
1.918455918718586
 42
0.3318488747599744
 10
0.8743392265155218
 20
1.866904576503658
 42
-6.868794160588311
  0
LINE
  5
125E
330
18
100
AcDbEntity
  8
TEXT
100
AcDbLine
 10
0.8731996530193262
 20
2.201389087230979
 30
0.0
 11
0.8063909404529612
 21
2.201389087230979
 31
0.0
  0
LINE
  5
125F
330
18
100
AcDbEntity
  8
TEXT
100
AcDbLine
 10
0.5270485728338672
 20
2.133377609492169
 30
0.0
 11
0.3513168199353558
 21
2.133377609492169
 31
0.0
  0
ARC
  5
1260
330
18
100
AcDbEntity
  8
TEXT
100
AcDbCircle
 10
0.4221542862939054
 20
1.950100384864215
 30
0.0
 40
0.0831958083605586
100
AcDbArc
 50
270.0
 51
90.0
  0
LINE
  5
1261
330
18
100
AcDbEntity
  8
TEXT
100
AcDbLine
 10
0.3565541500496039
 20
2.069100914835403
 30
0.0
 11
0.5234598040785743
 21
2.069100914835403
 31
0.0
  0
LINE
  5
1262
330
18
100
AcDbEntity
  8
TEXT
100
AcDbLine
 10
0.4270946602001846
 20
1.935261582837097
 30
0.0
 11
0.2692293604888505
 21
1.935261582837097
 31
0.0
  0
LINE
  5
1263
330
18
100
AcDbEntity
  8
TEXT
100
AcDbLine
 10
0.2692293604888523
 20
1.866904576503658
 30
0.0
 11
0.422154286293905
 21
1.866904576503658
 31
0.0
  0
ARC
  5
1264
330
18
100
AcDbEntity
  8
TEXT
100
AcDbCircle
 10
0.3513168199353562
 20
2.051290150045667
 30
0.0
 40
0.0820874594465043
100
AcDbArc
 50
90.0
 51
270.0
  0
LINE
  5
1265
330
18
100
AcDbEntity
  8
TEXT
100
AcDbLine
 10
0.2692293604888505
 20
1.935261582837097
 30
0.0
 11
0.2692293604888523
 21
1.866904576503658
 31
0.0
  0
LINE
  5
1266
330
18
100
AcDbEntity
  8
TEXT
100
AcDbLine
 10
0.3513168199353558
 20
1.969202690599161
 30
0.0
 11
0.4270946602001846
 21
1.969202690599161
 31
0.0
  0
ARC
  5
1267
330
18
100
AcDbEntity
  8
TEXT
100
AcDbCircle
 10
0.4270946602001851
 20
1.952232136718131
 30
0.0
 40
0.0169705538810321
100
AcDbArc
 50
270.0
 51
90.0
  0
LINE
  5
1268
330
18
100
AcDbEntity
  8
TEXT
100
AcDbLine
 10
0.422154286293905
 20
2.033296193224775
 30
0.0
 11
0.3565541500496039
 21
2.033296193224775
 31
0.0
  0
ARC
  5
1269
330
18
100
AcDbEntity
  8
TEXT
100
AcDbCircle
 10
0.3565541500496043
 20
2.051198554030091
 30
0.0
 40
0.017902360805315
100
AcDbArc
 50
90.0
 51
270.0
  0
LINE
  5
126A
330
18
100
AcDbEntity
  8
TEXT
100
AcDbLine
 10
0.7175204648537195
 20
2.032505613379048
 30
0.0
 11
0.6588901438217816
 21
2.133377609492169
 31
0.0
  0
LINE
  5
126B
330
18
100
AcDbEntity
  8
TEXT
100
AcDbLine
 10
0.57734641155868
 20
1.866904576503658
 30
0.0
 11
0.6739866626336744
 21
1.86717521560194
 31
0.0
  0
LWPOLYLINE
  5
126C
330
18
100
AcDbEntity
  8
TEXT
100
AcDbPolyline
 90
        6
 70
     1
 43
0.0
 10
0.61987021513383
 20
2.069100914835403
 10
0.5895536209136219
 20
2.069100914835403
 10
0.5895536209136219
 20
1.945989916780509
 42
0.407328721240804
 10
0.6010972720750983
 20
1.934171002104123
 10
0.6617189711198291
 20
1.934171002104123
 10
0.679184311527147
 20
1.966983231147602
  0
LINE
  5
126D
330
18
100
AcDbEntity
  8
TEXT
100
AcDbLine
 10
0.5234598040785743
 20
2.069100914835403
 30
0.0
 11
0.5234598040785743
 21
1.926696967841707
 31
0.0
  0
ARC
  5
126E
330
18
100
AcDbEntity
  8
TEXT
100
AcDbCircle
 10
0.5835758220523269
 20
1.926696967841707
 30
0.0
 40
0.0601160179737537
100
AcDbArc
 50
180.0000000000003
 51
264.0521544866073
  0
LINE
  5
126F
330
18
100
AcDbEntity
  8
TEXT
100
AcDbLine
 10
0.5870911776778743
 20
2.167765527086307
 30
0.0
 11
0.5270485728338672
 21
2.167765527086307
 31
0.0
  0
LINE
  5
1270
330
18
100
AcDbEntity
  8
TEXT
100
AcDbLine
 10
0.5270485728338672
 20
2.167765527086307
 30
0.0
 11
0.5270485728338672
 21
2.133377609492169
 31
0.0
  0
LINE
  5
1271
330
18
100
AcDbEntity
  8
TEXT
100
AcDbLine
 10
0.5870911776778743
 20
2.133377609492169
 30
0.0
 11
0.5870911776778743
 21
2.167765527086307
 31
0.0
  0
LINE
  5
1272
330
18
100
AcDbEntity
  8
TEXT
100
AcDbLine
 10
0.6588901438217816
 20
2.133377609492169
 30
0.0
 11
0.5870911776778743
 21
2.133377609492169
 31
0.0
  0
LINE
  5
1273
330
18
100
AcDbEntity
  8
TEXT
100
AcDbLine
 10
0.7079202278567652
 20
1.88686308260867
 30
0.0
 11
0.8052199339502097
 21
2.051213293543939
 31
0.0
  0
LINE
  5
1274
330
18
100
AcDbEntity
  8
TEXT
100
AcDbLine
 10
0.8052199339502097
 20
2.051213293543939
 30
0.0
 11
0.8052199339502097
 21
1.918455918718582
 31
0.0
  0
ARC
  5
1275
330
18
100
AcDbEntity
  8
TEXT
100
AcDbCircle
 10
0.6738766679445516
 20
1.906452298777353
 30
0.0
 40
0.0392772371940762
100
AcDbArc
 50
270.1604552698595
 51
330.0831797321295
  0
LINE
  5
1276
330
18
100
AcDbEntity
  8
TEXT
100
AcDbLine
 10
0.776269027659585
 20
2.133377609492169
 30
0.0
 11
0.7175204648537195
 21
2.032505613379048
 31
0.0
  0
LINE
  5
1277
330
18
100
AcDbEntity
  8
TEXT
100
AcDbLine
 10
0.8063909404529612
 20
2.201389087230979
 30
0.0
 11
0.8063909404529612
 21
2.133377609492169
 31
0.0
  0
LINE
  5
1278
330
18
100
AcDbEntity
  8
TEXT
100
AcDbLine
 10
0.8063909404529612
 20
2.133377609492169
 30
0.0
 11
0.776269027659585
 21
2.133377609492169
 31
0.0
  0
LWPOLYLINE
  5
1279
330
18
100
AcDbEntity
  8
TEXT
100
AcDbPolyline
 90
        4
 70
     0
 43
0.0
 10
1.158477062073119
 20
2.061547125669293
 10
1.158477062073119
 20
1.866904576503658
 10
1.226955345360977
 20
1.866904576503658
 10
1.226955345360977
 20
1.910395521454096
 42
-1.714843617202739
  0
LWPOLYLINE
  5
127A
330
18
100
AcDbEntity
  8
TEXT
100
AcDbPolyline
 90
        2
 70
     0
 43
0.0
 10
1.193611412617329
 20
2.133377609492172
 42
-0.3277054968067132
 10
1.229393103330494
 20
2.105055063722528
 42
6.667889725900311
  0
LWPOLYLINE
  5
127B
330
18
100
AcDbEntity
  8
TEXT
100
AcDbPolyline
 90
        2
 70
     0
 43
0.0
 10
1.022177840038102
 20
2.069100914835403
 42
-0.4142135623731017
 10
1.029731629204215
 20
2.061547125669293
 42
-0.9999999999999998
  0
LINE
  5
127C
330
18
100
AcDbEntity
  8
TEXT
100
AcDbLine
 10
1.039529563088122
 20
2.133377609492169
 30
0.0
 11
0.9055115071569863
 21
2.133377609492169
 31
0.0
  0
LINE
  5
127D
330
18
100
AcDbEntity
  8
TEXT
100
AcDbLine
 10
0.9723425602149555
 20
1.866904576503658
 30
0.0
 11
0.9723425602149555
 21
2.069100914835403
 31
0.0
  0
LINE
  5
127E
330
18
100
AcDbEntity
  8
TEXT
100
AcDbLine
 10
0.9055115071569863
 20
2.133377609492169
 30
0.0
 11
0.9055115071569863
 21
1.93251340275976
 31
0.0
  0
LINE
  5
127F
330
18
100
AcDbEntity
  8
TEXT
100
AcDbLine
 10
0.8731996530193262
 20
1.949292414606657
 30
0.0
 11
0.8731996530193262
 21
2.201389087230979
 31
0.0
  0
LINE
  5
1280
330
18
100
AcDbEntity
  8
TEXT
100
AcDbLine
 10
0.8743392265155209
 20
1.866904576503658
 30
0.0
 11
0.9723425602149555
 21
1.866904576503658
 31
0.0
  0
LINE
  5
1281
330
18
100
AcDbEntity
  8
TEXT
100
AcDbLine
 10
0.9055115071569863
 20
1.93251340275976
 30
0.0
 11
0.888517870272385
 21
1.93251340275976
 31
0.0
  0
ARC
  5
1282
330
18
100
AcDbEntity
  8
TEXT
100
AcDbCircle
 10
0.8885178702723841
 20
1.947895209003186
 30
0.0
 40
0.0153818062434269
100
AcDbArc
 50
174.7883570302258
 51
270.0
  0
LINE
  5
1283
330
18
100
AcDbEntity
  8
TEXT
100
AcDbLine
 10
0.9723425602149555
 20
2.069100914835403
 30
0.0
 11
1.022177840038103
 21
2.069100914835403
 31
0.0
  0
LINE
  5
1284
330
18
100
AcDbEntity
  8
TEXT
100
AcDbLine
 10
1.029731629204216
 20
2.061547125669293
 30
0.0
 11
1.029731629204216
 21
1.866904576503658
 31
0.0
  0
LINE
  5
1285
330
18
100
AcDbEntity
  8
TEXT
100
AcDbLine
 10
1.096789675986056
 20
1.866904576503658
 30
0.0
 11
1.096789675986056
 21
2.069100914835403
 31
0.0
  0
LINE
  5
1286
330
18
100
AcDbEntity
  8
TEXT
100
AcDbLine
 10
1.029731629204216
 20
1.866904576503658
 30
0.0
 11
1.096789675986056
 21
1.866904576503658
 31
0.0
  0
LWPOLYLINE
  5
1287
330
18
100
AcDbEntity
  8
TEXT
100
AcDbPolyline
 90
        3
 70
     0
 43
0.0
 10
1.193611412617329
 20
2.133377609492172
 10
1.075311253801285
 20
2.133377609492172
 10
1.075311253801285
 20
2.106210112731276
 42
-1.960274751411753
  0
LINE
  5
1288
330
18
100
AcDbEntity
  8
TEXT
100
AcDbLine
 10
1.096789675986056
 20
2.069100914835403
 30
0.0
 11
1.150923272907006
 21
2.069100914835403
 31
0.0
  0
LWPOLYLINE
  5
1289
330
18
100
AcDbEntity
  8
TEXT
100
AcDbPolyline
 90
        2
 70
     0
 43
0.0
 10
1.039529563088123
 20
2.133377609492172
 42
-0.3328679258950098
 10
1.075311253801285
 20
2.106210112731276
 42
6.772930709997214
  0
LWPOLYLINE
  5
128A
330
18
100
AcDbEntity
  8
TEXT
100
AcDbPolyline
 90
        2
 70
     0
 43
0.0
 10
1.150923272907006
 20
2.069100914835403
 42
-0.4142135623731017
 10
1.158477062073119
 20
2.061547125669293
 42
-0.9999999999999998
  0
ARC
  5
128B
330
18
100
AcDbEntity
  8
TEXT
100
AcDbCircle
 10
1.362198072770485
 20
2.091794042371266
 30
0.0
 40
0.0416329381542859
100
AcDbArc
 50
26.56974201007528
 51
87.20939649401342
  0
LWPOLYLINE
  5
128C
330
18
100
AcDbEntity
  8
TEXT
100
AcDbPolyline
 90
        2
 70
     0
 43
0.0
 10
1.270031278228612
 20
1.866904576503658
 10
1.404048695859989
 20
1.866904576503658
 42
0.9999999999999998
  0
LWPOLYLINE
  5
128D
330
18
100
AcDbEntity
  8
TEXT
100
AcDbPolyline
 90
        4
 70
     1
 43
0.0
 10
1.383926230790097
 20
1.969868554487683
 10
1.295265912130238
 20
1.969868554487683
 42
0.9999999999999998
 10
1.295265912130238
 20
1.927470013983822
 10
1.383926230790097
 20
1.927470013983822
 42
1.0
  0
LWPOLYLINE
  5
128E
330
18
100
AcDbEntity
  8
TEXT
100
AcDbPolyline
 90
        2
 70
     0
 43
0.0
 10
1.226955345360977
 20
1.910395521454096
 42
0.2901071551932823
 10
1.270031278228612
 20
1.866904576503658
 42
5.328517124445801
  0
LINE
  5
128F
330
18
100
AcDbEntity
  8
TEXT
100
AcDbLine
 10
1.364225012547554
 20
2.133377609492169
 30
0.0
 11
1.229393103330495
 21
2.133377609492169
 31
0.0
  0
LINE
  5
1290
330
18
100
AcDbEntity
  8
TEXT
100
AcDbLine
 10
1.288707199723813
 20
2.031825941373271
 30
0.0
 11
1.370995189507197
 21
2.031825941373271
 31
0.0
  0
LINE
  5
1291
330
18
100
AcDbEntity
  8
TEXT
100
AcDbLine
 10
1.335194114203075
 20
2.069100914835403
 30
0.0
 11
1.227987840815786
 21
2.069100914835403
 31
0.0
  0
LINE
  5
1292
330
18
100
AcDbEntity
  8
TEXT
100
AcDbLine
 10
1.229393103330495
 20
2.133377609492169
 30
0.0
 11
1.229393103330495
 21
2.105055063722525
 31
0.0
  0
ARC
  5
1293
330
18
100
AcDbEntity
  8
TEXT
100
AcDbCircle
 10
1.288707199723813
 20
1.964140360229152
 30
0.0
 40
0.0676855811441166
100
AcDbArc
 50
90.0
 51
153.7768192527749
  0
LINE
  5
1294
330
18
100
AcDbEntity
  8
TEXT
100
AcDbLine
 10
1.227987840815786
 20
2.069100914835403
 30
0.0
 11
1.227987840815786
 21
1.994048508761196
 31
0.0
  0
LINE
  5
1295
330
18
100
AcDbEntity
  8
TEXT
100
AcDbLine
 10
1.370995189507197
 20
2.031825941373271
 30
0.0
 11
1.360730429093632
 21
2.053076480945965
 31
0.0
  0
ARC
  5
1296
330
18
100
AcDbEntity
  8
TEXT
100
AcDbCircle
 10
1.335194114203074
 20
2.040741539835406
 30
0.0
 40
0.028359375
100
AcDbArc
 50
25.78218179591245
 51
90.0
  0
LINE
  5
1297
330
18
100
AcDbEntity
  8
TEXT
100
AcDbLine
 10
1.505479842562968
 20
1.866904576503658
 30
0.0
 11
1.505479842562963
 21
2.044195081935126
 31
0.0
  0
LWPOLYLINE
  5
1298
330
18
100
AcDbEntity
  8
TEXT
100
AcDbPolyline
 90
        2
 70
     0
 43
0.0
 10
1.447124628727634
 20
1.866904576503658
 10
1.505479842562968
 20
1.866904576503658
  0
LWPOLYLINE
  5
1299
330
18
100
AcDbEntity
  8
TEXT
100
AcDbPolyline
 90
        2
 70
     0
 43
0.0
 10
1.447124628727634
 20
1.910395521454096
 42
-0.2901071551932486
 10
1.404048695859989
 20
1.866904576503658
 42
-5.328517124445184
  0
LWPOLYLINE
  5
129A
330
18
100
AcDbEntity
  8
TEXT
100
AcDbPolyline
 90
        2
 70
     0
 43
0.0
 10
1.447124628727634
 20
1.910395521454096
 10
1.447124628727634
 20
1.866904576503658
  0
LINE
  5
129B
330
18
100
AcDbEntity
  8
TEXT
100
AcDbLine
 10
1.507081857722096
 20
2.133377609492169
 30
0.0
 11
1.443184951422595
 21
2.133377609492169
 31
0.0
  0
LINE
  5
129C
330
18
100
AcDbEntity
  8
TEXT
100
AcDbLine
 10
1.443184951422595
 20
2.133377609492169
 30
0.0
 11
1.443184951422595
 21
2.028165630938741
 31
0.0
  0
LINE
  5
129D
330
18
100
AcDbEntity
  8
TEXT
100
AcDbLine
 10
1.443184951422595
 20
2.028165630938741
 30
0.0
 11
1.399434180240693
 21
2.110415906934886
 31
0.0
  0
ARC
  5
129E
330
18
100
AcDbEntity
  8
TEXT
100
AcDbCircle
 10
1.530385717845627
 20
2.04419503955274
 30
0.0
 40
0.0249058752826653
100
AcDbArc
 50
89.99971217465335
 51
179.9999999999985
  0
ARC
  5
129F
330
18
100
AcDbEntity
  8
TEXT
100
AcDbCircle
 10
1.538274674785204
 20
2.102131882209904
 30
0.0
 40
0.0314112657011332
100
AcDbArc
 50
95.88484768694724
 51
173.2388340632136
  0
LINE
  5
12A0
330
18
100
AcDbEntity
  8
TEXT
100
AcDbLine
 10
1.507081857722096
 20
2.105829959631294
 30
0.0
 11
1.507081857722096
 21
2.133377609492169
 31
0.0
  0
TEXT
  5
12A1
330
18
100
AcDbEntity
  8
TEXT
100
AcDbText
 10
1.975957377143886
 20
1.959790385149154
 30
0.0
 40
0.0522247191011236
  1
Minneapolis, MN 55432-0008
 41
1.11444212721585
 72
     5
 11
3.30488996141355
 21
1.959790385149154
 31
0.0
100
AcDbText
  0
TEXT
  5
12A2
330
18
100
AcDbEntity
  8
TEXT
100
AcDbText
 10
1.975957377143886
 20
2.053048812115446
 30
0.0
 40
0.0522247191011236
  1
6536 Main St. N.E. * P.O. Box 32008
 41
0.8388932496075355
 72
     5
 11
3.30488996141355
 21
2.053048812115446
 31
0.0
100
AcDbText
  0
TEXT
  5
12A3
330
18
100
AcDbEntity
  8
TEXT
100
AcDbText
 10
1.975957377143886
 20
2.146307239081738
 30
0.0
 40
0.0522247191011236
  1
Stylmark  Incorporated
 41
1.221428571428571
 72
     5
 11
3.30488996141355
 21
2.146307239081738
 31
0.0
100
AcDbText
  0
TEXT
  5
12A4
330
18
100
AcDbEntity
  8
TEXT
100
AcDbText
 10
1.975957377143886
 20
1.866531958182862
 30
0.0
 40
0.0522247191011236
  1
Phone  1-800-328-2495
 41
1.272321428571429
 72
     5
 11
3.30488996141355
 21
1.866531958182862
 31
0.0
100
AcDbText
  0
LINE
  5
12A5
330
18
100
AcDbEntity
  8
TEXT
100
AcDbLine
 10
1.728401565680871
 20
2.023484366551195
 30
0.0
 11
1.792958681646577
 21
2.133377609492169
 31
0.0
  0
LINE
  5
12A6
330
18
100
AcDbEntity
  8
TEXT
100
AcDbLine
 10
1.792958681646577
 20
2.133377609492169
 30
0.0
 11
1.71796684891695
 21
2.133377609492169
 31
0.0
  0
LINE
  5
12A7
330
18
100
AcDbEntity
  8
TEXT
100
AcDbLine
 10
1.747315416668276
 20
1.866904576503658
 30
0.0
 11
1.823893789044482
 21
1.866904576503658
 31
0.0
  0
LINE
  5
12A8
330
18
100
AcDbEntity
  8
TEXT
100
AcDbLine
 10
1.823893789044482
 20
1.866904576503658
 30
0.0
 11
1.728401565680871
 21
2.023484366551195
 31
0.0
  0
LINE
  5
12A9
330
18
100
AcDbEntity
  8
TEXT
100
AcDbLine
 10
1.671411883456811
 20
1.866904576503658
 30
0.0
 11
1.671411883456811
 21
1.998484144979838
 31
0.0
  0
LINE
  5
12AA
330
18
100
AcDbEntity
  8
TEXT
100
AcDbLine
 10
1.671411883456811
 20
1.998484144979838
 30
0.0
 11
1.747315416668276
 21
1.866904576503658
 31
0.0
  0
LINE
  5
12AB
330
18
100
AcDbEntity
  8
TEXT
100
AcDbLine
 10
1.607033699138185
 20
2.069100914835403
 30
0.0
 11
1.607033699138191
 21
1.866904576503658
 31
0.0
  0
LINE
  5
12AC
330
18
100
AcDbEntity
  8
TEXT
100
AcDbLine
 10
1.607033699138191
 20
1.866904576503658
 30
0.0
 11
1.671411883456811
 21
1.866904576503658
 31
0.0
  0
LINE
  5
12AD
330
18
100
AcDbEntity
  8
TEXT
100
AcDbLine
 10
1.670868690360964
 20
2.198841815259769
 30
0.0
 11
1.602553811811691
 21
2.198841815259769
 31
0.0
  0
LINE
  5
12AE
330
18
100
AcDbEntity
  8
TEXT
100
AcDbLine
 10
1.602553811811691
 20
2.198841815259769
 30
0.0
 11
1.602553811811685
 21
2.133377609492169
 31
0.0
  0
LINE
  5
12AF
330
18
100
AcDbEntity
  8
TEXT
100
AcDbLine
 10
1.717966848916948
 20
2.133377609492169
 30
0.0
 11
1.670868690360964
 21
2.05751228308063
 31
0.0
  0
LINE
  5
12B0
330
18
100
AcDbEntity
  8
TEXT
100
AcDbLine
 10
1.670868690360964
 20
2.05751228308063
 30
0.0
 11
1.670868690360964
 21
2.198841815259769
 31
0.0
  0
VIEWPORT
  5
689
330
15
100
AcDbEntity
 67
     1
  8
0
100
AcDbViewport
 10
6.497041420118343
 20
4.5
 30
0.0
 40
12.99408284023668
 41
9.0
 68
     1
 69
     1
1001
ACAD
1000
MVIEW
1002
{
1070
    16
1010
0.0
1020
0.0
1030
0.0
1010
0.0
1020
0.0
1030
1.0
1040
0.0
1040
9.0
1040
6.497041420118343
1040
4.5
1040
50.0
1040
0.0
1040
0.0
1070
     0
1070
 20000
1070
     1
1070
     1
1070
     0
1070
     0
1070
     0
1070
     0
1040
0.0
1040
0.0
1040
0.0
1040
0.5
1040
0.5
1040
0.5
1040
0.5
1070
     0
1002
{
1002
}
1002
}
  0
ENDSEC
  0
SECTION
  2
OBJECTS
  0
DICTIONARY
  5
C
330
0
100
AcDbDictionary
  3
ACAD_GROUP
350
D
  3
ACAD_LAYOUT
350
12B5
  3
ACAD_MLINESTYLE
350
1B
  3
ACAD_PLOTSETTINGS
350
12B6
  3
ACAD_PLOTSTYLENAME
350
12B3
  3
ACDBHEADERROUNDTRIPXREC
350
12BF
  3
ACDBVARIABLEDICTIONARY
350
5A3
  0
DICTIONARY
  5
12E1
330
18
100
AcDbDictionary
280
     1
  3
ACAD_LAYOUTSELFREF
360
12E2
  0
DICTIONARY
  5
12DF
330
15
100
AcDbDictionary
280
     1
  3
ACAD_LAYOUTSELFREF
360
12E0
  0
DICTIONARY
  5
D
102
{ACAD_REACTORS
330
C
102
}
330
C
100
AcDbDictionary
  3
*A1
350
5D
  3
*A2
350
218
  3
*A3
350
9BF
  3
*A4
350
B78
  0
DICTIONARY
  5
12B5
102
{ACAD_REACTORS
330
C
102
}
330
C
100
AcDbDictionary
  0
DICTIONARY
  5
1B
102
{ACAD_REACTORS
330
C
102
}
330
C
100
AcDbDictionary
  3
STANDARD
350
1C
  0
DICTIONARY
  5
12B6
102
{ACAD_REACTORS
330
C
102
}
330
C
100
AcDbDictionary
  0
ACDBDICTIONARYWDFLT
  5
12B3
102
{ACAD_REACTORS
330
C
102
}
330
C
100
AcDbDictionary
281
     1
  3
Normal
350
12B4
100
AcDbDictionaryWithDefault
340
12B4
  0
DICTIONARY
  5
12BF
102
{ACAD_REACTORS
330
C
102
}
330
C
100
AcDbDictionary
  3
CEPSNTYPE
350
12C9
  3
FINGERPRINTGUID
350
12CA
  3
HYPERLINKBASE
350
12C2
  3
INSUNITS
350
12C8
  3
LAYOUTDICT
350
12C4
  3
LWETCUNION
350
12C7
  3
PLOTSETDICT
350
12C5
  3
PLOTSTYLNAMDICT
350
12C6
  3
PSVPSCALE
350
12CC
  3
PUCSBASE
350
12CF
  3
PUCSORGBACK
350
12D5
  3
PUCSORGBOTTOM
350
12D1
  3
PUCSORGFRONT
350
12D4
  3
PUCSORGLEFT
350
12D2
  3
PUCSORGRIGHT
350
12D3
  3
PUCSORGTOP
350
12D0
  3
PUCSORTHOREF
350
12CD
  3
PUCSORTHOVIEW
350
12CE
  3
STYLESHEET
350
12C3
  3
TSTACKALIGN
350
12C0
  3
TSTACKSIZE
350
12C1
  3
UCSBASE
350
12D8
  3
UCSORGBACK
350
12DE
  3
UCSORGBOTTOM
350
12DA
  3
UCSORGFRONT
350
12DD
  3
UCSORGLEFT
350
12DB
  3
UCSORGRIGHT
350
12DC
  3
UCSORGTOP
350
12D9
  3
UCSORTHOREF
350
12D6
  3
UCSORTHOVIEW
350
12D7
  3
VERSIONGUID
350
12CB
  0
DICTIONARY
  5
5A3
102
{ACAD_REACTORS
330
C
102
}
330
C
100
AcDbDictionary
  3
DIMASSOC
350
12BD
  3
SORTENTS
350
5A4
  0
XRECORD
  5
12E2
102
{ACAD_REACTORS
330
12E1
102
}
330
12E1
100
AcDbXrecord
340
18
  0
XRECORD
  5
12E0
102
{ACAD_REACTORS
330
12DF
102
}
330
12DF
100
AcDbXrecord
340
15
  0
GROUP
  5
5D
102
{ACAD_REACTORS
330
D
102
}
330
D
100
AcDbGroup
300
BORDER FRAME 10-1-95
 70
     3
 71
     1
  0
GROUP
  5
218
102
{ACAD_REACTORS
330
D
102
}
330
D
100
AcDbGroup
300

 70
     1
 71
     1
  0
GROUP
  5
9BF
102
{ACAD_REACTORS
330
D
102
}
330
D
100
AcDbGroup
300
BORDER FRAME 10-1-95
 70
     3
 71
     1
  0
GROUP
  5
B78
102
{ACAD_REACTORS
330
D
102
}
330
D
100
AcDbGroup
300

 70
     1
 71
     1
  0
MLINESTYLE
  5
1C
102
{ACAD_REACTORS
330
1B
102
}
330
1B
100
AcDbMlineStyle
  2
STANDARD
 70
     0
  3

 62
   256
 51
90.0
 52
90.0
 71
     2
 49
0.5
 62
   256
  6
BYLAYER
 49
-0.5
 62
   256
  6
BYLAYER
  0
ACDBPLACEHOLDER
  5
12B4
102
{ACAD_REACTORS
330
12B3
102
}
330
12B3
100
AcDbPlaceHolder
280
     0
  0
XRECORD
  5
12C9
102
{ACAD_REACTORS
330
12BF
102
}
330
12BF
100
AcDbXrecord
 90
        0
  0
XRECORD
  5
12CA
102
{ACAD_REACTORS
330
12BF
102
}
330
12BF
100
AcDbXrecord
  1
{D63A4EC0-8DB8-11D6-88E6-0090279574E7}
  0
XRECORD
  5
12C2
102
{ACAD_REACTORS
330
12BF
102
}
330
12BF
100
AcDbXrecord
  1

  0
XRECORD
  5
12C8
102
{ACAD_REACTORS
330
12BF
102
}
330
12BF
100
AcDbXrecord
 90
        0
  0
XRECORD
  5
12C4
102
{ACAD_REACTORS
330
12BF
102
}
330
12BF
100
AcDbXrecord
340
12B5
  0
XRECORD
  5
12C7
102
{ACAD_REACTORS
330
12BF
102
}
330
12BF
100
AcDbXrecord
 90
    14877
  0
XRECORD
  5
12C5
102
{ACAD_REACTORS
330
12BF
102
}
330
12BF
100
AcDbXrecord
340
12B6
  0
XRECORD
  5
12C6
102
{ACAD_REACTORS
330
12BF
102
}
330
12BF
100
AcDbXrecord
340
12B3
  0
XRECORD
  5
12CC
102
{ACAD_REACTORS
330
12BF
102
}
330
12BF
100
AcDbXrecord
 40
0.0
  0
XRECORD
  5
12CF
102
{ACAD_REACTORS
330
12BF
102
}
330
12BF
100
AcDbXrecord
340
0
  0
XRECORD
  5
12D5
102
{ACAD_REACTORS
330
12BF
102
}
330
12BF
100
AcDbXrecord
 10
0.0
 20
0.0
 30
0.0
  0
XRECORD
  5
12D1
102
{ACAD_REACTORS
330
12BF
102
}
330
12BF
100
AcDbXrecord
 10
0.0
 20
0.0
 30
0.0
  0
XRECORD
  5
12D4
102
{ACAD_REACTORS
330
12BF
102
}
330
12BF
100
AcDbXrecord
 10
0.0
 20
0.0
 30
0.0
  0
XRECORD
  5
12D2
102
{ACAD_REACTORS
330
12BF
102
}
330
12BF
100
AcDbXrecord
 10
0.0
 20
0.0
 30
0.0
  0
XRECORD
  5
12D3
102
{ACAD_REACTORS
330
12BF
102
}
330
12BF
100
AcDbXrecord
 10
0.0
 20
0.0
 30
0.0
  0
XRECORD
  5
12D0
102
{ACAD_REACTORS
330
12BF
102
}
330
12BF
100
AcDbXrecord
 10
0.0
 20
0.0
 30
0.0
  0
XRECORD
  5
12CD
102
{ACAD_REACTORS
330
12BF
102
}
330
12BF
100
AcDbXrecord
340
0
  0
XRECORD
  5
12CE
102
{ACAD_REACTORS
330
12BF
102
}
330
12BF
100
AcDbXrecord
 70
     0
  0
XRECORD
  5
12C3
102
{ACAD_REACTORS
330
12BF
102
}
330
12BF
100
AcDbXrecord
  1

  0
XRECORD
  5
12C0
102
{ACAD_REACTORS
330
12BF
102
}
330
12BF
100
AcDbXrecord
 90
        1
  0
XRECORD
  5
12C1
102
{ACAD_REACTORS
330
12BF
102
}
330
12BF
100
AcDbXrecord
 90
       70
  0
XRECORD
  5
12D8
102
{ACAD_REACTORS
330
12BF
102
}
330
12BF
100
AcDbXrecord
340
0
  0
XRECORD
  5
12DE
102
{ACAD_REACTORS
330
12BF
102
}
330
12BF
100
AcDbXrecord
 10
0.0
 20
0.0
 30
0.0
  0
XRECORD
  5
12DA
102
{ACAD_REACTORS
330
12BF
102
}
330
12BF
100
AcDbXrecord
 10
0.0
 20
0.0
 30
0.0
  0
XRECORD
  5
12DD
102
{ACAD_REACTORS
330
12BF
102
}
330
12BF
100
AcDbXrecord
 10
0.0
 20
0.0
 30
0.0
  0
XRECORD
  5
12DB
102
{ACAD_REACTORS
330
12BF
102
}
330
12BF
100
AcDbXrecord
 10
0.0
 20
0.0
 30
0.0
  0
XRECORD
  5
12DC
102
{ACAD_REACTORS
330
12BF
102
}
330
12BF
100
AcDbXrecord
 10
0.0
 20
0.0
 30
0.0
  0
XRECORD
  5
12D9
102
{ACAD_REACTORS
330
12BF
102
}
330
12BF
100
AcDbXrecord
 10
0.0
 20
0.0
 30
0.0
  0
XRECORD
  5
12D6
102
{ACAD_REACTORS
330
12BF
102
}
330
12BF
100
AcDbXrecord
340
0
  0
XRECORD
  5
12D7
102
{ACAD_REACTORS
330
12BF
102
}
330
12BF
100
AcDbXrecord
 70
     0
  0
XRECORD
  5
12CB
102
{ACAD_REACTORS
330
12BF
102
}
330
12BF
100
AcDbXrecord
  1
{D63A4EC2-8DB8-11D6-88E6-0090279574E7}
  0
DICTIONARYVAR
  5
12BD
102
{ACAD_REACTORS
330
5A3
102
}
330
5A3
100
DictionaryVariables
280
     0
  1
1
  0
DICTIONARYVAR
  5
5A4
102
{ACAD_REACTORS
330
5A3
102
}
330
5A3
100
DictionaryVariables
280
     0
  1
96
  0
ENDSEC
  0
EOF
