  0
SECTION
  2
HEADER
  9
$ACADVER
  1
AC1014
  9
$ACADMAINTVER
 70
     9
  9
$DWGCODEPAGE
  3
ANSI_1252
  9
$INSBASE
 10
-11.88080769791345
 20
-0.6774712292772165
 30
0.0
  9
$EXTMIN
 10
-13.37638621426075
 20
0.3268180288013743
 30
0.0
  9
$EXTMAX
 10
-9.8911668925136
 20
2.55420715139818
 30
0.0
  9
$LIMMIN
 10
0.0
 20
0.0
  9
$LIMMAX
 10
12.0
 20
9.0
  9
$ORTHOMODE
 70
     1
  9
$REGENMODE
 70
     1
  9
$FILLMODE
 70
     1
  9
$QTEXTMODE
 70
     0
  9
$MIRRTEXT
 70
     0
  9
$DRAGMODE
 70
     2
  9
$LTSCALE
 40
1.0
  9
$OSMODE
 70
    39
  9
$ATTMODE
 70
     1
  9
$TEXTSIZE
 40
0.125
  9
$TRACEWID
 40
0.05
  9
$TEXTSTYLE
  7
ROMANS
  9
$CLAYER
  8
DIM
  9
$CELTYPE
  6
BYLAYER
  9
$CECOLOR
 62
   256
  9
$CELTSCALE
 40
1.0
  9
$DELOBJ
 70
     1
  9
$DISPSILH
 70
     1
  9
$DIMSCALE
 40
1.0
  9
$DIMASZ
 40
0.125
  9
$DIMEXO
 40
0.125
  9
$DIMDLI
 40
0.38
  9
$DIMRND
 40
0.0
  9
$DIMDLE
 40
0.0
  9
$DIMEXE
 40
0.125
  9
$DIMTP
 40
0.0
  9
$DIMTM
 40
0.0
  9
$DIMTXT
 40
0.125
  9
$DIMCEN
 40
-0.125
  9
$DIMTSZ
 40
0.0
  9
$DIMTOL
 70
     0
  9
$DIMLIM
 70
     0
  9
$DIMTIH
 70
     1
  9
$DIMTOH
 70
     1
  9
$DIMSE1
 70
     0
  9
$DIMSE2
 70
     0
  9
$DIMTAD
 70
     0
  9
$DIMZIN
 70
     4
  9
$DIMBLK
  1

  9
$DIMASO
 70
     1
  9
$DIMSHO
 70
     1
  9
$DIMPOST
  1

  9
$DIMAPOST
  1

  9
$DIMALT
 70
     0
  9
$DIMALTD
 70
     2
  9
$DIMALTF
 40
25.4
  9
$DIMLFAC
 40
0.5
  9
$DIMTOFL
 70
     0
  9
$DIMTVP
 40
0.0
  9
$DIMTIX
 70
     0
  9
$DIMSOXD
 70
     0
  9
$DIMSAH
 70
     0
  9
$DIMBLK1
  1

  9
$DIMBLK2
  1

  9
$DIMSTYLE
  2
STANDARD
  9
$DIMCLRD
 70
     0
  9
$DIMCLRE
 70
     0
  9
$DIMCLRT
 70
     0
  9
$DIMTFAC
 40
1.0
  9
$DIMGAP
 40
0.09
  9
$DIMJUST
 70
     0
  9
$DIMSD1
 70
     0
  9
$DIMSD2
 70
     0
  9
$DIMTOLJ
 70
     1
  9
$DIMTZIN
 70
     4
  9
$DIMALTZ
 70
     0
  9
$DIMALTTZ
 70
     0
  9
$DIMFIT
 70
     3
  9
$DIMUPT
 70
     1
  9
$DIMUNIT
 70
     2
  9
$DIMDEC
 70
     3
  9
$DIMTDEC
 70
     3
  9
$DIMALTU
 70
     2
  9
$DIMALTTD
 70
     2
  9
$DIMTXSTY
  7
ROMANS
  9
$DIMAUNIT
 70
     0
  9
$LUNITS
 70
     2
  9
$LUPREC
 70
     3
  9
$SKETCHINC
 40
0.1
  9
$FILLETRAD
 40
0.125
  9
$AUNITS
 70
     0
  9
$AUPREC
 70
     0
  9
$MENU
  1
.
  9
$ELEVATION
 40
0.0
  9
$PELEVATION
 40
0.0
  9
$THICKNESS
 40
0.0
  9
$LIMCHECK
 70
     0
  9
$BLIPMODE
 70
     0
  9
$CHAMFERA
 40
0.06
  9
$CHAMFERB
 40
0.06
  9
$CHAMFERC
 40
1.0
  9
$CHAMFERD
 40
0.0
  9
$SKPOLY
 70
     1
  9
$TDCREATE
 40
2450955.731341713
  9
$TDUPDATE
 40
2452458.319444490
  9
$TDINDWG
 40
1.7204318403
  9
$TDUSRTIMER
 40
1.7204318403
  9
$USRTIMER
 70
     1
  9
$ANGBASE
 50
0.0
  9
$ANGDIR
 70
     0
  9
$PDMODE
 70
     0
  9
$PDSIZE
 40
0.0
  9
$PLINEWID
 40
0.0
  9
$COORDS
 70
     2
  9
$SPLFRAME
 70
     0
  9
$SPLINETYPE
 70
     6
  9
$SPLINESEGS
 70
     8
  9
$ATTDIA
 70
     0
  9
$ATTREQ
 70
     1
  9
$HANDLING
 70
 22529
  9
$HANDSEED
  5
3F0
  9
$SURFTAB1
 70
     6
  9
$SURFTAB2
 70
     6
  9
$SURFTYPE
 70
     6
  9
$SURFU
 70
     6
  9
$SURFV
 70
     6
  9
$UCSNAME
  2

  9
$UCSORG
 10
0.0
 20
0.0
 30
0.0
  9
$UCSXDIR
 10
1.0
 20
0.0
 30
0.0
  9
$UCSYDIR
 10
0.0
 20
1.0
 30
0.0
  9
$PUCSNAME
  2

  9
$PUCSORG
 10
0.0
 20
0.0
 30
0.0
  9
$PUCSXDIR
 10
1.0
 20
0.0
 30
0.0
  9
$PUCSYDIR
 10
0.0
 20
1.0
 30
0.0
  9
$USERI1
 70
     0
  9
$USERI2
 70
     0
  9
$USERI3
 70
     0
  9
$USERI4
 70
     0
  9
$USERI5
 70
     0
  9
$USERR1
 40
0.0
  9
$USERR2
 40
0.0
  9
$USERR3
 40
0.0
  9
$USERR4
 40
0.0
  9
$USERR5
 40
0.0
  9
$WORLDVIEW
 70
     1
  9
$SHADEDGE
 70
     3
  9
$SHADEDIF
 70
    70
  9
$TILEMODE
 70
     1
  9
$MAXACTVP
 70
    48
  9
$PINSBASE
 10
0.0
 20
0.0
 30
0.0
  9
$PLIMCHECK
 70
     0
  9
$PEXTMIN
 10
1.000000000000000E+20
 20
1.000000000000000E+20
 30
1.000000000000000E+20
  9
$PEXTMAX
 10
-1.000000000000000E+20
 20
-1.000000000000000E+20
 30
-1.000000000000000E+20
  9
$PLIMMIN
 10
0.0
 20
0.0
  9
$PLIMMAX
 10
12.0
 20
9.0
  9
$UNITMODE
 70
     0
  9
$VISRETAIN
 70
     1
  9
$PLINEGEN
 70
     1
  9
$PSLTSCALE
 70
     1
  9
$TREEDEPTH
 70
  3020
  9
$PICKSTYLE
 70
     1
  9
$CMLSTYLE
  2
STANDARD
  9
$CMLJUST
 70
     0
  9
$CMLSCALE
 40
1.0
  9
$PROXYGRAPHICS
 70
     1
  9
$MEASUREMENT
 70
     0
  0
ENDSEC
  0
SECTION
  2
CLASSES
  0
CLASS
  1
LWPOLYLINE
  2
AcDbPolyline
  3
AutoCAD 2000
 90
        0
280
     0
281
     1
  0
CLASS
  1
ADPART
  2
AcAdPart
  3
"DesignerServices"
 90
        0
280
     1
281
     1
  0
CLASS
  1
ACDBDICTIONARYWDFLT
  2
AcDbDictionaryWithDefault
  3
AutoCAD 2000
 90
        0
280
     0
281
     0
  0
CLASS
  1
ACDBPLACEHOLDER
  2
AcDbPlaceHolder
  3
AutoCAD 2000
 90
        0
280
     0
281
     0
  0
CLASS
  1
LAYOUT
  2
AcDbLayout
  3
AutoCAD 2000
 90
        0
280
     0
281
     0
  0
CLASS
  1
DICTIONARYVAR
  2
AcDbDictionaryVar
  3
AutoCAD 2000
 90
        0
280
     0
281
     0
  0
CLASS
  1
LONG_TRANSACTION
  2
AcDbLongTransaction
  3
AutoCAD 2000
 90
        0
280
     0
281
     0
  0
CLASS
  1
LWPOLYLINE
  2
AcDbPolyline
  3
AutoCAD 2000
 90
        0
280
     0
281
     1
  0
CLASS
  1
HATCH
  2
AcDbHatch
  3
AutoCAD 2000
 90
        0
280
     0
281
     1
  0
CLASS
  1
XRECORD
  2
AcDbXrecord
  3
AutoCAD 2000
 90
        0
280
     0
281
     0
  0
ENDSEC
  0
SECTION
  2
TABLES
  0
TABLE
  2
VPORT
  5
12
330
0
100
AcDbSymbolTable
 70
     2
  0
VPORT
  5
3CB
330
12
100
AcDbSymbolTableRecord
100
AcDbViewportTableRecord
  2
*ACTIVE
 70
     0
 10
0.0
 20
0.0
 11
1.0
 21
1.0
 12
-8.597787617949073
 22
1.440239362789315
 13
0.0
 23
0.0
 14
0.5
 24
0.5
 15
0.5
 25
0.5
 16
0.0
 26
0.0
 36
1.0
 17
0.0
 27
0.0
 37
0.0
 40
2.247893849727474
 41
4.320930232558139
 42
50.0
 43
0.0
 44
0.0
 50
0.0
 51
0.0
 71
     0
 72
  2000
 73
     1
 74
     1
 75
     0
 76
     0
 77
     0
 78
     0
  0
ENDTAB
  0
TABLE
  2
LTYPE
  5
D
330
0
100
AcDbSymbolTable
 70
     1
  0
LTYPE
  5
E
330
D
100
AcDbSymbolTableRecord
100
AcDbLinetypeTableRecord
  2
BYBLOCK
 70
     0
  3

 72
    65
 73
     0
 40
0.0
  0
LTYPE
  5
F
330
D
100
AcDbSymbolTableRecord
100
AcDbLinetypeTableRecord
  2
BYLAYER
 70
     0
  3

 72
    65
 73
     0
 40
0.0
  0
LTYPE
  5
5
330
D
100
AcDbSymbolTableRecord
100
AcDbLinetypeTableRecord
  2
CONTINUOUS
 70
     0
  3
Solid line
 72
    65
 73
     0
 40
0.0
  0
ENDTAB
  0
TABLE
  2
LAYER
  5
A
330
0
100
AcDbSymbolTable
 70
     3
  0
LAYER
  5
4
330
A
100
AcDbSymbolTableRecord
100
AcDbLayerTableRecord
  2
0
 70
     0
 62
     7
  6
CONTINUOUS
  0
LAYER
  5
20
330
A
100
AcDbSymbolTableRecord
100
AcDbLayerTableRecord
  2
TEXT
 70
     0
 62
     3
  6
CONTINUOUS
  0
LAYER
  5
1B
330
A
100
AcDbSymbolTableRecord
100
AcDbLayerTableRecord
  2
DIM
 70
     0
 62
     4
  6
CONTINUOUS
  0
ENDTAB
  0
TABLE
  2
STYLE
  5
B
330
0
100
AcDbSymbolTable
 70
     3
  0
STYLE
  5
C
330
B
100
AcDbSymbolTableRecord
100
AcDbTextStyleTableRecord
  2
STANDARD
 70
     0
 40
0.0
 41
1.0
 50
0.0
 71
     0
 42
0.2
  3
txt
  4

  0
STYLE
  5
1C
330
B
100
AcDbSymbolTableRecord
100
AcDbTextStyleTableRecord
  2
ROMANS
 70
     0
 40
0.0
 41
1.0
 50
0.0
 71
     0
 42
0.125
  3
romans.shx
  4

  0
STYLE
  5
2B9
330
B
100
AcDbSymbolTableRecord
100
AcDbTextStyleTableRecord
  2
ITALICC
 70
     0
 40
0.0
 41
1.0
 50
0.0
 71
     0
 42
0.125
  3
italicc
  4

  0
ENDTAB
  0
TABLE
  2
VIEW
  5
10
330
0
100
AcDbSymbolTable
 70
     0
  0
ENDTAB
  0
TABLE
  2
UCS
  5
11
330
0
100
AcDbSymbolTable
 70
     0
  0
ENDTAB
  0
TABLE
  2
APPID
  5
14
330
0
100
AcDbSymbolTable
 70
     1
  0
APPID
  5
15
330
14
100
AcDbSymbolTableRecord
100
AcDbRegAppTableRecord
  2
ACAD
 70
     0
  0
ENDTAB
  0
TABLE
  2
DIMSTYLE
  5
16
330
0
100
AcDbSymbolTable
 70
     1
  0
DIMSTYLE
105
1E
330
16
100
AcDbSymbolTableRecord
100
AcDbDimStyleTableRecord
  2
STANDARD
 70
     0
  3

  4

  5

  6

  7

 40
1.0
 41
0.125
 42
0.125
 43
0.38
 44
0.125
 45
0.0
 46
0.0
 47
0.0
 48
0.0
140
0.125
141
-0.125
142
0.0
143
25.4
144
0.5
145
0.0
146
1.0
147
0.09
 71
     0
 72
     0
 73
     1
 74
     1
 75
     0
 76
     0
 77
     0
 78
     4
170
     0
171
     2
172
     0
173
     0
174
     0
175
     0
176
     0
177
     0
178
     0
270
     2
271
     3
272
     3
273
     2
274
     2
340
1C
275
     0
280
     0
281
     0
282
     0
283
     1
284
     4
285
     0
286
     0
287
     3
288
     1
  0
ENDTAB
  0
TABLE
  2
BLOCK_RECORD
  5
1
330
0
100
AcDbSymbolTable
 70
     0
  0
BLOCK_RECORD
  5
2
102
{ACAD_XDICTIONARY
360
3EC
102
}
330
1
100
AcDbSymbolTableRecord
100
AcDbBlockTableRecord
  2
*MODEL_SPACE
  0
BLOCK_RECORD
  5
7
102
{ACAD_XDICTIONARY
360
3EE
102
}
330
1
100
AcDbSymbolTableRecord
100
AcDbBlockTableRecord
  2
*PAPER_SPACE
  0
ENDTAB
  0
ENDSEC
  0
SECTION
  2
BLOCKS
  0
BLOCK
  5
3
330
2
100
AcDbEntity
  8
0
100
AcDbBlockBegin
  2
*MODEL_SPACE
 70
     0
 10
0.0
 20
0.0
 30
0.0
  3
*MODEL_SPACE
  1

  0
ENDBLK
  5
6
330
2
100
AcDbEntity
  8
0
100
AcDbBlockEnd
  0
BLOCK
  5
8
330
7
100
AcDbEntity
 67
     1
  8
0
100
AcDbBlockBegin
  2
*PAPER_SPACE
 70
     0
 10
0.0
 20
0.0
 30
0.0
  3
*PAPER_SPACE
  1

  0
ENDBLK
  5
9
330
7
100
AcDbEntity
 67
     1
  8
0
100
AcDbBlockEnd
  0
ENDSEC
  0
SECTION
  2
ENTITIES
  0
LWPOLYLINE
  5
229
330
2
100
AcDbEntity
  8
0
100
AcDbPolyline
 90
       43
 70
   129
 43
0.0
 10
-11.45591858303259
 20
1.297431113716757
 10
-11.45615457398391
 20
1.2968163362701
 42
-0.2216946626429447
 10
-11.53215610798892
 20
1.223422508013345
 10
-11.61150483657892
 20
1.196100549680382
 10
-11.61150483657892
 20
1.24610054968038
 10
-11.66750483657892
 20
1.246100549680381
 42
-0.9999999999999642
 10
-11.66750483657892
 20
1.296100549680383
 10
-11.53060501715237
 20
1.296100549680381
 42
0.9999999999999998
 10
-11.53060501715237
 20
1.356100549680379
 10
-11.63750483657892
 20
1.35610054968038
 42
-0.4142135623730863
 10
-11.69750483657892
 20
1.416100549680381
 10
-11.69750483657892
 20
2.486100549680383
 42
-0.4142135623731125
 10
-11.68250483657892
 20
2.501100549680383
 10
-11.64450483657892
 20
2.501100549680383
 42
0.4142135623730776
 10
-11.62950483657892
 20
2.516100549680382
 10
-11.62950483657892
 20
2.536100549680383
 42
-0.4142135623731298
 10
-11.61450483657892
 20
2.551100549680383
 10
-11.53250483657892
 20
2.551100549680381
 42
-0.4142135623730847
 10
-11.51750483657892
 20
2.536100549680381
 10
-11.51750483657892
 20
2.361100549680382
 42
-0.4142135623730951
 10
-11.52750483657892
 20
2.351100549680382
 10
-11.55750483657892
 20
2.351100549680382
 42
-0.4142135623730561
 10
-11.56750483657892
 20
2.361100549680382
 10
-11.56750483657892
 20
2.441100549680382
 42
0.4142135623730951
 10
-11.57750483657892
 20
2.451100549680382
 10
-11.63750483657892
 20
2.451100549680382
 42
0.4142135623730951
 10
-11.64750483657892
 20
2.441100549680382
 10
-11.64750483657892
 20
2.211100549680381
 10
-11.65750483657892
 20
2.201100549680382
 10
-11.64750483657892
 20
2.191100549680382
 10
-11.64750483657892
 20
1.666100549680378
 10
-11.65750483657892
 20
1.656100549680379
 10
-11.64750483657892
 20
1.646100549680378
 10
-11.64750483657892
 20
1.416100549680381
 42
0.4142135623730951
 10
-11.63750483657892
 20
1.406100549680381
 10
-11.57750483657892
 20
1.40610054968038
 42
0.4142135623730951
 10
-11.56750483657892
 20
1.41610054968038
 10
-11.56750483657891
 20
1.496100549680378
 42
-0.4142135623731209
 10
-11.55750483657892
 20
1.506100549680377
 10
-11.52750483657892
 20
1.506100549680379
 42
-0.4142135623730951
 10
-11.51750483657892
 20
1.496100549680379
 10
-11.51750483657892
 20
1.416849543348185
 42
0.3287591073566412
 10
-11.50694170719578
 20
1.402520754874306
 42
-0.4337492065907734
  0
TEXT
  5
33E
330
2
100
AcDbEntity
  8
TEXT
100
AcDbText
 10
-12.3863808255098
 20
0.7848366328839549
 30
0.0
 40
0.125
  1
PART #110618
  7
ITALICC
 72
     1
 11
-11.63340463503361
 21
0.7848366328839549
 31
0.0
100
AcDbText
  0
LINE
  5
33F
330
2
100
AcDbEntity
  8
TEXT
100
AcDbLine
 10
-11.66567113608154
 20
0.5404829468641213
 30
0.0
 11
-11.58902315478899
 21
0.5404829468641213
 31
0.0
  0
LINE
  5
340
330
2
100
AcDbEntity
  8
TEXT
100
AcDbLine
 10
-11.59350304211548
 20
0.6047596415208867
 30
0.0
 11
-11.661002759765
 21
0.6047596415208867
 31
0.0
  0
LWPOLYLINE
  5
341
330
2
100
AcDbEntity
  8
TEXT
100
AcDbPolyline
 90
        5
 70
     0
 43
0.0001332181640625
 10
-13.30278317861622
 20
0.4815328397630739
 10
-13.28946136220997
 20
0.4815328397630739
 10
-13.28946136220997
 20
0.5181678348802637
 10
-13.25282636709278
 20
0.5181678348802637
 10
-13.25282636709278
 20
0.5314896512865106
  0
LWPOLYLINE
  5
342
330
2
100
AcDbEntity
  8
TEXT
100
AcDbPolyline
 90
        3
 70
     0
 43
0.0006660908203125
 10
-13.26281772939747
 20
0.5781160087083892
 10
-13.34940953603809
 20
0.5781160087083892
 10
-13.34940953603809
 20
0.4915242020677626
  0
LWPOLYLINE
  5
343
330
2
100
AcDbEntity
  8
TEXT
100
AcDbPolyline
 90
        3
 70
     0
 43
0.0006660908203125
 10
-13.26281772939747
 20
0.6047596415208903
 10
-13.37605316885059
 20
0.6047596415208903
 10
-13.37605316885059
 20
0.4915242020677626
  0
LWPOLYLINE
  5
344
330
2
100
AcDbEntity
  8
TEXT
100
AcDbPolyline
 90
        5
 70
     0
 43
0.0001332181640625
 10
-13.25282636709278
 20
0.4115933036302631
 10
-13.25282636709278
 20
0.4249151200365136
 10
-13.28946136220997
 20
0.4249151200365136
 10
-13.28946136220997
 20
0.4615501151536999
 10
-13.30278317861622
 20
0.4615501151536999
  0
LWPOLYLINE
  5
345
330
2
100
AcDbEntity
  8
TEXT
100
AcDbPolyline
 90
        3
 70
     0
 43
0.0006660908203125
 10
-13.34940953603809
 20
0.4515587528490146
 10
-13.34940953603809
 20
0.364966946208388
 10
-13.26281772939747
 20
0.364966946208388
  0
LWPOLYLINE
  5
346
330
2
100
AcDbEntity
  8
TEXT
100
AcDbPolyline
 90
        3
 70
     0
 43
0.0006660908203125
 10
-13.37605316885059
 20
0.4515587528490146
 10
-13.37605316885059
 20
0.3383233133958869
 10
-13.26281772939747
 20
0.3383233133958869
  0
LWPOLYLINE
  5
347
330
2
100
AcDbEntity
  8
TEXT
100
AcDbPolyline
 90
        2
 70
     0
 43
0.0001332181640625
 10
-13.34940953603809
 20
0.4515587528490146
 10
-13.28946136220997
 20
0.4615501151536999
  0
LWPOLYLINE
  5
348
330
2
100
AcDbEntity
  8
TEXT
100
AcDbPolyline
 90
        2
 70
     0
 43
0.0001332181640625
 10
-13.30278317861622
 20
0.4615501151536999
 10
-13.37605316885059
 20
0.4515587528490146
  0
LWPOLYLINE
  5
349
330
2
100
AcDbEntity
  8
TEXT
100
AcDbPolyline
 90
        2
 70
     0
 43
0.0006660908203125
 10
-13.34940953603809
 20
0.4515587528490146
 10
-13.37605316885059
 20
0.4515587528490146
  0
LWPOLYLINE
  5
34A
330
2
100
AcDbEntity
  8
TEXT
100
AcDbPolyline
 90
        2
 70
     0
 43
0.0001332181640625
 10
-13.34940953603809
 20
0.364966946208388
 10
-13.28946136220997
 20
0.4249151200365136
  0
LWPOLYLINE
  5
34B
330
2
100
AcDbEntity
  8
TEXT
100
AcDbPolyline
 90
        2
 70
     0
 43
0.0006660908203125
 10
-13.34940953603809
 20
0.4915242020677626
 10
-13.37605316885059
 20
0.4915242020677626
  0
LWPOLYLINE
  5
34C
330
2
100
AcDbEntity
  8
TEXT
100
AcDbPolyline
 90
        2
 70
     0
 43
0.0001332181640625
 10
-13.37605316885059
 20
0.4915242020677626
 10
-13.30278317861622
 20
0.4815328397630739
  0
LWPOLYLINE
  5
34D
330
2
100
AcDbEntity
  8
TEXT
100
AcDbPolyline
 90
        2
 70
     0
 43
0.0001332181640625
 10
-13.34940953603809
 20
0.4915242020677626
 10
-13.28946136220997
 20
0.4815328397630739
  0
LWPOLYLINE
  5
34E
330
2
100
AcDbEntity
  8
TEXT
100
AcDbPolyline
 90
        2
 70
     0
 43
0.0001332181640625
 10
-13.34940953603809
 20
0.5781160087083892
 10
-13.28946136220997
 20
0.5181678348802637
  0
LWPOLYLINE
  5
34F
330
2
100
AcDbEntity
  8
TEXT
100
AcDbPolyline
 90
        5
 70
     0
 43
0.0001332181640625
 10
-13.18288683095997
 20
0.4615501151536999
 10
-13.19620864736622
 20
0.4615501151536999
 10
-13.19620864736622
 20
0.4249151200365136
 10
-13.23284364248341
 20
0.4249151200365136
 10
-13.23284364248341
 20
0.4115933036302631
  0
LWPOLYLINE
  5
350
330
2
100
AcDbEntity
  8
TEXT
100
AcDbPolyline
 90
        2
 70
     0
 43
0.0001332181640625
 10
-13.13626047353809
 20
0.4515587528490146
 10
-13.19620864736622
 20
0.4615501151536999
  0
LWPOLYLINE
  5
351
330
2
100
AcDbEntity
  8
TEXT
100
AcDbPolyline
 90
        2
 70
     0
 43
0.0001332181640625
 10
-13.10961684072559
 20
0.4515587528490146
 10
-13.18288683095997
 20
0.4615501151536999
  0
LWPOLYLINE
  5
352
330
2
100
AcDbEntity
  8
TEXT
100
AcDbPolyline
 90
        3
 70
     0
 43
0.0006660908203125
 10
-13.22285228017872
 20
0.3383233133958869
 10
-13.10961684072559
 20
0.3383233133958869
 10
-13.10961684072559
 20
0.4515587528490146
  0
LWPOLYLINE
  5
353
330
2
100
AcDbEntity
  8
TEXT
100
AcDbPolyline
 90
        3
 70
     0
 43
0.0006660908203125
 10
-13.22285228017872
 20
0.364966946208388
 10
-13.13626047353809
 20
0.364966946208388
 10
-13.13626047353809
 20
0.4515587528490146
  0
LWPOLYLINE
  5
354
330
2
100
AcDbEntity
  8
TEXT
100
AcDbPolyline
 90
        2
 70
     0
 43
0.0001332181640625
 10
-13.13626047353809
 20
0.364966946208388
 10
-13.19620864736622
 20
0.4249151200365136
  0
LWPOLYLINE
  5
355
330
2
100
AcDbEntity
  8
TEXT
100
AcDbPolyline
 90
        2
 70
     0
 43
0.0006660908203125
 10
-13.22285228017872
 20
0.364966946208388
 10
-13.22285228017872
 20
0.3383233133958869
  0
LWPOLYLINE
  5
356
330
2
100
AcDbEntity
  8
TEXT
100
AcDbPolyline
 90
        2
 70
     0
 43
0.0001332181640625
 10
-13.23284364248341
 20
0.4115933036302631
 10
-13.22285228017872
 20
0.3383233133958869
  0
LWPOLYLINE
  5
357
330
2
100
AcDbEntity
  8
TEXT
100
AcDbPolyline
 90
        2
 70
     0
 43
0.0001332181640625
 10
-13.22285228017872
 20
0.364966946208388
 10
-13.23284364248341
 20
0.4249151200365136
  0
LWPOLYLINE
  5
358
330
2
100
AcDbEntity
  8
TEXT
100
AcDbPolyline
 90
        2
 70
     0
 43
0.0001332181640625
 10
-13.26281772939747
 20
0.3383233133958869
 10
-13.25282636709278
 20
0.4115933036302631
  0
LWPOLYLINE
  5
359
330
2
100
AcDbEntity
  8
TEXT
100
AcDbPolyline
 90
        2
 70
     0
 43
0.0001332181640625
 10
-13.26281772939747
 20
0.364966946208388
 10
-13.25282636709278
 20
0.4249151200365136
  0
LWPOLYLINE
  5
35A
330
2
100
AcDbEntity
  8
TEXT
100
AcDbPolyline
 90
        2
 70
     0
 43
0.0006660908203125
 10
-13.26281772939747
 20
0.364966946208388
 10
-13.26281772939747
 20
0.3383233133958869
  0
LWPOLYLINE
  5
35B
330
2
100
AcDbEntity
  8
TEXT
100
AcDbPolyline
 90
        2
 70
     0
 43
0.0006660908203125
 10
-13.13626047353809
 20
0.4515587528490146
 10
-13.10961684072559
 20
0.4515587528490146
  0
LWPOLYLINE
  5
35C
330
2
100
AcDbEntity
  8
TEXT
100
AcDbPolyline
 90
        2
 70
     0
 43
0.0001332181640625
 10
-13.13626047353809
 20
0.5781160087083892
 10
-13.19620864736622
 20
0.5181678348802637
  0
LWPOLYLINE
  5
35D
330
2
100
AcDbEntity
  8
TEXT
100
AcDbPolyline
 90
        2
 70
     0
 43
0.0001332181640625
 10
-13.13626047353809
 20
0.4915242020677626
 10
-13.19620864736622
 20
0.4815328397630739
  0
LWPOLYLINE
  5
35E
330
2
100
AcDbEntity
  8
TEXT
100
AcDbPolyline
 90
        2
 70
     0
 43
0.0001332181640625
 10
-13.18288683095997
 20
0.4815328397630739
 10
-13.10961684072559
 20
0.4915242020677626
  0
LWPOLYLINE
  5
35F
330
2
100
AcDbEntity
  8
TEXT
100
AcDbPolyline
 90
        3
 70
     0
 43
0.0006660908203125
 10
-13.13626047353809
 20
0.4915242020677626
 10
-13.13626047353809
 20
0.5781160087083892
 10
-13.22285228017872
 20
0.5781160087083892
  0
LWPOLYLINE
  5
360
330
2
100
AcDbEntity
  8
TEXT
100
AcDbPolyline
 90
        3
 70
     0
 43
0.0006660908203125
 10
-13.10961684072559
 20
0.4915242020677626
 10
-13.10961684072559
 20
0.6047596415208903
 10
-13.22285228017872
 20
0.6047596415208903
  0
LWPOLYLINE
  5
361
330
2
100
AcDbEntity
  8
TEXT
100
AcDbPolyline
 90
        2
 70
     0
 43
0.0001332181640625
 10
-13.22285228017872
 20
0.6047596415208903
 10
-13.23284364248341
 20
0.5314896512865106
  0
LWPOLYLINE
  5
362
330
2
100
AcDbEntity
  8
TEXT
100
AcDbPolyline
 90
        2
 70
     0
 43
0.0001332181640625
 10
-13.22285228017872
 20
0.5781160087083892
 10
-13.23284364248341
 20
0.5181678348802637
  0
LWPOLYLINE
  5
363
330
2
100
AcDbEntity
  8
TEXT
100
AcDbPolyline
 90
        2
 70
     0
 43
0.0006660908203125
 10
-13.22285228017872
 20
0.5781160087083892
 10
-13.22285228017872
 20
0.6047596415208903
  0
LWPOLYLINE
  5
364
330
2
100
AcDbEntity
  8
TEXT
100
AcDbPolyline
 90
        5
 70
     0
 43
0.0001332181640625
 10
-13.23284364248341
 20
0.5314896512865106
 10
-13.23284364248341
 20
0.5181678348802637
 10
-13.19620864736622
 20
0.5181678348802637
 10
-13.19620864736622
 20
0.4815328397630739
 10
-13.18288683095997
 20
0.4815328397630739
  0
LWPOLYLINE
  5
365
330
2
100
AcDbEntity
  8
TEXT
100
AcDbPolyline
 90
        2
 70
     0
 43
0.0001332181640625
 10
-13.26281772939747
 20
0.5781160087083892
 10
-13.25282636709278
 20
0.5181678348802637
  0
LWPOLYLINE
  5
366
330
2
100
AcDbEntity
  8
TEXT
100
AcDbPolyline
 90
        2
 70
     0
 43
0.0001332181640625
 10
-13.25282636709278
 20
0.5314896512865106
 10
-13.26281772939747
 20
0.6047596415208903
  0
LWPOLYLINE
  5
367
330
2
100
AcDbEntity
  8
TEXT
100
AcDbPolyline
 90
        2
 70
     0
 43
0.0006660908203125
 10
-13.26281772939747
 20
0.5781160087083892
 10
-13.26281772939747
 20
0.6047596415208903
  0
LWPOLYLINE
  5
368
330
2
100
AcDbEntity
  8
TEXT
100
AcDbPolyline
 90
        2
 70
     0
 43
0.0006660908203125
 10
-13.13626047353809
 20
0.4915242020677626
 10
-13.10961684072559
 20
0.4915242020677626
  0
LWPOLYLINE
  5
369
330
2
100
AcDbEntity
  8
TEXT
100
AcDbPolyline
 90
        2
 70
     0
 43
0.0
 10
-12.39083691997696
 20
0.389837950747304
 42
0.3318488747599744
 10
-12.32171762741165
 20
0.3382866085323757
 42
-6.868794160588311
  0
LINE
  5
36A
330
2
100
AcDbEntity
  8
TEXT
100
AcDbLine
 10
-12.32285720090784
 20
0.6727711192596973
 30
0.0
 11
-12.38966591347421
 21
0.6727711192596973
 31
0.0
  0
LINE
  5
36B
330
2
100
AcDbEntity
  8
TEXT
100
AcDbLine
 10
-12.66900828109331
 20
0.6047596415208867
 30
0.0
 11
-12.84474003399181
 21
0.6047596415208867
 31
0.0
  0
ARC
  5
36C
330
2
100
AcDbEntity
  8
TEXT
100
AcDbCircle
 10
-12.77390256763327
 20
0.4214824168929328
 30
0.0
 40
0.0831958083605586
100
AcDbArc
 50
270.0
 51
90.0
  0
LINE
  5
36D
330
2
100
AcDbEntity
  8
TEXT
100
AcDbLine
 10
-12.83950270387757
 20
0.5404829468641213
 30
0.0
 11
-12.6725970498486
 21
0.5404829468641213
 31
0.0
  0
LINE
  5
36E
330
2
100
AcDbEntity
  8
TEXT
100
AcDbLine
 10
-12.76896219372699
 20
0.4066436148658151
 30
0.0
 11
-12.92682749343832
 21
0.4066436148658151
 31
0.0
  0
LINE
  5
36F
330
2
100
AcDbEntity
  8
TEXT
100
AcDbLine
 10
-12.92682749343832
 20
0.3382866085323757
 30
0.0
 11
-12.77390256763327
 21
0.3382866085323757
 31
0.0
  0
ARC
  5
370
330
2
100
AcDbEntity
  8
TEXT
100
AcDbCircle
 10
-12.84474003399181
 20
0.522672182074385
 30
0.0
 40
0.0820874594465043
100
AcDbArc
 50
90.0
 51
270.0
  0
LINE
  5
371
330
2
100
AcDbEntity
  8
TEXT
100
AcDbLine
 10
-12.92682749343832
 20
0.4066436148658151
 30
0.0
 11
-12.92682749343832
 21
0.3382866085323757
 31
0.0
  0
LINE
  5
372
330
2
100
AcDbEntity
  8
TEXT
100
AcDbLine
 10
-12.84474003399181
 20
0.4405847226278797
 30
0.0
 11
-12.76896219372699
 21
0.4405847226278797
 31
0.0
  0
ARC
  5
373
330
2
100
AcDbEntity
  8
TEXT
100
AcDbCircle
 10
-12.76896219372699
 20
0.4236141687468491
 30
0.0
 40
0.0169705538810321
100
AcDbArc
 50
270.0
 51
90.0
  0
LINE
  5
374
330
2
100
AcDbEntity
  8
TEXT
100
AcDbLine
 10
-12.77390256763327
 20
0.5046782252534934
 30
0.0
 11
-12.83950270387757
 21
0.5046782252534934
 31
0.0
  0
ARC
  5
375
330
2
100
AcDbEntity
  8
TEXT
100
AcDbCircle
 10
-12.83950270387757
 20
0.5225805860588091
 30
0.0
 40
0.017902360805315
100
AcDbArc
 50
90.0
 51
270.0
  0
LINE
  5
376
330
2
100
AcDbEntity
  8
TEXT
100
AcDbLine
 10
-12.47853638907345
 20
0.5038876454077661
 30
0.0
 11
-12.53716671010539
 21
0.6047596415208867
 31
0.0
  0
LINE
  5
377
330
2
100
AcDbEntity
  8
TEXT
100
AcDbLine
 10
-12.61871044236849
 20
0.3382866085323757
 30
0.0
 11
-12.5220701912935
 21
0.338557247630658
 31
0.0
  0
LWPOLYLINE
  5
378
330
2
100
AcDbEntity
  8
TEXT
100
AcDbPolyline
 90
        6
 70
     1
 43
0.0
 10
-12.57618663879334
 20
0.5404829468641213
 10
-12.60650323301355
 20
0.5404829468641213
 10
-12.60650323301355
 20
0.4173719488092269
 42
0.407328721240804
 10
-12.59495958185207
 20
0.4055530341328409
 10
-12.53433788280734
 20
0.4055530341328409
 10
-12.51687254240002
 20
0.43836526317632
  0
LINE
  5
379
330
2
100
AcDbEntity
  8
TEXT
100
AcDbLine
 10
-12.6725970498486
 20
0.5404829468641213
 30
0.0
 11
-12.6725970498486
 21
0.3980789998704255
 31
0.0
  0
ARC
  5
37A
330
2
100
AcDbEntity
  8
TEXT
100
AcDbCircle
 10
-12.61248103187484
 20
0.3980789998704255
 30
0.0
 40
0.0601160179737537
100
AcDbArc
 50
180.0000000000003
 51
264.0521544866073
  0
LINE
  5
37B
330
2
100
AcDbEntity
  8
TEXT
100
AcDbLine
 10
-12.6089656762493
 20
0.6391475591150249
 30
0.0
 11
-12.66900828109331
 21
0.6391475591150249
 31
0.0
  0
LINE
  5
37C
330
2
100
AcDbEntity
  8
TEXT
100
AcDbLine
 10
-12.66900828109331
 20
0.6391475591150249
 30
0.0
 11
-12.66900828109331
 21
0.6047596415208867
 31
0.0
  0
LINE
  5
37D
330
2
100
AcDbEntity
  8
TEXT
100
AcDbLine
 10
-12.6089656762493
 20
0.6047596415208867
 30
0.0
 11
-12.6089656762493
 21
0.6391475591150249
 31
0.0
  0
LINE
  5
37E
330
2
100
AcDbEntity
  8
TEXT
100
AcDbLine
 10
-12.53716671010539
 20
0.6047596415208867
 30
0.0
 11
-12.6089656762493
 21
0.6047596415208867
 31
0.0
  0
LINE
  5
37F
330
2
100
AcDbEntity
  8
TEXT
100
AcDbLine
 10
-12.48813662607041
 20
0.3582451146373886
 30
0.0
 11
-12.39083691997696
 21
0.5225953255726568
 31
0.0
  0
LINE
  5
380
330
2
100
AcDbEntity
  8
TEXT
100
AcDbLine
 10
-12.39083691997696
 20
0.5225953255726568
 30
0.0
 11
-12.39083691997696
 21
0.3898379507473004
 31
0.0
  0
ARC
  5
381
330
2
100
AcDbEntity
  8
TEXT
100
AcDbCircle
 10
-12.52218018598262
 20
0.3778343308060714
 30
0.0
 40
0.0392772371940762
100
AcDbArc
 50
270.1604552698595
 51
330.0831797321295
  0
LINE
  5
382
330
2
100
AcDbEntity
  8
TEXT
100
AcDbLine
 10
-12.41978782626759
 20
0.6047596415208867
 30
0.0
 11
-12.47853638907345
 21
0.5038876454077661
 31
0.0
  0
LINE
  5
383
330
2
100
AcDbEntity
  8
TEXT
100
AcDbLine
 10
-12.38966591347421
 20
0.6727711192596973
 30
0.0
 11
-12.38966591347421
 21
0.6047596415208867
 31
0.0
  0
LINE
  5
384
330
2
100
AcDbEntity
  8
TEXT
100
AcDbLine
 10
-12.38966591347421
 20
0.6047596415208867
 30
0.0
 11
-12.41978782626759
 21
0.6047596415208867
 31
0.0
  0
LWPOLYLINE
  5
385
330
2
100
AcDbEntity
  8
TEXT
100
AcDbPolyline
 90
        4
 70
     0
 43
0.0
 10
-12.03757979185405
 20
0.5329291576980113
 10
-12.03757979185405
 20
0.3382866085323757
 10
-11.96910150856619
 20
0.3382866085323757
 10
-11.96910150856619
 20
0.3817775534828138
 42
-1.714843617202739
  0
LWPOLYLINE
  5
386
330
2
100
AcDbEntity
  8
TEXT
100
AcDbPolyline
 90
        2
 70
     0
 43
0.0
 10
-12.00244544130984
 20
0.6047596415208903
 42
-0.3277054968067132
 10
-11.96666375059668
 20
0.5764370957512464
 42
6.667889725900311
  0
LWPOLYLINE
  5
387
330
2
100
AcDbEntity
  8
TEXT
100
AcDbPolyline
 90
        2
 70
     0
 43
0.0
 10
-12.17387901388907
 20
0.5404829468641213
 42
-0.4142135623731017
 10
-12.16632522472296
 20
0.5329291576980113
 42
-0.9999999999999998
  0
LINE
  5
388
330
2
100
AcDbEntity
  8
TEXT
100
AcDbLine
 10
-12.15652729083905
 20
0.6047596415208867
 30
0.0
 11
-12.29054534677018
 21
0.6047596415208867
 31
0.0
  0
LINE
  5
389
330
2
100
AcDbEntity
  8
TEXT
100
AcDbLine
 10
-12.22371429371222
 20
0.3382866085323757
 30
0.0
 11
-12.22371429371222
 21
0.5404829468641213
 31
0.0
  0
LINE
  5
38A
330
2
100
AcDbEntity
  8
TEXT
100
AcDbLine
 10
-12.29054534677018
 20
0.6047596415208867
 30
0.0
 11
-12.29054534677018
 21
0.4038954347884785
 31
0.0
  0
LINE
  5
38B
330
2
100
AcDbEntity
  8
TEXT
100
AcDbLine
 10
-12.32285720090784
 20
0.4206744466353749
 30
0.0
 11
-12.32285720090784
 21
0.6727711192596973
 31
0.0
  0
LINE
  5
38C
330
2
100
AcDbEntity
  8
TEXT
100
AcDbLine
 10
-12.32171762741165
 20
0.3382866085323757
 30
0.0
 11
-12.22371429371222
 21
0.3382866085323757
 31
0.0
  0
LINE
  5
38D
330
2
100
AcDbEntity
  8
TEXT
100
AcDbLine
 10
-12.29054534677018
 20
0.4038954347884785
 30
0.0
 11
-12.30753898365479
 21
0.4038954347884785
 31
0.0
  0
ARC
  5
38E
330
2
100
AcDbEntity
  8
TEXT
100
AcDbCircle
 10
-12.30753898365479
 20
0.4192772410319039
 30
0.0
 40
0.0153818062434269
100
AcDbArc
 50
174.7883570302258
 51
270.0
  0
LINE
  5
38F
330
2
100
AcDbEntity
  8
TEXT
100
AcDbLine
 10
-12.22371429371222
 20
0.5404829468641213
 30
0.0
 11
-12.17387901388907
 21
0.5404829468641213
 31
0.0
  0
LINE
  5
390
330
2
100
AcDbEntity
  8
TEXT
100
AcDbLine
 10
-12.16632522472295
 20
0.5329291576980113
 30
0.0
 11
-12.16632522472295
 21
0.3382866085323757
 31
0.0
  0
LINE
  5
391
330
2
100
AcDbEntity
  8
TEXT
100
AcDbLine
 10
-12.09926717794111
 20
0.3382866085323757
 30
0.0
 11
-12.09926717794111
 21
0.5404829468641213
 31
0.0
  0
LINE
  5
392
330
2
100
AcDbEntity
  8
TEXT
100
AcDbLine
 10
-12.16632522472295
 20
0.3382866085323757
 30
0.0
 11
-12.09926717794111
 21
0.3382866085323757
 31
0.0
  0
LWPOLYLINE
  5
393
330
2
100
AcDbEntity
  8
TEXT
100
AcDbPolyline
 90
        3
 70
     0
 43
0.0
 10
-12.00244544130984
 20
0.6047596415208903
 10
-12.12074560012589
 20
0.6047596415208903
 10
-12.12074560012589
 20
0.5775921447599944
 42
-1.960274751411753
  0
LINE
  5
394
330
2
100
AcDbEntity
  8
TEXT
100
AcDbLine
 10
-12.09926717794111
 20
0.5404829468641213
 30
0.0
 11
-12.04513358102016
 21
0.5404829468641213
 31
0.0
  0
LWPOLYLINE
  5
395
330
2
100
AcDbEntity
  8
TEXT
100
AcDbPolyline
 90
        2
 70
     0
 43
0.0
 10
-12.15652729083905
 20
0.6047596415208903
 42
-0.3328679258950098
 10
-12.12074560012589
 20
0.5775921447599944
 42
6.772930709997214
  0
LWPOLYLINE
  5
396
330
2
100
AcDbEntity
  8
TEXT
100
AcDbPolyline
 90
        2
 70
     0
 43
0.0
 10
-12.04513358102016
 20
0.5404829468641213
 42
-0.4142135623731017
 10
-12.03757979185405
 20
0.5329291576980113
 42
-0.9999999999999998
  0
ARC
  5
397
330
2
100
AcDbEntity
  8
TEXT
100
AcDbCircle
 10
-11.83385878115668
 20
0.5631760743999843
 30
0.0
 40
0.0416329381542859
100
AcDbArc
 50
26.56974201007528
 51
87.20939649401342
  0
LWPOLYLINE
  5
398
330
2
100
AcDbEntity
  8
TEXT
100
AcDbPolyline
 90
        2
 70
     0
 43
0.0
 10
-11.92602557569856
 20
0.3382866085323757
 10
-11.79200815806718
 20
0.3382866085323757
 42
0.9999999999999998
  0
LWPOLYLINE
  5
399
330
2
100
AcDbEntity
  8
TEXT
100
AcDbPolyline
 90
        4
 70
     1
 43
0.0
 10
-11.81213062313707
 20
0.441250586516401
 10
-11.90079094179693
 20
0.441250586516401
 42
0.9999999999999998
 10
-11.90079094179693
 20
0.3988520460125402
 10
-11.81213062313707
 20
0.3988520460125402
 42
1.0
  0
LWPOLYLINE
  5
39A
330
2
100
AcDbEntity
  8
TEXT
100
AcDbPolyline
 90
        2
 70
     0
 43
0.0
 10
-11.96910150856619
 20
0.3817775534828138
 42
0.2901071551932823
 10
-11.92602557569856
 20
0.3382866085323757
 42
5.328517124445801
  0
LINE
  5
39B
330
2
100
AcDbEntity
  8
TEXT
100
AcDbLine
 10
-11.83183184137962
 20
0.6047596415208867
 30
0.0
 11
-11.96666375059668
 21
0.6047596415208867
 31
0.0
  0
LINE
  5
39C
330
2
100
AcDbEntity
  8
TEXT
100
AcDbLine
 10
-11.90734965420336
 20
0.503207973401989
 30
0.0
 11
-11.82506166441997
 21
0.503207973401989
 31
0.0
  0
LINE
  5
39D
330
2
100
AcDbEntity
  8
TEXT
100
AcDbLine
 10
-11.86086273972409
 20
0.5404829468641213
 30
0.0
 11
-11.96806901311138
 21
0.5404829468641213
 31
0.0
  0
LINE
  5
39E
330
2
100
AcDbEntity
  8
TEXT
100
AcDbLine
 10
-11.96666375059668
 20
0.6047596415208867
 30
0.0
 11
-11.96666375059668
 21
0.5764370957512428
 31
0.0
  0
ARC
  5
39F
330
2
100
AcDbEntity
  8
TEXT
100
AcDbCircle
 10
-11.90734965420336
 20
0.4355223922578704
 30
0.0
 40
0.0676855811441166
100
AcDbArc
 50
90.0
 51
153.7768192527749
  0
LINE
  5
3A0
330
2
100
AcDbEntity
  8
TEXT
100
AcDbLine
 10
-11.96806901311138
 20
0.5404829468641213
 30
0.0
 11
-11.96806901311138
 21
0.4654305407899147
 31
0.0
  0
LINE
  5
3A1
330
2
100
AcDbEntity
  8
TEXT
100
AcDbLine
 10
-11.82506166441997
 20
0.503207973401989
 30
0.0
 11
-11.83532642483354
 21
0.5244585129746833
 31
0.0
  0
ARC
  5
3A2
330
2
100
AcDbEntity
  8
TEXT
100
AcDbCircle
 10
-11.8608627397241
 20
0.512123571864124
 30
0.0
 40
0.028359375
100
AcDbArc
 50
25.78218179591245
 51
90.0
  0
LINE
  5
3A3
330
2
100
AcDbEntity
  8
TEXT
100
AcDbLine
 10
-11.6905770113642
 20
0.3382866085323757
 30
0.0
 11
-11.69057701136421
 21
0.5155771139638441
 31
0.0
  0
LWPOLYLINE
  5
3A4
330
2
100
AcDbEntity
  8
TEXT
100
AcDbPolyline
 90
        2
 70
     0
 43
0.0
 10
-11.74893222519954
 20
0.3382866085323757
 10
-11.6905770113642
 20
0.3382866085323757
  0
LWPOLYLINE
  5
3A5
330
2
100
AcDbEntity
  8
TEXT
100
AcDbPolyline
 90
        2
 70
     0
 43
0.0
 10
-11.74893222519954
 20
0.3817775534828138
 42
-0.2901071551932486
 10
-11.79200815806718
 20
0.3382866085323757
 42
-5.328517124445184
  0
LWPOLYLINE
  5
3A6
330
2
100
AcDbEntity
  8
TEXT
100
AcDbPolyline
 90
        2
 70
     0
 43
0.0
 10
-11.74893222519954
 20
0.3817775534828138
 10
-11.74893222519954
 20
0.3382866085323757
  0
LINE
  5
3A7
330
2
100
AcDbEntity
  8
TEXT
100
AcDbLine
 10
-11.68897499620507
 20
0.6047596415208867
 30
0.0
 11
-11.75287190250458
 21
0.6047596415208867
 31
0.0
  0
LINE
  5
3A8
330
2
100
AcDbEntity
  8
TEXT
100
AcDbLine
 10
-11.75287190250458
 20
0.6047596415208867
 30
0.0
 11
-11.75287190250458
 21
0.4995476629674594
 31
0.0
  0
LINE
  5
3A9
330
2
100
AcDbEntity
  8
TEXT
100
AcDbLine
 10
-11.75287190250458
 20
0.4995476629674594
 30
0.0
 11
-11.79662267368648
 21
0.5817979389636046
 31
0.0
  0
ARC
  5
3AA
330
2
100
AcDbEntity
  8
TEXT
100
AcDbCircle
 10
-11.66567113608154
 20
0.5155770715814585
 30
0.0
 40
0.0249058752826653
100
AcDbArc
 50
89.99971217465335
 51
179.9999999999985
  0
ARC
  5
3AB
330
2
100
AcDbEntity
  8
TEXT
100
AcDbCircle
 10
-11.65778217914197
 20
0.5735139142386219
 30
0.0
 40
0.0314112657011332
100
AcDbArc
 50
95.88484768694724
 51
173.2388340632136
  0
LINE
  5
3AC
330
2
100
AcDbEntity
  8
TEXT
100
AcDbLine
 10
-11.68897499620507
 20
0.5772119916600121
 30
0.0
 11
-11.68897499620507
 21
0.6047596415208867
 31
0.0
  0
TEXT
  5
3AD
330
2
100
AcDbEntity
  8
TEXT
100
AcDbText
 10
-11.22009947678328
 20
0.431172417177872
 30
0.0
 40
0.0522247191011236
  1
Minneapolis, MN 55432-0008
 41
1.11444212721585
 72
     5
 11
-9.891166892513624
 21
0.431172417177872
 31
0.0
100
AcDbText
  0
TEXT
  5
3AE
330
2
100
AcDbEntity
  8
TEXT
100
AcDbText
 10
-11.22009947678328
 20
0.5244308441441641
 30
0.0
 40
0.0522247191011236
  1
6536 Main St. N.E. * P.O. Box 32008
 41
0.8388932496075355
 72
     5
 11
-9.891166892513624
 21
0.5244308441441641
 31
0.0
100
AcDbText
  0
TEXT
  5
3AF
330
2
100
AcDbEntity
  8
TEXT
100
AcDbText
 10
-11.22009947678328
 20
0.6176892711104563
 30
0.0
 40
0.0522247191011236
  1
Stylmark  Incorporated
 41
1.221428571428571
 72
     5
 11
-9.891166892513624
 21
0.6176892711104563
 31
0.0
100
AcDbText
  0
TEXT
  5
3B0
330
2
100
AcDbEntity
  8
TEXT
100
AcDbText
 10
-11.22009947678328
 20
0.3379139902115797
 30
0.0
 40
0.0522247191011236
  1
Phone  1-800-328-2495
 41
1.272321428571429
 72
     5
 11
-9.891166892513624
 21
0.3379139902115797
 31
0.0
100
AcDbText
  0
LINE
  5
3B1
330
2
100
AcDbEntity
  8
TEXT
100
AcDbLine
 10
-11.4676552882463
 20
0.4948663985799131
 30
0.0
 11
-11.40309817228059
 21
0.6047596415208867
 31
0.0
  0
LINE
  5
3B2
330
2
100
AcDbEntity
  8
TEXT
100
AcDbLine
 10
-11.40309817228059
 20
0.6047596415208867
 30
0.0
 11
-11.47809000501022
 21
0.6047596415208867
 31
0.0
  0
LINE
  5
3B3
330
2
100
AcDbEntity
  8
TEXT
100
AcDbLine
 10
-11.4487414372589
 20
0.3382866085323757
 30
0.0
 11
-11.37216306488269
 21
0.3382866085323757
 31
0.0
  0
LINE
  5
3B4
330
2
100
AcDbEntity
  8
TEXT
100
AcDbLine
 10
-11.37216306488269
 20
0.3382866085323757
 30
0.0
 11
-11.4676552882463
 21
0.4948663985799131
 31
0.0
  0
LINE
  5
3B5
330
2
100
AcDbEntity
  8
TEXT
100
AcDbLine
 10
-11.52464497047036
 20
0.3382866085323757
 30
0.0
 11
-11.52464497047036
 21
0.469866177008556
 31
0.0
  0
LINE
  5
3B6
330
2
100
AcDbEntity
  8
TEXT
100
AcDbLine
 10
-11.52464497047036
 20
0.469866177008556
 30
0.0
 11
-11.4487414372589
 21
0.3382866085323757
 31
0.0
  0
LINE
  5
3B7
330
2
100
AcDbEntity
  8
TEXT
100
AcDbLine
 10
-11.58902315478899
 20
0.5404829468641213
 30
0.0
 11
-11.58902315478898
 21
0.3382866085323757
 31
0.0
  0
LINE
  5
3B8
330
2
100
AcDbEntity
  8
TEXT
100
AcDbLine
 10
-11.58902315478898
 20
0.3382866085323757
 30
0.0
 11
-11.52464497047036
 21
0.3382866085323757
 31
0.0
  0
LINE
  5
3B9
330
2
100
AcDbEntity
  8
TEXT
100
AcDbLine
 10
-11.5251881635662
 20
0.6702238472884874
 30
0.0
 11
-11.59350304211548
 21
0.6702238472884874
 31
0.0
  0
LINE
  5
3BA
330
2
100
AcDbEntity
  8
TEXT
100
AcDbLine
 10
-11.59350304211548
 20
0.6702238472884874
 30
0.0
 11
-11.59350304211548
 21
0.6047596415208867
 31
0.0
  0
LINE
  5
3BB
330
2
100
AcDbEntity
  8
TEXT
100
AcDbLine
 10
-11.47809000501022
 20
0.6047596415208867
 30
0.0
 11
-11.5251881635662
 21
0.5288943151093486
 31
0.0
  0
LINE
  5
3BC
330
2
100
AcDbEntity
  8
TEXT
100
AcDbLine
 10
-11.5251881635662
 20
0.5288943151093486
 30
0.0
 11
-11.5251881635662
 21
0.6702238472884874
 31
0.0
  0
ENDSEC
  0
SECTION
  2
OBJECTS
  0
DICTIONARY
  5
1A
330
0
100
AcDbDictionary
  3
ACAD_GROUP
350
18
  3
ACAD_LAYOUT
350
3C1
  3
ACAD_MLINESTYLE
350
19
  3
ACAD_PLOTSETTINGS
350
3C2
  3
ACAD_PLOTSTYLENAME
350
3BF
  3
ACDBHEADERROUNDTRIPXREC
350
3CC
  3
ACDBVARIABLEDICTIONARY
350
3C9
  0
DICTIONARY
  5
3EC
330
2
100
AcDbDictionary
280
     1
  3
ACAD_LAYOUTSELFREF
360
3ED
  0
DICTIONARY
  5
3EE
330
7
100
AcDbDictionary
280
     1
  3
ACAD_LAYOUTSELFREF
360
3EF
  0
DICTIONARY
  5
18
102
{ACAD_REACTORS
330
1A
102
}
330
1A
100
AcDbDictionary
  0
DICTIONARY
  5
3C1
102
{ACAD_REACTORS
330
1A
102
}
330
1A
100
AcDbDictionary
  0
DICTIONARY
  5
19
102
{ACAD_REACTORS
330
1A
102
}
330
1A
100
AcDbDictionary
  3
STANDARD
350
1D
  0
DICTIONARY
  5
3C2
102
{ACAD_REACTORS
330
1A
102
}
330
1A
100
AcDbDictionary
  0
ACDBDICTIONARYWDFLT
  5
3BF
102
{ACAD_REACTORS
330
1A
102
}
330
1A
100
AcDbDictionary
281
     1
  3
Normal
350
3C0
100
AcDbDictionaryWithDefault
340
3C0
  0
DICTIONARY
  5
3CC
102
{ACAD_REACTORS
330
1A
102
}
330
1A
100
AcDbDictionary
  3
CEPSNTYPE
350
3D6
  3
FINGERPRINTGUID
350
3D7
  3
HYPERLINKBASE
350
3CF
  3
INSUNITS
350
3D5
  3
LAYOUTDICT
350
3D1
  3
LWETCUNION
350
3D4
  3
PLOTSETDICT
350
3D2
  3
PLOTSTYLNAMDICT
350
3D3
  3
PSVPSCALE
350
3D9
  3
PUCSBASE
350
3DC
  3
PUCSORGBACK
350
3E2
  3
PUCSORGBOTTOM
350
3DE
  3
PUCSORGFRONT
350
3E1
  3
PUCSORGLEFT
350
3DF
  3
PUCSORGRIGHT
350
3E0
  3
PUCSORGTOP
350
3DD
  3
PUCSORTHOREF
350
3DA
  3
PUCSORTHOVIEW
350
3DB
  3
STYLESHEET
350
3D0
  3
TSTACKALIGN
350
3CD
  3
TSTACKSIZE
350
3CE
  3
UCSBASE
350
3E5
  3
UCSORGBACK
350
3EB
  3
UCSORGBOTTOM
350
3E7
  3
UCSORGFRONT
350
3EA
  3
UCSORGLEFT
350
3E8
  3
UCSORGRIGHT
350
3E9
  3
UCSORGTOP
350
3E6
  3
UCSORTHOREF
350
3E3
  3
UCSORTHOVIEW
350
3E4
  3
VERSIONGUID
350
3D8
  0
DICTIONARY
  5
3C9
102
{ACAD_REACTORS
330
1A
102
}
330
1A
100
AcDbDictionary
  3
DIMASSOC
350
3CA
  0
XRECORD
  5
3ED
102
{ACAD_REACTORS
330
3EC
102
}
330
3EC
100
AcDbXrecord
340
2
  0
XRECORD
  5
3EF
102
{ACAD_REACTORS
330
3EE
102
}
330
3EE
100
AcDbXrecord
340
7
  0
MLINESTYLE
  5
1D
102
{ACAD_REACTORS
330
19
102
}
330
19
100
AcDbMlineStyle
  2
STANDARD
 70
     0
  3

 62
     0
 51
90.0
 52
90.0
 71
     2
 49
0.5
 62
   256
  6
BYLAYER
 49
-0.5
 62
   256
  6
BYLAYER
  0
ACDBPLACEHOLDER
  5
3C0
102
{ACAD_REACTORS
330
3BF
102
}
330
3BF
100
AcDbPlaceHolder
280
     0
  0
XRECORD
  5
3D6
102
{ACAD_REACTORS
330
3CC
102
}
330
3CC
100
AcDbXrecord
 90
        0
  0
XRECORD
  5
3D7
102
{ACAD_REACTORS
330
3CC
102
}
330
3CC
100
AcDbXrecord
  1
{D0DF9F90-8DB8-11D6-88E6-0090279574E7}
  0
XRECORD
  5
3CF
102
{ACAD_REACTORS
330
3CC
102
}
330
3CC
100
AcDbXrecord
  1

  0
XRECORD
  5
3D5
102
{ACAD_REACTORS
330
3CC
102
}
330
3CC
100
AcDbXrecord
 90
        0
  0
XRECORD
  5
3D1
102
{ACAD_REACTORS
330
3CC
102
}
330
3CC
100
AcDbXrecord
340
3C1
  0
XRECORD
  5
3D4
102
{ACAD_REACTORS
330
3CC
102
}
330
3CC
100
AcDbXrecord
 90
    14877
  0
XRECORD
  5
3D2
102
{ACAD_REACTORS
330
3CC
102
}
330
3CC
100
AcDbXrecord
340
3C2
  0
XRECORD
  5
3D3
102
{ACAD_REACTORS
330
3CC
102
}
330
3CC
100
AcDbXrecord
340
3BF
  0
XRECORD
  5
3D9
102
{ACAD_REACTORS
330
3CC
102
}
330
3CC
100
AcDbXrecord
 40
0.0
  0
XRECORD
  5
3DC
102
{ACAD_REACTORS
330
3CC
102
}
330
3CC
100
AcDbXrecord
340
0
  0
XRECORD
  5
3E2
102
{ACAD_REACTORS
330
3CC
102
}
330
3CC
100
AcDbXrecord
 10
0.0
 20
0.0
 30
0.0
  0
XRECORD
  5
3DE
102
{ACAD_REACTORS
330
3CC
102
}
330
3CC
100
AcDbXrecord
 10
0.0
 20
0.0
 30
0.0
  0
XRECORD
  5
3E1
102
{ACAD_REACTORS
330
3CC
102
}
330
3CC
100
AcDbXrecord
 10
0.0
 20
0.0
 30
0.0
  0
XRECORD
  5
3DF
102
{ACAD_REACTORS
330
3CC
102
}
330
3CC
100
AcDbXrecord
 10
0.0
 20
0.0
 30
0.0
  0
XRECORD
  5
3E0
102
{ACAD_REACTORS
330
3CC
102
}
330
3CC
100
AcDbXrecord
 10
0.0
 20
0.0
 30
0.0
  0
XRECORD
  5
3DD
102
{ACAD_REACTORS
330
3CC
102
}
330
3CC
100
AcDbXrecord
 10
0.0
 20
0.0
 30
0.0
  0
XRECORD
  5
3DA
102
{ACAD_REACTORS
330
3CC
102
}
330
3CC
100
AcDbXrecord
340
0
  0
XRECORD
  5
3DB
102
{ACAD_REACTORS
330
3CC
102
}
330
3CC
100
AcDbXrecord
 70
     0
  0
XRECORD
  5
3D0
102
{ACAD_REACTORS
330
3CC
102
}
330
3CC
100
AcDbXrecord
  1

  0
XRECORD
  5
3CD
102
{ACAD_REACTORS
330
3CC
102
}
330
3CC
100
AcDbXrecord
 90
        1
  0
XRECORD
  5
3CE
102
{ACAD_REACTORS
330
3CC
102
}
330
3CC
100
AcDbXrecord
 90
       70
  0
XRECORD
  5
3E5
102
{ACAD_REACTORS
330
3CC
102
}
330
3CC
100
AcDbXrecord
340
0
  0
XRECORD
  5
3EB
102
{ACAD_REACTORS
330
3CC
102
}
330
3CC
100
AcDbXrecord
 10
0.0
 20
0.0
 30
0.0
  0
XRECORD
  5
3E7
102
{ACAD_REACTORS
330
3CC
102
}
330
3CC
100
AcDbXrecord
 10
0.0
 20
0.0
 30
0.0
  0
XRECORD
  5
3EA
102
{ACAD_REACTORS
330
3CC
102
}
330
3CC
100
AcDbXrecord
 10
0.0
 20
0.0
 30
0.0
  0
XRECORD
  5
3E8
102
{ACAD_REACTORS
330
3CC
102
}
330
3CC
100
AcDbXrecord
 10
0.0
 20
0.0
 30
0.0
  0
XRECORD
  5
3E9
102
{ACAD_REACTORS
330
3CC
102
}
330
3CC
100
AcDbXrecord
 10
0.0
 20
0.0
 30
0.0
  0
XRECORD
  5
3E6
102
{ACAD_REACTORS
330
3CC
102
}
330
3CC
100
AcDbXrecord
 10
0.0
 20
0.0
 30
0.0
  0
XRECORD
  5
3E3
102
{ACAD_REACTORS
330
3CC
102
}
330
3CC
100
AcDbXrecord
340
0
  0
XRECORD
  5
3E4
102
{ACAD_REACTORS
330
3CC
102
}
330
3CC
100
AcDbXrecord
 70
     0
  0
XRECORD
  5
3D8
102
{ACAD_REACTORS
330
3CC
102
}
330
3CC
100
AcDbXrecord
  1
{D0DF9F92-8DB8-11D6-88E6-0090279574E7}
  0
DICTIONARYVAR
  5
3CA
102
{ACAD_REACTORS
330
3C9
102
}
330
3C9
100
DictionaryVariables
280
     0
  1
1
  0
ENDSEC
  0
EOF
