  0
SECTION
  2
HEADER
  9
$ACADVER
  1
AC1014
  9
$ACADMAINTVER
 70
     9
  9
$DWGCODEPAGE
  3
ANSI_1252
  9
$INSBASE
 10
-11.86553670370332
 20
-7.126924713313652
 30
0.0
  9
$EXTMIN
 10
-0.9902327261251855
 20
-6.05961922137639
 30
0.0
  9
$EXTMAX
 10
2.495541499008194
 20
-3.857134409632919
 30
0.0000000000000152
  9
$LIMMIN
 10
0.0
 20
0.0
  9
$LIMMAX
 10
12.0
 20
9.0
  9
$ORTHOMODE
 70
     0
  9
$REGENMODE
 70
     1
  9
$FILLMODE
 70
     1
  9
$QTEXTMODE
 70
     0
  9
$MIRRTEXT
 70
     0
  9
$DRAGMODE
 70
     2
  9
$LTSCALE
 40
1.0
  9
$OSMODE
 70
    39
  9
$ATTMODE
 70
     1
  9
$TEXTSIZE
 40
0.125
  9
$TRACEWID
 40
0.05
  9
$TEXTSTYLE
  7
ROMANS
  9
$CLAYER
  8
DIM
  9
$CELTYPE
  6
BYLAYER
  9
$CECOLOR
 62
   256
  9
$CELTSCALE
 40
1.0
  9
$DELOBJ
 70
     1
  9
$DISPSILH
 70
     1
  9
$DIMSCALE
 40
1.0
  9
$DIMASZ
 40
0.125
  9
$DIMEXO
 40
0.125
  9
$DIMDLI
 40
0.38
  9
$DIMRND
 40
0.0
  9
$DIMDLE
 40
0.0
  9
$DIMEXE
 40
0.125
  9
$DIMTP
 40
0.0
  9
$DIMTM
 40
0.0
  9
$DIMTXT
 40
0.125
  9
$DIMCEN
 40
-0.125
  9
$DIMTSZ
 40
0.0
  9
$DIMTOL
 70
     0
  9
$DIMLIM
 70
     0
  9
$DIMTIH
 70
     1
  9
$DIMTOH
 70
     1
  9
$DIMSE1
 70
     0
  9
$DIMSE2
 70
     0
  9
$DIMTAD
 70
     0
  9
$DIMZIN
 70
     4
  9
$DIMBLK
  1

  9
$DIMASO
 70
     1
  9
$DIMSHO
 70
     1
  9
$DIMPOST
  1

  9
$DIMAPOST
  1

  9
$DIMALT
 70
     0
  9
$DIMALTD
 70
     2
  9
$DIMALTF
 40
25.4
  9
$DIMLFAC
 40
0.5
  9
$DIMTOFL
 70
     0
  9
$DIMTVP
 40
0.0
  9
$DIMTIX
 70
     0
  9
$DIMSOXD
 70
     0
  9
$DIMSAH
 70
     0
  9
$DIMBLK1
  1

  9
$DIMBLK2
  1

  9
$DIMSTYLE
  2
STANDARD
  9
$DIMCLRD
 70
     0
  9
$DIMCLRE
 70
     0
  9
$DIMCLRT
 70
     0
  9
$DIMTFAC
 40
1.0
  9
$DIMGAP
 40
0.09
  9
$DIMJUST
 70
     0
  9
$DIMSD1
 70
     0
  9
$DIMSD2
 70
     0
  9
$DIMTOLJ
 70
     1
  9
$DIMTZIN
 70
     4
  9
$DIMALTZ
 70
     0
  9
$DIMALTTZ
 70
     0
  9
$DIMFIT
 70
     3
  9
$DIMUPT
 70
     1
  9
$DIMUNIT
 70
     2
  9
$DIMDEC
 70
     3
  9
$DIMTDEC
 70
     3
  9
$DIMALTU
 70
     2
  9
$DIMALTTD
 70
     2
  9
$DIMTXSTY
  7
ROMANS
  9
$DIMAUNIT
 70
     0
  9
$LUNITS
 70
     2
  9
$LUPREC
 70
     3
  9
$SKETCHINC
 40
0.1
  9
$FILLETRAD
 40
0.015
  9
$AUNITS
 70
     0
  9
$AUPREC
 70
     0
  9
$MENU
  1
.
  9
$ELEVATION
 40
0.0
  9
$PELEVATION
 40
0.0
  9
$THICKNESS
 40
0.0
  9
$LIMCHECK
 70
     0
  9
$BLIPMODE
 70
     0
  9
$CHAMFERA
 40
0.06
  9
$CHAMFERB
 40
0.06
  9
$CHAMFERC
 40
1.0
  9
$CHAMFERD
 40
0.0
  9
$SKPOLY
 70
     1
  9
$TDCREATE
 40
2450955.731341713
  9
$TDUPDATE
 40
2452458.319350381
  9
$TDINDWG
 40
2.0500953472
  9
$TDUSRTIMER
 40
2.0500953472
  9
$USRTIMER
 70
     1
  9
$ANGBASE
 50
0.0
  9
$ANGDIR
 70
     0
  9
$PDMODE
 70
     0
  9
$PDSIZE
 40
0.0
  9
$PLINEWID
 40
0.0
  9
$COORDS
 70
     2
  9
$SPLFRAME
 70
     0
  9
$SPLINETYPE
 70
     6
  9
$SPLINESEGS
 70
     8
  9
$ATTDIA
 70
     0
  9
$ATTREQ
 70
     1
  9
$HANDLING
 70
 22529
  9
$HANDSEED
  5
3ED
  9
$SURFTAB1
 70
     6
  9
$SURFTAB2
 70
     6
  9
$SURFTYPE
 70
     6
  9
$SURFU
 70
     6
  9
$SURFV
 70
     6
  9
$UCSNAME
  2

  9
$UCSORG
 10
0.0
 20
0.0
 30
0.0
  9
$UCSXDIR
 10
1.0
 20
0.0
 30
0.0
  9
$UCSYDIR
 10
0.0
 20
1.0
 30
0.0
  9
$PUCSNAME
  2

  9
$PUCSORG
 10
0.0
 20
0.0
 30
0.0
  9
$PUCSXDIR
 10
1.0
 20
0.0
 30
0.0
  9
$PUCSYDIR
 10
0.0
 20
1.0
 30
0.0
  9
$USERI1
 70
     0
  9
$USERI2
 70
     0
  9
$USERI3
 70
     0
  9
$USERI4
 70
     0
  9
$USERI5
 70
     0
  9
$USERR1
 40
0.0
  9
$USERR2
 40
0.0
  9
$USERR3
 40
0.0
  9
$USERR4
 40
0.0
  9
$USERR5
 40
0.0
  9
$WORLDVIEW
 70
     1
  9
$SHADEDGE
 70
     3
  9
$SHADEDIF
 70
    70
  9
$TILEMODE
 70
     1
  9
$MAXACTVP
 70
    48
  9
$PINSBASE
 10
0.0
 20
0.0
 30
0.0
  9
$PLIMCHECK
 70
     0
  9
$PEXTMIN
 10
1.000000000000000E+20
 20
1.000000000000000E+20
 30
1.000000000000000E+20
  9
$PEXTMAX
 10
-1.000000000000000E+20
 20
-1.000000000000000E+20
 30
-1.000000000000000E+20
  9
$PLIMMIN
 10
0.0
 20
0.0
  9
$PLIMMAX
 10
12.0
 20
9.0
  9
$UNITMODE
 70
     0
  9
$VISRETAIN
 70
     1
  9
$PLINEGEN
 70
     1
  9
$PSLTSCALE
 70
     1
  9
$TREEDEPTH
 70
  3020
  9
$PICKSTYLE
 70
     1
  9
$CMLSTYLE
  2
STANDARD
  9
$CMLJUST
 70
     0
  9
$CMLSCALE
 40
1.0
  9
$PROXYGRAPHICS
 70
     1
  9
$MEASUREMENT
 70
     0
  0
ENDSEC
  0
SECTION
  2
CLASSES
  0
CLASS
  1
LWPOLYLINE
  2
AcDbPolyline
  3
AutoCAD 2000
 90
        0
280
     0
281
     1
  0
CLASS
  1
ADPART
  2
AcAdPart
  3
"DesignerServices"
 90
        0
280
     1
281
     1
  0
CLASS
  1
ACDBDICTIONARYWDFLT
  2
AcDbDictionaryWithDefault
  3
AutoCAD 2000
 90
        0
280
     0
281
     0
  0
CLASS
  1
ACDBPLACEHOLDER
  2
AcDbPlaceHolder
  3
AutoCAD 2000
 90
        0
280
     0
281
     0
  0
CLASS
  1
LAYOUT
  2
AcDbLayout
  3
AutoCAD 2000
 90
        0
280
     0
281
     0
  0
CLASS
  1
DICTIONARYVAR
  2
AcDbDictionaryVar
  3
AutoCAD 2000
 90
        0
280
     0
281
     0
  0
CLASS
  1
LONG_TRANSACTION
  2
AcDbLongTransaction
  3
AutoCAD 2000
 90
        0
280
     0
281
     0
  0
CLASS
  1
LWPOLYLINE
  2
AcDbPolyline
  3
AutoCAD 2000
 90
        0
280
     0
281
     1
  0
CLASS
  1
HATCH
  2
AcDbHatch
  3
AutoCAD 2000
 90
        0
280
     0
281
     1
  0
CLASS
  1
XRECORD
  2
AcDbXrecord
  3
AutoCAD 2000
 90
        0
280
     0
281
     0
  0
ENDSEC
  0
SECTION
  2
TABLES
  0
TABLE
  2
VPORT
  5
12
330
0
100
AcDbSymbolTable
 70
     2
  0
VPORT
  5
3C8
330
12
100
AcDbSymbolTableRecord
100
AcDbViewportTableRecord
  2
*ACTIVE
 70
     0
 10
0.0
 20
0.0
 11
1.0
 21
1.0
 12
0.7526543864415048
 22
-4.958376815504655
 13
0.0
 23
0.0
 14
0.5
 24
0.5
 15
0.5
 25
0.5
 16
0.0
 26
0.0
 36
1.0
 17
0.0
 27
0.0
 37
0.0
 40
2.263664945403011
 41
4.320930232558139
 42
50.0
 43
0.0
 44
0.0
 50
0.0
 51
0.0
 71
     0
 72
  2000
 73
     1
 74
     1
 75
     0
 76
     0
 77
     0
 78
     0
  0
ENDTAB
  0
TABLE
  2
LTYPE
  5
D
330
0
100
AcDbSymbolTable
 70
     1
  0
LTYPE
  5
E
330
D
100
AcDbSymbolTableRecord
100
AcDbLinetypeTableRecord
  2
BYBLOCK
 70
     0
  3

 72
    65
 73
     0
 40
0.0
  0
LTYPE
  5
F
330
D
100
AcDbSymbolTableRecord
100
AcDbLinetypeTableRecord
  2
BYLAYER
 70
     0
  3

 72
    65
 73
     0
 40
0.0
  0
LTYPE
  5
5
330
D
100
AcDbSymbolTableRecord
100
AcDbLinetypeTableRecord
  2
CONTINUOUS
 70
     0
  3
Solid line
 72
    65
 73
     0
 40
0.0
  0
ENDTAB
  0
TABLE
  2
LAYER
  5
A
330
0
100
AcDbSymbolTable
 70
     4
  0
LAYER
  5
4
330
A
100
AcDbSymbolTableRecord
100
AcDbLayerTableRecord
  2
0
 70
     0
 62
     7
  6
CONTINUOUS
  0
LAYER
  5
28
330
A
100
AcDbSymbolTableRecord
100
AcDbLayerTableRecord
  2
TEXT
 70
     0
 62
     3
  6
CONTINUOUS
  0
LAYER
  5
20
330
A
100
AcDbSymbolTableRecord
100
AcDbLayerTableRecord
  2
BORDER
 70
     0
 62
     4
  6
CONTINUOUS
  0
LAYER
  5
1B
330
A
100
AcDbSymbolTableRecord
100
AcDbLayerTableRecord
  2
DIM
 70
     0
 62
     4
  6
CONTINUOUS
  0
ENDTAB
  0
TABLE
  2
STYLE
  5
B
330
0
100
AcDbSymbolTable
 70
     4
  0
STYLE
  5
C
330
B
100
AcDbSymbolTableRecord
100
AcDbTextStyleTableRecord
  2
STANDARD
 70
     0
 40
0.0
 41
1.0
 50
0.0
 71
     0
 42
0.2
  3
txt
  4

  0
STYLE
  5
1C
330
B
100
AcDbSymbolTableRecord
100
AcDbTextStyleTableRecord
  2
ROMANS
 70
     0
 40
0.0
 41
1.0
 50
0.0
 71
     0
 42
0.125
  3
romans.shx
  4

  0
STYLE
  5
21
330
B
100
AcDbSymbolTableRecord
100
AcDbTextStyleTableRecord
  2
ROMAND
 70
     0
 40
0.0
 41
1.0
 50
0.0
 71
     0
 42
0.07
  3
romand
  4

  0
STYLE
  5
1F0
330
B
100
AcDbSymbolTableRecord
100
AcDbTextStyleTableRecord
  2
ITALICC
 70
     0
 40
0.0
 41
1.0
 50
0.0
 71
     0
 42
0.125
  3
italicc
  4

  0
ENDTAB
  0
TABLE
  2
VIEW
  5
10
330
0
100
AcDbSymbolTable
 70
     0
  0
ENDTAB
  0
TABLE
  2
UCS
  5
11
330
0
100
AcDbSymbolTable
 70
     0
  0
ENDTAB
  0
TABLE
  2
APPID
  5
14
330
0
100
AcDbSymbolTable
 70
     5
  0
APPID
  5
15
330
14
100
AcDbSymbolTableRecord
100
AcDbRegAppTableRecord
  2
ACAD
 70
     0
  0
APPID
  5
1F1
330
14
100
AcDbSymbolTableRecord
100
AcDbRegAppTableRecord
  2
AD_DRAW
 70
     0
  0
APPID
  5
1F2
330
14
100
AcDbSymbolTableRecord
100
AcDbRegAppTableRecord
  2
DESIGNERASSEMBLIES
 70
     0
  0
APPID
  5
1F3
330
14
100
AcDbSymbolTableRecord
100
AcDbRegAppTableRecord
  2
MCAD_NO_VIS
 70
     0
  0
APPID
  5
1F4
330
14
100
AcDbSymbolTableRecord
100
AcDbRegAppTableRecord
  2
ASURF_PCURVE_APPNAME
 70
     0
  0
ENDTAB
  0
TABLE
  2
DIMSTYLE
  5
16
330
0
100
AcDbSymbolTable
 70
     1
  0
DIMSTYLE
105
1E
330
16
100
AcDbSymbolTableRecord
100
AcDbDimStyleTableRecord
  2
STANDARD
 70
     0
  3

  4

  5

  6

  7

 40
1.0
 41
0.125
 42
0.125
 43
0.38
 44
0.125
 45
0.0
 46
0.0
 47
0.0
 48
0.0
140
0.125
141
-0.125
142
0.0
143
25.4
144
0.5
145
0.0
146
1.0
147
0.09
 71
     0
 72
     0
 73
     1
 74
     1
 75
     0
 76
     0
 77
     0
 78
     4
170
     0
171
     2
172
     0
173
     0
174
     0
175
     0
176
     0
177
     0
178
     0
270
     2
271
     3
272
     3
273
     2
274
     2
340
1C
275
     0
280
     0
281
     0
282
     0
283
     1
284
     4
285
     0
286
     0
287
     3
288
     1
  0
ENDTAB
  0
TABLE
  2
BLOCK_RECORD
  5
1
330
0
100
AcDbSymbolTable
 70
     0
  0
BLOCK_RECORD
  5
2
102
{ACAD_XDICTIONARY
360
3E9
102
}
330
1
100
AcDbSymbolTableRecord
100
AcDbBlockTableRecord
  2
*MODEL_SPACE
  0
BLOCK_RECORD
  5
7
102
{ACAD_XDICTIONARY
360
3EB
102
}
330
1
100
AcDbSymbolTableRecord
100
AcDbBlockTableRecord
  2
*PAPER_SPACE
  0
ENDTAB
  0
ENDSEC
  0
SECTION
  2
BLOCKS
  0
BLOCK
  5
3
330
2
100
AcDbEntity
  8
0
100
AcDbBlockBegin
  2
*MODEL_SPACE
 70
     0
 10
0.0
 20
0.0
 30
0.0
  3
*MODEL_SPACE
  1

  0
ENDBLK
  5
6
330
2
100
AcDbEntity
  8
0
100
AcDbBlockEnd
  0
BLOCK
  5
8
330
7
100
AcDbEntity
 67
     1
  8
0
100
AcDbBlockBegin
  2
*PAPER_SPACE
 70
     0
 10
0.0
 20
0.0
 30
0.0
  3
*PAPER_SPACE
  1

  0
ENDBLK
  5
9
330
7
100
AcDbEntity
 67
     1
  8
0
100
AcDbBlockEnd
  0
ENDSEC
  0
SECTION
  2
ENTITIES
  0
LWPOLYLINE
  5
1B2
330
2
100
AcDbEntity
  8
0
100
AcDbPolyline
 90
       45
 70
   128
 43
0.0
 10
0.6062147958550384
 20
-5.245562437990419
 10
0.606215081694856
 20
-5.300562731560987
 42
0.4142135623731471
 10
0.616215133665321
 20
-5.310562679590253
 10
0.7451949308755666
 20
-5.310562009274507
 42
0.3244832340762837
 10
0.7547005679254966
 20
-5.303667146348102
 10
1.033600742228777
 20
-4.449876069825729
 42
0.5100228893382872
 10
1.005083519255386
 20
-4.410560658605755
 10
0.7957912644712853
 20
-4.410561746310169
 42
-0.4142135623731006
 10
0.7157908487075666
 20
-4.330562162076049
 10
0.7157887179129965
 20
-3.920562168014875
 42
0.4142136009913129
 10
0.7057886646240199
 20
-3.910562219985617
 10
0.6037078558037603
 20
-3.91056276396516
 42
0.4142135237547893
 10
0.5887079357376273
 20
-3.925562841920845
 10
0.5887080916494583
 20
-3.955562848513004
 42
-0.4142135623731125
 10
0.5737081696055597
 20
-3.970562926468701
 10
0.5487081696058951
 20
-3.970563056395196
 42
-0.414213562373017
 10
0.5387081176354301
 20
-3.960563108365931
 10
0.5387076499000401
 20
-3.870563109026395
 42
-0.4142135237547872
 10
0.5487075966107966
 20
-3.860563057055937
 10
0.7557884047703141
 20
-3.860561953540745
 42
-0.4142136009913259
 10
0.7657884580592907
 20
-3.870561901570003
 10
0.7657908487068906
 20
-4.330561902223049
 42
0.4142135623731006
 10
0.7957910046182857
 20
-4.360561746310844
 10
1.041016592735244
 20
-4.360560471858747
 42
0.3244832340762992
 10
1.069533503885034
 20
-4.339875883079529
 10
1.203352916239927
 20
-3.930217407893901
 42
0.5100228893382704
 10
1.189094304753233
 20
-3.910559702283914
 10
1.10070785777478
 20
-3.910560161633581
 42
0.4142135623731737
 10
1.085707935730882
 20
-3.925560239589282
 10
1.085708088075396
 20
-3.954873833651483
 42
-0.4142135623731211
 10
1.075708140046128
 20
-3.964873885621948
 10
1.045708140046524
 20
-3.964874041533743
 42
-0.4142135623729909
 10
1.035708088076059
 20
-3.954874093504479
 10
1.03570764989325
 20
-3.870560499443019
 42
-0.4142135623730951
 10
1.045707597922518
 20
-3.860560447472554
 10
1.264920897454889
 20
-3.860559308207893
 42
-0.5100228893382836
 10
1.274426638446016
 20
-3.873664445281217
 10
0.7909676634346888
 20
-5.353666957866503
 42
-0.3244832340762837
 10
0.7814620263847587
 20
-5.360561820792907
 10
0.5662153935189878
 20
-5.360562939442574
 10
0.5637148827107481
 20
-5.360562939442574
 42
-0.8581883113412812
 10
0.5562151396467705
 20
-5.311713765577342
 10
0.5562149267713821
 20
-5.270753031093846
 42
-0.3153002173088049
 10
0.5627947253379873
 20
-5.261356052915388
 10
0.6061615107071674
 20
-5.245571833885195
  0
TEXT
  5
2EA
330
2
100
AcDbEntity
  8
TEXT
100
AcDbText
 10
-0.0028596548808584
 20
-5.600770244447971
 30
0.0
 40
0.125
  1
PART #110617
  7
ITALICC
 72
     1
 11
0.753092726071523
 21
-5.600770244447971
 31
0.0
100
AcDbText
  0
TEXT
  5
2EB
330
2
100
AcDbEntity
  8
TEXT
100
AcDbText
 10
1.166397884321844
 20
-5.954434460154055
 30
0.0
 40
0.0522247191011236
  1
Minneapolis, MN 55432-0008
 41
1.11444212721585
 72
     5
 11
2.495330468591508
 21
-5.954434460154055
 31
0.0
100
AcDbText
  0
TEXT
  5
2EC
330
2
100
AcDbEntity
  8
TEXT
100
AcDbText
 10
1.166397884321844
 20
-5.861176033187763
 30
0.0
 40
0.0522247191011236
  1
6536 Main St. N.E. * P.O. Box 32008
 41
0.8388932496075369
 72
     5
 11
2.495330468591508
 21
-5.861176033187763
 31
0.0
100
AcDbText
  0
TEXT
  5
2ED
330
2
100
AcDbEntity
  8
TEXT
100
AcDbText
 10
1.166397884321844
 20
-5.76791760622147
 30
0.0
 40
0.0522247191011236
  1
Stylmark  Incorporated
 41
1.221428571428571
 72
     5
 11
2.495330468591508
 21
-5.76791760622147
 31
0.0
100
AcDbText
  0
LWPOLYLINE
  5
2EE
330
2
100
AcDbEntity
  8
TEXT
100
AcDbPolyline
 90
        5
 70
     0
 43
0.0001332181640625
 10
-0.79638946985484
 20
-5.924056762178227
 10
-0.8097112862610886
 20
-5.924056762178227
 10
-0.8097112862610886
 20
-5.960691757295413
 10
-0.8463462813782784
 20
-5.960691757295413
 10
-0.8463462813782784
 20
-5.974013573701664
  0
LWPOLYLINE
  5
2EF
330
2
100
AcDbEntity
  8
TEXT
100
AcDbPolyline
 90
        2
 70
     0
 43
0.0006660908203125
 10
-0.7497631124329649
 20
-5.934048124482912
 10
-0.7231194796204639
 20
-5.934048124482912
  0
LWPOLYLINE
  5
2F0
330
2
100
AcDbEntity
  8
TEXT
100
AcDbPolyline
 90
        2
 70
     0
 43
0.0006660908203125
 10
-0.8363549190735897
 20
-6.020639931123539
 10
-0.8363549190735897
 20
-6.04728356393604
  0
LWPOLYLINE
  5
2F1
330
2
100
AcDbEntity
  8
TEXT
100
AcDbPolyline
 90
        3
 70
     0
 43
0.0006660908203125
 10
-0.8363549190735897
 20
-6.04728356393604
 10
-0.7231194796204639
 20
-6.04728356393604
 10
-0.7231194796204639
 20
-5.934048124482912
  0
LWPOLYLINE
  5
2F2
330
2
100
AcDbEntity
  8
TEXT
100
AcDbPolyline
 90
        3
 70
     0
 43
0.0006660908203125
 10
-0.8363549190735897
 20
-6.020639931123539
 10
-0.7497631124329649
 20
-6.020639931123539
 10
-0.7497631124329649
 20
-5.934048124482912
  0
LWPOLYLINE
  5
2F3
330
2
100
AcDbEntity
  8
TEXT
100
AcDbPolyline
 90
        2
 70
     0
 43
0.0001332181640625
 10
-0.8463462813782784
 20
-5.974013573701664
 10
-0.8363549190735897
 20
-6.04728356393604
  0
LWPOLYLINE
  5
2F4
330
2
100
AcDbEntity
  8
TEXT
100
AcDbPolyline
 90
        2
 70
     0
 43
0.0001332181640625
 10
-0.8363549190735897
 20
-6.020639931123539
 10
-0.8463462813782784
 20
-5.960691757295413
  0
LWPOLYLINE
  5
2F5
330
2
100
AcDbEntity
  8
TEXT
100
AcDbPolyline
 90
        2
 70
     0
 43
0.0001332181640625
 10
-0.7497631124329649
 20
-6.020639931123539
 10
-0.8097112862610886
 20
-5.960691757295413
  0
LWPOLYLINE
  5
2F6
330
2
100
AcDbEntity
  8
TEXT
100
AcDbPolyline
 90
        2
 70
     0
 43
0.0001332181640625
 10
-0.7497631124329649
 20
-5.934048124482912
 10
-0.8097112862610886
 20
-5.924056762178227
  0
LWPOLYLINE
  5
2F7
330
2
100
AcDbEntity
  8
TEXT
100
AcDbPolyline
 90
        2
 70
     0
 43
0.0001332181640625
 10
-0.7231194796204639
 20
-5.934048124482912
 10
-0.79638946985484
 20
-5.924056762178227
  0
LWPOLYLINE
  5
2F8
330
2
100
AcDbEntity
  8
TEXT
100
AcDbPolyline
 90
        2
 70
     0
 43
0.0001332181640625
 10
-0.8363549190735897
 20
-5.780847235811036
 10
-0.8463462813782784
 20
-5.854117226045416
  0
LWPOLYLINE
  5
2F9
330
2
100
AcDbEntity
  8
TEXT
100
AcDbPolyline
 90
        2
 70
     0
 43
0.0001332181640625
 10
-0.8363549190735897
 20
-5.807490868623538
 10
-0.8463462813782784
 20
-5.867439042451663
  0
LWPOLYLINE
  5
2FA
330
2
100
AcDbEntity
  8
TEXT
100
AcDbPolyline
 90
        2
 70
     0
 43
0.0001332181640625
 10
-0.7497631124329649
 20
-5.807490868623538
 10
-0.8097112862610886
 20
-5.867439042451663
  0
LWPOLYLINE
  5
2FB
330
2
100
AcDbEntity
  8
TEXT
100
AcDbPolyline
 90
        2
 70
     0
 43
0.0001332181640625
 10
-0.7497631124329649
 20
-5.894082675264164
 10
-0.8097112862610886
 20
-5.904074037568853
  0
LWPOLYLINE
  5
2FC
330
2
100
AcDbEntity
  8
TEXT
100
AcDbPolyline
 90
        2
 70
     0
 43
0.0001332181640625
 10
-0.79638946985484
 20
-5.904074037568853
 10
-0.7231194796204639
 20
-5.894082675264164
  0
LWPOLYLINE
  5
2FD
330
2
100
AcDbEntity
  8
TEXT
100
AcDbPolyline
 90
        3
 70
     0
 43
0.0006660908203125
 10
-0.7497631124329649
 20
-5.894082675264164
 10
-0.7497631124329649
 20
-5.807490868623538
 10
-0.8363549190735897
 20
-5.807490868623538
  0
LWPOLYLINE
  5
2FE
330
2
100
AcDbEntity
  8
TEXT
100
AcDbPolyline
 90
        3
 70
     0
 43
0.0006660908203125
 10
-0.7231194796204639
 20
-5.894082675264164
 10
-0.7231194796204639
 20
-5.780847235811036
 10
-0.8363549190735897
 20
-5.780847235811036
  0
LWPOLYLINE
  5
2FF
330
2
100
AcDbEntity
  8
TEXT
100
AcDbPolyline
 90
        2
 70
     0
 43
0.0006660908203125
 10
-0.7497631124329649
 20
-5.894082675264164
 10
-0.7231194796204639
 20
-5.894082675264164
  0
LWPOLYLINE
  5
300
330
2
100
AcDbEntity
  8
TEXT
100
AcDbPolyline
 90
        2
 70
     0
 43
0.0006660908203125
 10
-0.8363549190735897
 20
-5.807490868623538
 10
-0.8363549190735897
 20
-5.780847235811036
  0
LWPOLYLINE
  5
301
330
2
100
AcDbEntity
  8
TEXT
100
AcDbPolyline
 90
        5
 70
     0
 43
0.0001332181640625
 10
-0.8463462813782784
 20
-5.854117226045416
 10
-0.8463462813782784
 20
-5.867439042451663
 10
-0.8097112862610886
 20
-5.867439042451663
 10
-0.8097112862610886
 20
-5.904074037568853
 10
-0.79638946985484
 20
-5.904074037568853
  0
LWPOLYLINE
  5
302
330
2
100
AcDbEntity
  8
TEXT
100
AcDbPolyline
 90
        2
 70
     0
 43
0.0001332181640625
 10
-0.9895558077454635
 20
-5.894082675264164
 10
-0.9162858175110892
 20
-5.904074037568853
  0
LWPOLYLINE
  5
303
330
2
100
AcDbEntity
  8
TEXT
100
AcDbPolyline
 90
        2
 70
     0
 43
0.0001332181640625
 10
-0.9629121749329661
 20
-5.894082675264164
 10
-0.9029640011048405
 20
-5.904074037568853
  0
LWPOLYLINE
  5
304
330
2
100
AcDbEntity
  8
TEXT
100
AcDbPolyline
 90
        2
 70
     0
 43
0.0001332181640625
 10
-0.9629121749329661
 20
-5.807490868623538
 10
-0.9029640011048405
 20
-5.867439042451663
  0
LWPOLYLINE
  5
305
330
2
100
AcDbEntity
  8
TEXT
100
AcDbPolyline
 90
        2
 70
     0
 43
0.0001332181640625
 10
-0.8763203682923412
 20
-5.807490868623538
 10
-0.8663290059876507
 20
-5.867439042451663
  0
LWPOLYLINE
  5
306
330
2
100
AcDbEntity
  8
TEXT
100
AcDbPolyline
 90
        2
 70
     0
 43
0.0001332181640625
 10
-0.8663290059876507
 20
-5.854117226045416
 10
-0.8763203682923412
 20
-5.780847235811036
  0
LWPOLYLINE
  5
307
330
2
100
AcDbEntity
  8
TEXT
100
AcDbPolyline
 90
        3
 70
     0
 43
0.0006660908203125
 10
-0.8763203682923412
 20
-5.807490868623538
 10
-0.9629121749329661
 20
-5.807490868623538
 10
-0.9629121749329661
 20
-5.894082675264164
  0
LWPOLYLINE
  5
308
330
2
100
AcDbEntity
  8
TEXT
100
AcDbPolyline
 90
        3
 70
     0
 43
0.0006660908203125
 10
-0.8763203682923412
 20
-5.780847235811036
 10
-0.9895558077454635
 20
-5.780847235811036
 10
-0.9895558077454635
 20
-5.894082675264164
  0
LWPOLYLINE
  5
309
330
2
100
AcDbEntity
  8
TEXT
100
AcDbPolyline
 90
        2
 70
     0
 43
0.0006660908203125
 10
-0.8763203682923412
 20
-5.807490868623538
 10
-0.8763203682923412
 20
-5.780847235811036
  0
LWPOLYLINE
  5
30A
330
2
100
AcDbEntity
  8
TEXT
100
AcDbPolyline
 90
        2
 70
     0
 43
0.0006660908203125
 10
-0.9629121749329661
 20
-5.894082675264164
 10
-0.9895558077454635
 20
-5.894082675264164
  0
LWPOLYLINE
  5
30B
330
2
100
AcDbEntity
  8
TEXT
100
AcDbPolyline
 90
        5
 70
     0
 43
0.0001332181640625
 10
-0.9162858175110892
 20
-5.904074037568853
 10
-0.9029640011048405
 20
-5.904074037568853
 10
-0.9029640011048405
 20
-5.867439042451663
 10
-0.8663290059876507
 20
-5.867439042451663
 10
-0.8663290059876507
 20
-5.854117226045416
  0
LWPOLYLINE
  5
30C
330
2
100
AcDbEntity
  8
TEXT
100
AcDbPolyline
 90
        2
 70
     0
 43
0.0001332181640625
 10
-0.8763203682923412
 20
-6.04728356393604
 10
-0.8663290059876507
 20
-5.974013573701664
  0
LWPOLYLINE
  5
30D
330
2
100
AcDbEntity
  8
TEXT
100
AcDbPolyline
 90
        2
 70
     0
 43
0.0001332181640625
 10
-0.8763203682923412
 20
-6.020639931123539
 10
-0.8663290059876507
 20
-5.960691757295413
  0
LWPOLYLINE
  5
30E
330
2
100
AcDbEntity
  8
TEXT
100
AcDbPolyline
 90
        2
 70
     0
 43
0.0001332181640625
 10
-0.9629121749329661
 20
-6.020639931123539
 10
-0.9029640011048387
 20
-5.960691757295413
  0
LWPOLYLINE
  5
30F
330
2
100
AcDbEntity
  8
TEXT
100
AcDbPolyline
 90
        2
 70
     0
 43
0.0001332181640625
 10
-0.9629121749329661
 20
-5.934048124482912
 10
-0.9029640011048387
 20
-5.924056762178227
  0
LWPOLYLINE
  5
310
330
2
100
AcDbEntity
  8
TEXT
100
AcDbPolyline
 90
        2
 70
     0
 43
0.0001332181640625
 10
-0.9162858175110892
 20
-5.924056762178227
 10
-0.9895558077454635
 20
-5.934048124482912
  0
LWPOLYLINE
  5
311
330
2
100
AcDbEntity
  8
TEXT
100
AcDbPolyline
 90
        3
 70
     0
 43
0.0006660908203125
 10
-0.9629121749329661
 20
-5.934048124482912
 10
-0.9629121749329661
 20
-6.020639931123539
 10
-0.8763203682923412
 20
-6.020639931123539
  0
LWPOLYLINE
  5
312
330
2
100
AcDbEntity
  8
TEXT
100
AcDbPolyline
 90
        3
 70
     0
 43
0.0006660908203125
 10
-0.9895558077454635
 20
-5.934048124482912
 10
-0.9895558077454635
 20
-6.04728356393604
 10
-0.8763203682923412
 20
-6.04728356393604
  0
LWPOLYLINE
  5
313
330
2
100
AcDbEntity
  8
TEXT
100
AcDbPolyline
 90
        2
 70
     0
 43
0.0006660908203125
 10
-0.9629121749329661
 20
-5.934048124482912
 10
-0.9895558077454635
 20
-5.934048124482912
  0
LWPOLYLINE
  5
314
330
2
100
AcDbEntity
  8
TEXT
100
AcDbPolyline
 90
        2
 70
     0
 43
0.0006660908203125
 10
-0.8763203682923412
 20
-6.020639931123539
 10
-0.8763203682923412
 20
-6.04728356393604
  0
LWPOLYLINE
  5
315
330
2
100
AcDbEntity
  8
TEXT
100
AcDbPolyline
 90
        5
 70
     0
 43
0.0001332181640625
 10
-0.8663290059876507
 20
-5.974013573701664
 10
-0.8663290059876507
 20
-5.960691757295413
 10
-0.9029640011048387
 20
-5.960691757295413
 10
-0.9029640011048387
 20
-5.924056762178227
 10
-0.9162858175110892
 20
-5.924056762178227
  0
LWPOLYLINE
  5
316
330
2
100
AcDbEntity
  8
TEXT
100
AcDbPolyline
 90
        6
 70
     1
 43
0.0
 10
-0.1896892776882124
 20
-5.845123930467805
 10
-0.2200058719084206
 20
-5.845123930467805
 10
-0.2200058719084206
 20
-5.9682349285227
 42
0.407328721240804
 10
-0.2084622207469442
 20
-5.980053843199086
 10
-0.1478405217022134
 20
-5.980053843199086
 10
-0.1303751812948954
 20
-5.947241614155607
  0
LWPOLYLINE
  5
317
330
2
100
AcDbEntity
  8
TEXT
100
AcDbPolyline
 90
        2
 70
     0
 43
0.0
 10
0.417395852538935
 20
-6.003829323849113
 42
0.2901071551932823
 10
0.4604717854065706
 20
-6.047320268799551
 42
5.328517124445801
  0
LWPOLYLINE
  5
318
330
2
100
AcDbEntity
  8
TEXT
100
AcDbPolyline
 90
        2
 70
     0
 43
0.0
 10
0.4604717854065706
 20
-6.047320268799551
 10
0.5944892030379472
 20
-6.047320268799551
 42
0.9999999999999998
  0
LWPOLYLINE
  5
319
330
2
100
AcDbEntity
  8
TEXT
100
AcDbPolyline
 90
        4
 70
     1
 43
0.0
 10
0.5743667379680546
 20
-5.944356290815526
 10
0.4857064193081962
 20
-5.944356290815526
 42
0.9999999999999998
 10
0.4857064193081962
 20
-5.986754831319387
 10
0.5743667379680546
 20
-5.986754831319387
 42
1.0
  0
LWPOLYLINE
  5
31A
330
2
100
AcDbEntity
  8
TEXT
100
AcDbPolyline
 90
        2
 70
     0
 43
0.0
 10
0.6375651359055916
 20
-6.003829323849113
 42
-0.2901071551932486
 10
0.5944892030379472
 20
-6.047320268799551
 42
-5.328517124445184
  0
LWPOLYLINE
  5
31B
330
2
100
AcDbEntity
  8
TEXT
100
AcDbPolyline
 90
        2
 70
     0
 43
0.0
 10
0.6375651359055916
 20
-6.003829323849113
 10
0.6375651359055916
 20
-6.047320268799551
  0
LWPOLYLINE
  5
31C
330
2
100
AcDbEntity
  8
TEXT
100
AcDbPolyline
 90
        2
 70
     0
 43
0.0
 10
0.6375651359055916
 20
-6.047320268799551
 10
0.6959203497409257
 20
-6.047320268799551
  0
LWPOLYLINE
  5
31D
330
2
100
AcDbEntity
  8
TEXT
100
AcDbPolyline
 90
        2
 70
     0
 43
0.0
 10
0.2126183472160599
 20
-5.845123930467805
 42
-0.4142135623731017
 10
0.2201721363821734
 20
-5.852677719633915
 42
-0.9999999999999998
  0
LWPOLYLINE
  5
31E
330
2
100
AcDbEntity
  8
TEXT
100
AcDbPolyline
 90
        2
 70
     0
 43
0.0
 10
-0.0043395588718336
 20
-5.995768926584623
 42
0.3318488747599744
 10
0.0647797336934795
 20
-6.047320268799551
 42
-6.868794160588311
  0
LWPOLYLINE
  5
31F
330
2
100
AcDbEntity
  8
TEXT
100
AcDbPolyline
 90
        4
 70
     0
 43
0.0
 10
0.3489175692510771
 20
-5.852677719633915
 10
0.3489175692510771
 20
-6.047320268799551
 10
0.417395852538935
 20
-6.047320268799551
 10
0.417395852538935
 20
-6.003829323849113
 42
-1.714843617202739
  0
LWPOLYLINE
  5
320
330
2
100
AcDbEntity
  8
TEXT
100
AcDbPolyline
 90
        2
 70
     0
 43
0.0
 10
0.3413637800849636
 20
-5.845123930467805
 42
-0.4142135623731017
 10
0.3489175692510771
 20
-5.852677719633915
 42
-0.9999999999999998
  0
LWPOLYLINE
  5
321
330
2
100
AcDbEntity
  8
TEXT
100
AcDbPolyline
 90
        2
 70
     0
 43
0.0
 10
0.2299700702660812
 20
-5.780847235811036
 42
-0.3328679258950098
 10
0.2657517609792426
 20
-5.808014732571932
 42
6.772930709997214
  0
LWPOLYLINE
  5
322
330
2
100
AcDbEntity
  8
TEXT
100
AcDbPolyline
 90
        3
 70
     0
 43
0.0
 10
0.384051919795287
 20
-5.780847235811036
 10
0.2657517609792426
 20
-5.780847235811036
 10
0.2657517609792426
 20
-5.808014732571932
 42
-1.960274751411753
  0
LWPOLYLINE
  5
323
330
2
100
AcDbEntity
  8
TEXT
100
AcDbPolyline
 90
        2
 70
     0
 43
0.0
 10
0.384051919795287
 20
-5.780847235811036
 42
-0.3277054968067132
 10
0.419833610508452
 20
-5.80916978158068
 42
6.667889725900311
  0
LINE
  5
324
330
2
100
AcDbEntity
  8
TEXT
100
AcDbLine
 10
0.0647797336934786
 20
-6.047320268799551
 30
0.0
 11
0.1627830673929131
 21
-6.047320268799551
 31
0.0
  0
LINE
  5
325
330
2
100
AcDbEntity
  8
TEXT
100
AcDbLine
 10
0.1627830673929131
 20
-6.047320268799551
 30
0.0
 11
0.1627830673929131
 21
-5.845123930467805
 31
0.0
  0
LINE
  5
326
330
2
100
AcDbEntity
  8
TEXT
100
AcDbLine
 10
0.1627830673929131
 20
-5.845123930467805
 30
0.0
 11
0.2126183472160608
 21
-5.845123930467805
 31
0.0
  0
LINE
  5
327
330
2
100
AcDbEntity
  8
TEXT
100
AcDbLine
 10
0.2201721363821742
 20
-5.852677719633915
 30
0.0
 11
0.2201721363821742
 21
-6.047320268799551
 31
0.0
  0
LINE
  5
328
330
2
100
AcDbEntity
  8
TEXT
100
AcDbLine
 10
0.2201721363821742
 20
-6.047320268799551
 30
0.0
 11
0.2872301831640143
 21
-6.047320268799551
 31
0.0
  0
LINE
  5
329
330
2
100
AcDbEntity
  8
TEXT
100
AcDbLine
 10
0.2872301831640143
 20
-6.047320268799551
 30
0.0
 11
0.2872301831640143
 21
-5.845123930467805
 31
0.0
  0
LINE
  5
32A
330
2
100
AcDbEntity
  8
TEXT
100
AcDbLine
 10
0.2872301831640143
 20
-5.845123930467805
 30
0.0
 11
0.3413637800849645
 21
-5.845123930467805
 31
0.0
  0
ARC
  5
32B
330
2
100
AcDbEntity
  8
TEXT
100
AcDbCircle
 10
0.4791477069017707
 20
-5.950084485074056
 30
0.0
 40
0.0676855811441166
100
AcDbArc
 50
90.0
 51
153.7768192527749
  0
LINE
  5
32C
330
2
100
AcDbEntity
  8
TEXT
100
AcDbLine
 10
0.2299700702660803
 20
-5.78084723581104
 30
0.0
 11
0.095952014334944
 21
-5.78084723581104
 31
0.0
  0
LINE
  5
32D
330
2
100
AcDbEntity
  8
TEXT
100
AcDbLine
 10
0.095952014334944
 20
-5.78084723581104
 30
0.0
 11
0.095952014334944
 21
-5.981711442543448
 31
0.0
  0
LINE
  5
32E
330
2
100
AcDbEntity
  8
TEXT
100
AcDbLine
 10
0.095952014334944
 20
-5.981711442543448
 30
0.0
 11
0.0789583774503426
 21
-5.981711442543448
 31
0.0
  0
ARC
  5
32F
330
2
100
AcDbEntity
  8
TEXT
100
AcDbCircle
 10
0.0789583774503417
 20
-5.966329636300023
 30
0.0
 40
0.0153818062434269
100
AcDbArc
 50
174.7883570302258
 51
270.0
  0
LINE
  5
330
330
2
100
AcDbEntity
  8
TEXT
100
AcDbLine
 10
0.0636401601972838
 20
-5.964932430696552
 30
0.0
 11
0.0636401601972838
 21
-5.712835758072229
 31
0.0
  0
LINE
  5
331
330
2
100
AcDbEntity
  8
TEXT
100
AcDbLine
 10
0.0636401601972838
 20
-5.712835758072229
 30
0.0
 11
-0.0031685523690812
 21
-5.712835758072229
 31
0.0
  0
LINE
  5
332
330
2
100
AcDbEntity
  8
TEXT
100
AcDbLine
 10
-0.0031685523690812
 20
-5.712835758072229
 30
0.0
 11
-0.0031685523690812
 21
-5.78084723581104
 31
0.0
  0
LINE
  5
333
330
2
100
AcDbEntity
  8
TEXT
100
AcDbLine
 10
-0.0031685523690812
 20
-5.78084723581104
 30
0.0
 11
-0.0332904651624575
 21
-5.78084723581104
 31
0.0
  0
LINE
  5
334
330
2
100
AcDbEntity
  8
TEXT
100
AcDbLine
 10
-0.0332904651624575
 20
-5.78084723581104
 30
0.0
 11
-0.092039027968323
 21
-5.881719231924161
 31
0.0
  0
LINE
  5
335
330
2
100
AcDbEntity
  8
TEXT
100
AcDbLine
 10
-0.092039027968323
 20
-5.881719231924161
 30
0.0
 11
-0.1506693490002608
 21
-5.78084723581104
 31
0.0
  0
LINE
  5
336
330
2
100
AcDbEntity
  8
TEXT
100
AcDbLine
 10
-0.1506693490002608
 20
-5.78084723581104
 30
0.0
 11
-0.2224683151441682
 21
-5.78084723581104
 31
0.0
  0
LINE
  5
337
330
2
100
AcDbEntity
  8
TEXT
100
AcDbLine
 10
-0.2224683151441682
 20
-5.78084723581104
 30
0.0
 11
-0.2224683151441682
 21
-5.746459318216902
 31
0.0
  0
LINE
  5
338
330
2
100
AcDbEntity
  8
TEXT
100
AcDbLine
 10
-0.2224683151441682
 20
-5.746459318216902
 30
0.0
 11
-0.2825109199881752
 21
-5.746459318216902
 31
0.0
  0
LINE
  5
339
330
2
100
AcDbEntity
  8
TEXT
100
AcDbLine
 10
-0.2825109199881752
 20
-5.746459318216902
 30
0.0
 11
-0.2825109199881752
 21
-5.78084723581104
 31
0.0
  0
LINE
  5
33A
330
2
100
AcDbEntity
  8
TEXT
100
AcDbLine
 10
-0.2825109199881752
 20
-5.78084723581104
 30
0.0
 11
-0.4582426728866867
 21
-5.78084723581104
 31
0.0
  0
ARC
  5
33B
330
2
100
AcDbEntity
  8
TEXT
100
AcDbCircle
 10
-0.4582426728866862
 20
-5.862934695257542
 30
0.0
 40
0.0820874594465043
100
AcDbArc
 50
90.0
 51
270.0
  0
LINE
  5
33C
330
2
100
AcDbEntity
  8
TEXT
100
AcDbLine
 10
-0.4582426728866867
 20
-5.945022154704047
 30
0.0
 11
-0.3824648326218578
 21
-5.945022154704047
 31
0.0
  0
ARC
  5
33D
330
2
100
AcDbEntity
  8
TEXT
100
AcDbCircle
 10
-0.3824648326218574
 20
-5.961992708585078
 30
0.0
 40
0.0169705538810321
100
AcDbArc
 50
270.0
 51
90.0
  0
LINE
  5
33E
330
2
100
AcDbEntity
  8
TEXT
100
AcDbLine
 10
-0.3824648326218578
 20
-5.978963262466112
 30
0.0
 11
-0.540330132333192
 21
-5.978963262466112
 31
0.0
  0
LINE
  5
33F
330
2
100
AcDbEntity
  8
TEXT
100
AcDbLine
 10
-0.540330132333192
 20
-5.978963262466112
 30
0.0
 11
-0.5403301323331902
 21
-6.047320268799551
 31
0.0
  0
LINE
  5
340
330
2
100
AcDbEntity
  8
TEXT
100
AcDbLine
 10
-0.5403301323331902
 20
-6.047320268799551
 30
0.0
 11
-0.3874052065281375
 21
-6.047320268799551
 31
0.0
  0
ARC
  5
341
330
2
100
AcDbEntity
  8
TEXT
100
AcDbCircle
 10
-0.387405206528137
 20
-5.964124460438994
 30
0.0
 40
0.0831958083605586
100
AcDbArc
 50
270.0
 51
90.0
  0
LINE
  5
342
330
2
100
AcDbEntity
  8
TEXT
100
AcDbLine
 10
-0.3874052065281375
 20
-5.880928652078433
 30
0.0
 11
-0.4530053427724386
 21
-5.880928652078433
 31
0.0
  0
ARC
  5
343
330
2
100
AcDbEntity
  8
TEXT
100
AcDbCircle
 10
-0.4530053427724381
 20
-5.863026291273118
 30
0.0
 40
0.017902360805315
100
AcDbArc
 50
90.0
 51
270.0
  0
LINE
  5
344
330
2
100
AcDbEntity
  8
TEXT
100
AcDbLine
 10
-0.4530053427724386
 20
-5.845123930467805
 30
0.0
 11
-0.2860996887434681
 21
-5.845123930467805
 31
0.0
  0
LINE
  5
345
330
2
100
AcDbEntity
  8
TEXT
100
AcDbLine
 10
-0.2860996887434681
 20
-5.845123930467805
 30
0.0
 11
-0.2860996887434681
 21
-5.987527877461501
 31
0.0
  0
LINE
  5
346
330
2
100
AcDbEntity
  8
TEXT
100
AcDbLine
 10
0.6959203497409266
 20
-6.047320268799551
 30
0.0
 11
0.6959203497409212
 21
-5.870029763368083
 31
0.0
  0
ARC
  5
347
330
2
100
AcDbEntity
  8
TEXT
100
AcDbCircle
 10
0.7208262250235849
 20
-5.870029805750468
 30
0.0
 40
0.0249058752826653
100
AcDbArc
 50
89.99971217465335
 51
179.9999999999985
  0
LINE
  5
348
330
2
100
AcDbEntity
  8
TEXT
100
AcDbLine
 10
0.7208262250235858
 20
-5.845123930467805
 30
0.0
 11
0.7974742063161436
 21
-5.845123930467805
 31
0.0
  0
LINE
  5
349
330
2
100
AcDbEntity
  8
TEXT
100
AcDbLine
 10
0.7974742063161436
 20
-5.845123930467805
 30
0.0
 11
0.7974742063161489
 21
-6.047320268799551
 31
0.0
  0
LINE
  5
34A
330
2
100
AcDbEntity
  8
TEXT
100
AcDbLine
 10
0.7974742063161489
 20
-6.047320268799551
 30
0.0
 11
0.8618523906347693
 21
-6.047320268799551
 31
0.0
  0
LINE
  5
34B
330
2
100
AcDbEntity
  8
TEXT
100
AcDbLine
 10
0.8618523906347693
 20
-6.047320268799551
 30
0.0
 11
0.8618523906347693
 21
-5.915740700323371
 31
0.0
  0
LINE
  5
34C
330
2
100
AcDbEntity
  8
TEXT
100
AcDbLine
 10
0.8618523906347693
 20
-5.915740700323371
 30
0.0
 11
0.9377559238462339
 21
-6.047320268799551
 31
0.0
  0
LINE
  5
34D
330
2
100
AcDbEntity
  8
TEXT
100
AcDbLine
 10
0.9377559238462339
 20
-6.047320268799551
 30
0.0
 11
1.014334296222439
 21
-6.047320268799551
 31
0.0
  0
LINE
  5
34E
330
2
100
AcDbEntity
  8
TEXT
100
AcDbLine
 10
1.014334296222439
 20
-6.047320268799551
 30
0.0
 11
0.9188420728588294
 21
-5.890740478752014
 31
0.0
  0
LINE
  5
34F
330
2
100
AcDbEntity
  8
TEXT
100
AcDbLine
 10
0.9188420728588294
 20
-5.890740478752014
 30
0.0
 11
0.9833991888245346
 21
-5.78084723581104
 31
0.0
  0
LINE
  5
350
330
2
100
AcDbEntity
  8
TEXT
100
AcDbLine
 10
0.9833991888245346
 20
-5.78084723581104
 30
0.0
 11
0.9084073560949082
 21
-5.78084723581104
 31
0.0
  0
LINE
  5
351
330
2
100
AcDbEntity
  8
TEXT
100
AcDbLine
 10
0.9084073560949065
 20
-5.78084723581104
 30
0.0
 11
0.861309197538922
 21
-5.856712562222578
 31
0.0
  0
LINE
  5
352
330
2
100
AcDbEntity
  8
TEXT
100
AcDbLine
 10
0.861309197538922
 20
-5.856712562222578
 30
0.0
 11
0.861309197538922
 21
-5.715383030043439
 31
0.0
  0
LINE
  5
353
330
2
100
AcDbEntity
  8
TEXT
100
AcDbLine
 10
0.861309197538922
 20
-5.715383030043439
 30
0.0
 11
0.7929943189896487
 21
-5.715383030043439
 31
0.0
  0
LINE
  5
354
330
2
100
AcDbEntity
  8
TEXT
100
AcDbLine
 10
0.7929943189896487
 20
-5.715383030043439
 30
0.0
 11
0.7929943189896434
 21
-5.78084723581104
 31
0.0
  0
LINE
  5
355
330
2
100
AcDbEntity
  8
TEXT
100
AcDbLine
 10
0.7929943189896434
 20
-5.78084723581104
 30
0.0
 11
0.7254946013401269
 21
-5.78084723581104
 31
0.0
  0
ARC
  5
356
330
2
100
AcDbEntity
  8
TEXT
100
AcDbCircle
 10
0.7287151819631626
 20
-5.812092963093305
 30
0.0
 40
0.0314112657011332
100
AcDbArc
 50
95.88484768694724
 51
173.2388340632136
  0
LINE
  5
357
330
2
100
AcDbEntity
  8
TEXT
100
AcDbLine
 10
0.697522364900054
 20
-5.808394885671915
 30
0.0
 11
0.697522364900054
 21
-5.78084723581104
 31
0.0
  0
LINE
  5
358
330
2
100
AcDbEntity
  8
TEXT
100
AcDbLine
 10
0.697522364900054
 20
-5.78084723581104
 30
0.0
 11
0.633625458600553
 21
-5.78084723581104
 31
0.0
  0
LINE
  5
359
330
2
100
AcDbEntity
  8
TEXT
100
AcDbLine
 10
0.633625458600553
 20
-5.78084723581104
 30
0.0
 11
0.633625458600553
 21
-5.886059214364467
 31
0.0
  0
LINE
  5
35A
330
2
100
AcDbEntity
  8
TEXT
100
AcDbLine
 10
0.633625458600553
 20
-5.886059214364467
 30
0.0
 11
0.5898746874186514
 21
-5.803808938368322
 31
0.0
  0
ARC
  5
35B
330
2
100
AcDbEntity
  8
TEXT
100
AcDbCircle
 10
0.5526385799484435
 20
-5.822430802931942
 30
0.0
 40
0.0416329381542859
100
AcDbArc
 50
26.56974201007528
 51
87.20939649401342
  0
LINE
  5
35C
330
2
100
AcDbEntity
  8
TEXT
100
AcDbLine
 10
0.554665519725512
 20
-5.78084723581104
 30
0.0
 11
0.4198336105084528
 21
-5.78084723581104
 31
0.0
  0
LINE
  5
35D
330
2
100
AcDbEntity
  8
TEXT
100
AcDbLine
 10
0.4198336105084528
 20
-5.78084723581104
 30
0.0
 11
0.4198336105084528
 21
-5.809169781580684
 31
0.0
  0
ARC
  5
35E
330
2
100
AcDbEntity
  8
TEXT
100
AcDbCircle
 10
-0.2259836707697156
 20
-5.987527877461501
 30
0.0
 40
0.0601160179737537
100
AcDbArc
 50
180.0000000000003
 51
264.0521544866073
  0
LINE
  5
35F
330
2
100
AcDbEntity
  8
TEXT
100
AcDbLine
 10
-0.2322130812633625
 20
-6.047320268799551
 30
0.0
 11
-0.1355728301883681
 21
-6.047049629701269
 31
0.0
  0
ARC
  5
360
330
2
100
AcDbEntity
  8
TEXT
100
AcDbCircle
 10
-0.1356828248774908
 20
-6.007772546525855
 30
0.0
 40
0.0392772371940762
100
AcDbArc
 50
270.1604552698595
 51
330.0831797321295
  0
LINE
  5
361
330
2
100
AcDbEntity
  8
TEXT
100
AcDbLine
 10
-0.1016392649652773
 20
-6.027361762694538
 30
0.0
 11
-0.0043395588718327
 21
-5.86301155175927
 31
0.0
  0
LINE
  5
362
330
2
100
AcDbEntity
  8
TEXT
100
AcDbLine
 10
-0.0043395588718327
 20
-5.86301155175927
 30
0.0
 11
-0.0043395588718327
 21
-5.995768926584626
 31
0.0
  0
LINE
  5
363
330
2
100
AcDbEntity
  8
TEXT
100
AcDbLine
 10
0.4791477069017716
 20
-5.882398903929938
 30
0.0
 11
0.5614356966851548
 21
-5.882398903929938
 31
0.0
  0
LINE
  5
364
330
2
100
AcDbEntity
  8
TEXT
100
AcDbLine
 10
0.5614356966851548
 20
-5.882398903929938
 30
0.0
 11
0.5511709362715905
 21
-5.861148364357243
 31
0.0
  0
LINE
  5
365
330
2
100
AcDbEntity
  8
TEXT
100
AcDbLine
 10
0.5256346213810335
 20
-5.845123930467805
 30
0.0
 11
0.4184283479937441
 21
-5.845123930467805
 31
0.0
  0
LINE
  5
366
330
2
100
AcDbEntity
  8
TEXT
100
AcDbLine
 10
0.4184283479937441
 20
-5.845123930467805
 30
0.0
 11
0.4184283479937441
 21
-5.920176336542012
 31
0.0
  0
ARC
  5
367
330
2
100
AcDbEntity
  8
TEXT
100
AcDbCircle
 10
0.5256346213810326
 20
-5.873483305467803
 30
0.0
 40
0.028359375
100
AcDbArc
 50
25.78218179591245
 51
90.0
  0
TEXT
  5
368
330
2
100
AcDbEntity
  8
TEXT
100
AcDbText
 10
1.166397884321844
 20
-6.047692887120347
 30
0.0
 40
0.0522247191011236
  1
Phone  1-800-328-2495
 41
1.272321428571429
 72
     5
 11
2.495330468591508
 21
-6.047692887120347
 31
0.0
100
AcDbText
  0
ENDSEC
  0
SECTION
  2
OBJECTS
  0
DICTIONARY
  5
1A
330
0
100
AcDbDictionary
  3
ACAD_GROUP
350
18
  3
ACAD_LAYOUT
350
3BD
  3
ACAD_MLINESTYLE
350
19
  3
ACAD_PLOTSETTINGS
350
3BE
  3
ACAD_PLOTSTYLENAME
350
3BB
  3
ACDBHEADERROUNDTRIPXREC
350
3C9
  3
ACDBVARIABLEDICTIONARY
350
3C6
  0
DICTIONARY
  5
3E9
330
2
100
AcDbDictionary
280
     1
  3
ACAD_LAYOUTSELFREF
360
3EA
  0
DICTIONARY
  5
3EB
330
7
100
AcDbDictionary
280
     1
  3
ACAD_LAYOUTSELFREF
360
3EC
  0
DICTIONARY
  5
18
102
{ACAD_REACTORS
330
1A
102
}
330
1A
100
AcDbDictionary
  3
*A1
350
1F5
  3
*A10
350
20D
  3
*A11
350
20E
  3
*A12
350
1FE
  3
*A13
350
20F
  3
*A14
350
210
  3
*A15
350
211
  3
*A16
350
1F7
  3
*A17
350
212
  3
*A18
350
213
  3
*A19
350
214
  3
*A2
350
206
  3
*A20
350
215
  3
*A21
350
216
  3
*A22
350
217
  3
*A23
350
1FF
  3
*A24
350
218
  3
*A25
350
219
  3
*A26
350
21A
  3
*A27
350
21B
  3
*A28
350
1F8
  3
*A29
350
21C
  3
*A3
350
207
  3
*A30
350
21D
  3
*A31
350
21E
  3
*A32
350
21F
  3
*A33
350
220
  3
*A34
350
200
  3
*A35
350
221
  3
*A36
350
222
  3
*A37
350
223
  3
*A38
350
1F9
  3
*A39
350
1FA
  3
*A4
350
1F6
  3
*A40
350
1FB
  3
*A41
350
1FC
  3
*A42
350
1FD
  3
*A43
350
201
  3
*A44
350
202
  3
*A45
350
203
  3
*A46
350
204
  3
*A47
350
205
  3
*A5
350
208
  3
*A6
350
209
  3
*A7
350
20A
  3
*A8
350
20B
  3
*A9
350
20C
  0
DICTIONARY
  5
3BD
102
{ACAD_REACTORS
330
1A
102
}
330
1A
100
AcDbDictionary
  0
DICTIONARY
  5
19
102
{ACAD_REACTORS
330
1A
102
}
330
1A
100
AcDbDictionary
  3
STANDARD
350
1D
  0
DICTIONARY
  5
3BE
102
{ACAD_REACTORS
330
1A
102
}
330
1A
100
AcDbDictionary
  0
ACDBDICTIONARYWDFLT
  5
3BB
102
{ACAD_REACTORS
330
1A
102
}
330
1A
100
AcDbDictionary
281
     1
  3
Normal
350
3BC
100
AcDbDictionaryWithDefault
340
3BC
  0
DICTIONARY
  5
3C9
102
{ACAD_REACTORS
330
1A
102
}
330
1A
100
AcDbDictionary
  3
CEPSNTYPE
350
3D3
  3
FINGERPRINTGUID
350
3D4
  3
HYPERLINKBASE
350
3CC
  3
INSUNITS
350
3D2
  3
LAYOUTDICT
350
3CE
  3
LWETCUNION
350
3D1
  3
PLOTSETDICT
350
3CF
  3
PLOTSTYLNAMDICT
350
3D0
  3
PSVPSCALE
350
3D6
  3
PUCSBASE
350
3D9
  3
PUCSORGBACK
350
3DF
  3
PUCSORGBOTTOM
350
3DB
  3
PUCSORGFRONT
350
3DE
  3
PUCSORGLEFT
350
3DC
  3
PUCSORGRIGHT
350
3DD
  3
PUCSORGTOP
350
3DA
  3
PUCSORTHOREF
350
3D7
  3
PUCSORTHOVIEW
350
3D8
  3
STYLESHEET
350
3CD
  3
TSTACKALIGN
350
3CA
  3
TSTACKSIZE
350
3CB
  3
UCSBASE
350
3E2
  3
UCSORGBACK
350
3E8
  3
UCSORGBOTTOM
350
3E4
  3
UCSORGFRONT
350
3E7
  3
UCSORGLEFT
350
3E5
  3
UCSORGRIGHT
350
3E6
  3
UCSORGTOP
350
3E3
  3
UCSORTHOREF
350
3E0
  3
UCSORTHOVIEW
350
3E1
  3
VERSIONGUID
350
3D5
  0
DICTIONARY
  5
3C6
102
{ACAD_REACTORS
330
1A
102
}
330
1A
100
AcDbDictionary
  3
DIMASSOC
350
3C7
  0
XRECORD
  5
3EA
102
{ACAD_REACTORS
330
3E9
102
}
330
3E9
100
AcDbXrecord
340
2
  0
XRECORD
  5
3EC
102
{ACAD_REACTORS
330
3EB
102
}
330
3EB
100
AcDbXrecord
340
7
  0
GROUP
  5
1F5
102
{ACAD_REACTORS
330
18
102
}
330
18
100
AcDbGroup
300
BORDER FRAME 10-1-95
 70
     3
 71
     1
  0
GROUP
  5
20D
102
{ACAD_REACTORS
330
18
102
}
330
18
100
AcDbGroup
300

 70
     3
 71
     1
  0
GROUP
  5
20E
102
{ACAD_REACTORS
330
18
102
}
330
18
100
AcDbGroup
300
BORDER FRAME 10-1-95
 70
     3
 71
     1
  0
GROUP
  5
1FE
102
{ACAD_REACTORS
330
18
102
}
330
18
100
AcDbGroup
300
BORDER FRAME 10-1-95
 70
     3
 71
     1
  0
GROUP
  5
20F
102
{ACAD_REACTORS
330
18
102
}
330
18
100
AcDbGroup
300

 70
     3
 71
     1
  0
GROUP
  5
210
102
{ACAD_REACTORS
330
18
102
}
330
18
100
AcDbGroup
300
BORDER FRAME 10-1-95
 70
     3
 71
     1
  0
GROUP
  5
211
102
{ACAD_REACTORS
330
18
102
}
330
18
100
AcDbGroup
300

 70
     3
 71
     1
  0
GROUP
  5
1F7
102
{ACAD_REACTORS
330
18
102
}
330
18
100
AcDbGroup
300
BORDER FRAME 10-1-95
 70
     3
 71
     1
  0
GROUP
  5
212
102
{ACAD_REACTORS
330
18
102
}
330
18
100
AcDbGroup
300
BORDER FRAME 10-1-95
 70
     3
 71
     1
  0
GROUP
  5
213
102
{ACAD_REACTORS
330
18
102
}
330
18
100
AcDbGroup
300

 70
     3
 71
     1
  0
GROUP
  5
214
102
{ACAD_REACTORS
330
18
102
}
330
18
100
AcDbGroup
300

 70
     3
 71
     1
  0
GROUP
  5
206
102
{ACAD_REACTORS
330
18
102
}
330
18
100
AcDbGroup
300

 70
     3
 71
     1
  0
GROUP
  5
215
102
{ACAD_REACTORS
330
18
102
}
330
18
100
AcDbGroup
300
BORDER FRAME 10-1-95
 70
     3
 71
     1
  0
GROUP
  5
216
102
{ACAD_REACTORS
330
18
102
}
330
18
100
AcDbGroup
300

 70
     1
 71
     1
  0
GROUP
  5
217
102
{ACAD_REACTORS
330
18
102
}
330
18
100
AcDbGroup
300

 70
     1
 71
     1
  0
GROUP
  5
1FF
102
{ACAD_REACTORS
330
18
102
}
330
18
100
AcDbGroup
300

 70
     3
 71
     1
  0
GROUP
  5
218
102
{ACAD_REACTORS
330
18
102
}
330
18
100
AcDbGroup
300
BORDER FRAME 10-1-95
 70
     3
 71
     1
  0
GROUP
  5
219
102
{ACAD_REACTORS
330
18
102
}
330
18
100
AcDbGroup
300

 70
     1
 71
     1
  0
GROUP
  5
21A
102
{ACAD_REACTORS
330
18
102
}
330
18
100
AcDbGroup
300

 70
     3
 71
     1
  0
GROUP
  5
21B
102
{ACAD_REACTORS
330
18
102
}
330
18
100
AcDbGroup
300

 70
     1
 71
     1
  0
GROUP
  5
1F8
102
{ACAD_REACTORS
330
18
102
}
330
18
100
AcDbGroup
300

 70
     3
 71
     1
  0
GROUP
  5
21C
102
{ACAD_REACTORS
330
18
102
}
330
18
100
AcDbGroup
300
BORDER FRAME 10-1-95
 70
     3
 71
     1
  0
GROUP
  5
207
102
{ACAD_REACTORS
330
18
102
}
330
18
100
AcDbGroup
300

 70
     3
 71
     1
  0
GROUP
  5
21D
102
{ACAD_REACTORS
330
18
102
}
330
18
100
AcDbGroup
300

 70
     3
 71
     1
  0
GROUP
  5
21E
102
{ACAD_REACTORS
330
18
102
}
330
18
100
AcDbGroup
300

 70
     1
 71
     1
  0
GROUP
  5
21F
102
{ACAD_REACTORS
330
18
102
}
330
18
100
AcDbGroup
300
BORDER FRAME 10-1-95
 70
     3
 71
     1
  0
GROUP
  5
220
102
{ACAD_REACTORS
330
18
102
}
330
18
100
AcDbGroup
300

 70
     3
 71
     1
  0
GROUP
  5
200
102
{ACAD_REACTORS
330
18
102
}
330
18
100
AcDbGroup
300
BORDER FRAME 10-1-95
 70
     3
 71
     1
  0
GROUP
  5
221
102
{ACAD_REACTORS
330
18
102
}
330
18
100
AcDbGroup
300

 70
     1
 71
     1
  0
GROUP
  5
222
102
{ACAD_REACTORS
330
18
102
}
330
18
100
AcDbGroup
300
BORDER FRAME 10-1-95
 70
     3
 71
     1
  0
GROUP
  5
223
102
{ACAD_REACTORS
330
18
102
}
330
18
100
AcDbGroup
300

 70
     3
 71
     1
  0
GROUP
  5
1F9
102
{ACAD_REACTORS
330
18
102
}
330
18
100
AcDbGroup
300

 70
     3
 71
     1
  0
GROUP
  5
1FA
102
{ACAD_REACTORS
330
18
102
}
330
18
100
AcDbGroup
300

 70
     1
 71
     1
  0
GROUP
  5
1F6
102
{ACAD_REACTORS
330
18
102
}
330
18
100
AcDbGroup
300

 70
     1
 71
     1
  0
GROUP
  5
1FB
102
{ACAD_REACTORS
330
18
102
}
330
18
100
AcDbGroup
300
BORDER FRAME 10-1-95
 70
     3
 71
     1
  0
GROUP
  5
1FC
102
{ACAD_REACTORS
330
18
102
}
330
18
100
AcDbGroup
300

 70
     3
 71
     1
  0
GROUP
  5
1FD
102
{ACAD_REACTORS
330
18
102
}
330
18
100
AcDbGroup
300

 70
     1
 71
     1
  0
GROUP
  5
201
102
{ACAD_REACTORS
330
18
102
}
330
18
100
AcDbGroup
300

 70
     1
 71
     1
  0
GROUP
  5
202
102
{ACAD_REACTORS
330
18
102
}
330
18
100
AcDbGroup
300
BORDER FRAME 10-1-95
 70
     3
 71
     1
  0
GROUP
  5
203
102
{ACAD_REACTORS
330
18
102
}
330
18
100
AcDbGroup
300
BORDER FRAME 10-1-95
 70
     3
 71
     1
  0
GROUP
  5
204
102
{ACAD_REACTORS
330
18
102
}
330
18
100
AcDbGroup
300

 70
     1
 71
     1
  0
GROUP
  5
205
102
{ACAD_REACTORS
330
18
102
}
330
18
100
AcDbGroup
300

 70
     1
 71
     1
  0
GROUP
  5
208
102
{ACAD_REACTORS
330
18
102
}
330
18
100
AcDbGroup
300

 70
     3
 71
     1
  0
GROUP
  5
209
102
{ACAD_REACTORS
330
18
102
}
330
18
100
AcDbGroup
300
BORDER FRAME 10-1-95
 70
     3
 71
     1
  0
GROUP
  5
20A
102
{ACAD_REACTORS
330
18
102
}
330
18
100
AcDbGroup
300

 70
     3
 71
     1
  0
GROUP
  5
20B
102
{ACAD_REACTORS
330
18
102
}
330
18
100
AcDbGroup
300

 70
     3
 71
     1
  0
GROUP
  5
20C
102
{ACAD_REACTORS
330
18
102
}
330
18
100
AcDbGroup
300

 70
     3
 71
     1
  0
MLINESTYLE
  5
1D
102
{ACAD_REACTORS
330
19
102
}
330
19
100
AcDbMlineStyle
  2
STANDARD
 70
     0
  3

 62
     0
 51
90.0
 52
90.0
 71
     2
 49
0.5
 62
   256
  6
BYLAYER
 49
-0.5
 62
   256
  6
BYLAYER
  0
ACDBPLACEHOLDER
  5
3BC
102
{ACAD_REACTORS
330
3BB
102
}
330
3BB
100
AcDbPlaceHolder
280
     0
  0
XRECORD
  5
3D3
102
{ACAD_REACTORS
330
3C9
102
}
330
3C9
100
AcDbXrecord
 90
        0
  0
XRECORD
  5
3D4
102
{ACAD_REACTORS
330
3C9
102
}
330
3C9
100
AcDbXrecord
  1
{CBF60440-8DB8-11D6-88E6-0090279574E7}
  0
XRECORD
  5
3CC
102
{ACAD_REACTORS
330
3C9
102
}
330
3C9
100
AcDbXrecord
  1

  0
XRECORD
  5
3D2
102
{ACAD_REACTORS
330
3C9
102
}
330
3C9
100
AcDbXrecord
 90
        0
  0
XRECORD
  5
3CE
102
{ACAD_REACTORS
330
3C9
102
}
330
3C9
100
AcDbXrecord
340
3BD
  0
XRECORD
  5
3D1
102
{ACAD_REACTORS
330
3C9
102
}
330
3C9
100
AcDbXrecord
 90
    14877
  0
XRECORD
  5
3CF
102
{ACAD_REACTORS
330
3C9
102
}
330
3C9
100
AcDbXrecord
340
3BE
  0
XRECORD
  5
3D0
102
{ACAD_REACTORS
330
3C9
102
}
330
3C9
100
AcDbXrecord
340
3BB
  0
XRECORD
  5
3D6
102
{ACAD_REACTORS
330
3C9
102
}
330
3C9
100
AcDbXrecord
 40
0.0
  0
XRECORD
  5
3D9
102
{ACAD_REACTORS
330
3C9
102
}
330
3C9
100
AcDbXrecord
340
0
  0
XRECORD
  5
3DF
102
{ACAD_REACTORS
330
3C9
102
}
330
3C9
100
AcDbXrecord
 10
0.0
 20
0.0
 30
0.0
  0
XRECORD
  5
3DB
102
{ACAD_REACTORS
330
3C9
102
}
330
3C9
100
AcDbXrecord
 10
0.0
 20
0.0
 30
0.0
  0
XRECORD
  5
3DE
102
{ACAD_REACTORS
330
3C9
102
}
330
3C9
100
AcDbXrecord
 10
0.0
 20
0.0
 30
0.0
  0
XRECORD
  5
3DC
102
{ACAD_REACTORS
330
3C9
102
}
330
3C9
100
AcDbXrecord
 10
0.0
 20
0.0
 30
0.0
  0
XRECORD
  5
3DD
102
{ACAD_REACTORS
330
3C9
102
}
330
3C9
100
AcDbXrecord
 10
0.0
 20
0.0
 30
0.0
  0
XRECORD
  5
3DA
102
{ACAD_REACTORS
330
3C9
102
}
330
3C9
100
AcDbXrecord
 10
0.0
 20
0.0
 30
0.0
  0
XRECORD
  5
3D7
102
{ACAD_REACTORS
330
3C9
102
}
330
3C9
100
AcDbXrecord
340
0
  0
XRECORD
  5
3D8
102
{ACAD_REACTORS
330
3C9
102
}
330
3C9
100
AcDbXrecord
 70
     0
  0
XRECORD
  5
3CD
102
{ACAD_REACTORS
330
3C9
102
}
330
3C9
100
AcDbXrecord
  1

  0
XRECORD
  5
3CA
102
{ACAD_REACTORS
330
3C9
102
}
330
3C9
100
AcDbXrecord
 90
        1
  0
XRECORD
  5
3CB
102
{ACAD_REACTORS
330
3C9
102
}
330
3C9
100
AcDbXrecord
 90
       70
  0
XRECORD
  5
3E2
102
{ACAD_REACTORS
330
3C9
102
}
330
3C9
100
AcDbXrecord
340
0
  0
XRECORD
  5
3E8
102
{ACAD_REACTORS
330
3C9
102
}
330
3C9
100
AcDbXrecord
 10
0.0
 20
0.0
 30
0.0
  0
XRECORD
  5
3E4
102
{ACAD_REACTORS
330
3C9
102
}
330
3C9
100
AcDbXrecord
 10
0.0
 20
0.0
 30
0.0
  0
XRECORD
  5
3E7
102
{ACAD_REACTORS
330
3C9
102
}
330
3C9
100
AcDbXrecord
 10
0.0
 20
0.0
 30
0.0
  0
XRECORD
  5
3E5
102
{ACAD_REACTORS
330
3C9
102
}
330
3C9
100
AcDbXrecord
 10
0.0
 20
0.0
 30
0.0
  0
XRECORD
  5
3E6
102
{ACAD_REACTORS
330
3C9
102
}
330
3C9
100
AcDbXrecord
 10
0.0
 20
0.0
 30
0.0
  0
XRECORD
  5
3E3
102
{ACAD_REACTORS
330
3C9
102
}
330
3C9
100
AcDbXrecord
 10
0.0
 20
0.0
 30
0.0
  0
XRECORD
  5
3E0
102
{ACAD_REACTORS
330
3C9
102
}
330
3C9
100
AcDbXrecord
340
0
  0
XRECORD
  5
3E1
102
{ACAD_REACTORS
330
3C9
102
}
330
3C9
100
AcDbXrecord
 70
     0
  0
XRECORD
  5
3D5
102
{ACAD_REACTORS
330
3C9
102
}
330
3C9
100
AcDbXrecord
  1
{CBF60442-8DB8-11D6-88E6-0090279574E7}
  0
DICTIONARYVAR
  5
3C7
102
{ACAD_REACTORS
330
3C6
102
}
330
3C6
100
DictionaryVariables
280
     0
  1
1
  0
ENDSEC
  0
EOF
