  0
SECTION
  2
HEADER
  9
$ACADVER
  1
AC1014
  9
$ACADMAINTVER
 70
     9
  9
$DWGCODEPAGE
  3
ANSI_1252
  9
$INSBASE
 10
19.07399572919845
 20
40.14969080675128
 30
0.0
  9
$EXTMIN
 10
-0.7493465373519016
 20
1.596575611415314
 30
0.0
  9
$EXTMAX
 10
2.735872784395226
 20
3.979380848084641
 30
0.0
  9
$LIMMIN
 10
0.0
 20
0.0
  9
$LIMMAX
 10
18.0
 20
12.0
  9
$ORTHOMODE
 70
     0
  9
$REGENMODE
 70
     1
  9
$FILLMODE
 70
     1
  9
$QTEXTMODE
 70
     0
  9
$MIRRTEXT
 70
     0
  9
$DRAGMODE
 70
     2
  9
$LTSCALE
 40
1.0
  9
$OSMODE
 70
    39
  9
$ATTMODE
 70
     1
  9
$TEXTSIZE
 40
0.125
  9
$TRACEWID
 40
0.05
  9
$TEXTSTYLE
  7
ROMANS
  9
$CLAYER
  8
DIM
  9
$CELTYPE
  6
BYLAYER
  9
$CECOLOR
 62
   256
  9
$CELTSCALE
 40
1.0
  9
$DELOBJ
 70
     1
  9
$DISPSILH
 70
     1
  9
$DIMSCALE
 40
1.0
  9
$DIMASZ
 40
0.125
  9
$DIMEXO
 40
0.125
  9
$DIMDLI
 40
0.375
  9
$DIMRND
 40
0.0
  9
$DIMDLE
 40
0.0
  9
$DIMEXE
 40
0.125
  9
$DIMTP
 40
0.0
  9
$DIMTM
 40
0.0
  9
$DIMTXT
 40
0.125
  9
$DIMCEN
 40
-0.125
  9
$DIMTSZ
 40
0.0
  9
$DIMTOL
 70
     0
  9
$DIMLIM
 70
     0
  9
$DIMTIH
 70
     1
  9
$DIMTOH
 70
     1
  9
$DIMSE1
 70
     0
  9
$DIMSE2
 70
     0
  9
$DIMTAD
 70
     0
  9
$DIMZIN
 70
     4
  9
$DIMBLK
  1

  9
$DIMASO
 70
     1
  9
$DIMSHO
 70
     1
  9
$DIMPOST
  1

  9
$DIMAPOST
  1

  9
$DIMALT
 70
     0
  9
$DIMALTD
 70
     2
  9
$DIMALTF
 40
25.4
  9
$DIMLFAC
 40
0.25
  9
$DIMTOFL
 70
     0
  9
$DIMTVP
 40
0.0
  9
$DIMTIX
 70
     1
  9
$DIMSOXD
 70
     0
  9
$DIMSAH
 70
     0
  9
$DIMBLK1
  1

  9
$DIMBLK2
  1

  9
$DIMSTYLE
  2
STANDARD
  9
$DIMCLRD
 70
     0
  9
$DIMCLRE
 70
     0
  9
$DIMCLRT
 70
     0
  9
$DIMTFAC
 40
1.0
  9
$DIMGAP
 40
0.09
  9
$DIMJUST
 70
     0
  9
$DIMSD1
 70
     0
  9
$DIMSD2
 70
     0
  9
$DIMTOLJ
 70
     1
  9
$DIMTZIN
 70
     4
  9
$DIMALTZ
 70
     0
  9
$DIMALTTZ
 70
     0
  9
$DIMFIT
 70
     3
  9
$DIMUPT
 70
     0
  9
$DIMUNIT
 70
     2
  9
$DIMDEC
 70
     3
  9
$DIMTDEC
 70
     3
  9
$DIMALTU
 70
     2
  9
$DIMALTTD
 70
     2
  9
$DIMTXSTY
  7
ROMANS
  9
$DIMAUNIT
 70
     0
  9
$LUNITS
 70
     2
  9
$LUPREC
 70
     3
  9
$SKETCHINC
 40
0.1
  9
$FILLETRAD
 40
0.015
  9
$AUNITS
 70
     0
  9
$AUPREC
 70
     0
  9
$MENU
  1
ACAD
  9
$ELEVATION
 40
0.0
  9
$PELEVATION
 40
0.0
  9
$THICKNESS
 40
0.0
  9
$LIMCHECK
 70
     0
  9
$BLIPMODE
 70
     0
  9
$CHAMFERA
 40
0.03125
  9
$CHAMFERB
 40
0.03125
  9
$CHAMFERC
 40
0.0
  9
$CHAMFERD
 40
0.0
  9
$SKPOLY
 70
     0
  9
$TDCREATE
 40
2450407.401623032
  9
$TDUPDATE
 40
2452458.319255220
  9
$TDINDWG
 40
10.1077198611
  9
$TDUSRTIMER
 40
10.1077198611
  9
$USRTIMER
 70
     1
  9
$ANGBASE
 50
0.0
  9
$ANGDIR
 70
     0
  9
$PDMODE
 70
     0
  9
$PDSIZE
 40
0.0
  9
$PLINEWID
 40
0.0
  9
$COORDS
 70
     2
  9
$SPLFRAME
 70
     0
  9
$SPLINETYPE
 70
     6
  9
$SPLINESEGS
 70
     8
  9
$ATTDIA
 70
     0
  9
$ATTREQ
 70
     1
  9
$HANDLING
 70
 22529
  9
$HANDSEED
  5
40F8
  9
$SURFTAB1
 70
     6
  9
$SURFTAB2
 70
     6
  9
$SURFTYPE
 70
     6
  9
$SURFU
 70
     6
  9
$SURFV
 70
     6
  9
$UCSNAME
  2

  9
$UCSORG
 10
0.0
 20
0.0
 30
0.0
  9
$UCSXDIR
 10
1.0
 20
0.0
 30
0.0
  9
$UCSYDIR
 10
0.0
 20
1.0
 30
0.0
  9
$PUCSNAME
  2

  9
$PUCSORG
 10
0.0
 20
0.0
 30
0.0
  9
$PUCSXDIR
 10
1.0
 20
0.0
 30
0.0
  9
$PUCSYDIR
 10
0.0
 20
1.0
 30
0.0
  9
$USERI1
 70
     0
  9
$USERI2
 70
     0
  9
$USERI3
 70
     0
  9
$USERI4
 70
     0
  9
$USERI5
 70
     0
  9
$USERR1
 40
0.0
  9
$USERR2
 40
0.0
  9
$USERR3
 40
0.0
  9
$USERR4
 40
0.0
  9
$USERR5
 40
0.0
  9
$WORLDVIEW
 70
     1
  9
$SHADEDGE
 70
     3
  9
$SHADEDIF
 70
    70
  9
$TILEMODE
 70
     1
  9
$MAXACTVP
 70
    16
  9
$PINSBASE
 10
0.0
 20
0.0
 30
0.0
  9
$PLIMCHECK
 70
     0
  9
$PEXTMIN
 10
50.016483474401
 20
33.40594830216693
 30
-29.11368750000001
  9
$PEXTMAX
 10
116.7849835004977
 20
55.41491692415298
 30
22.78631249999999
  9
$PLIMMIN
 10
0.0
 20
0.0
  9
$PLIMMAX
 10
12.0
 20
9.0
  9
$UNITMODE
 70
     0
  9
$VISRETAIN
 70
     0
  9
$PLINEGEN
 70
     1
  9
$PSLTSCALE
 70
     0
  9
$TREEDEPTH
 70
  3020
  9
$PICKSTYLE
 70
     1
  9
$CMLSTYLE
  2
STANDARD
  9
$CMLJUST
 70
     0
  9
$CMLSCALE
 40
1.0
  9
$PROXYGRAPHICS
 70
     1
  9
$MEASUREMENT
 70
     0
  0
ENDSEC
  0
SECTION
  2
CLASSES
  0
CLASS
  1
LWPOLYLINE
  2
AcDbPolyline
  3
AutoCAD 2000
 90
        0
280
     0
281
     1
  0
CLASS
  1
ACDBDICTIONARYWDFLT
  2
AcDbDictionaryWithDefault
  3
AutoCAD 2000
 90
        0
280
     0
281
     0
  0
CLASS
  1
ACDBPLACEHOLDER
  2
AcDbPlaceHolder
  3
AutoCAD 2000
 90
        0
280
     0
281
     0
  0
CLASS
  1
LAYOUT
  2
AcDbLayout
  3
AutoCAD 2000
 90
        0
280
     0
281
     0
  0
CLASS
  1
DICTIONARYVAR
  2
AcDbDictionaryVar
  3
AutoCAD 2000
 90
        0
280
     0
281
     0
  0
CLASS
  1
LONG_TRANSACTION
  2
AcDbLongTransaction
  3
AutoCAD 2000
 90
        0
280
     0
281
     0
  0
CLASS
  1
LWPOLYLINE
  2
AcDbPolyline
  3
AutoCAD 2000
 90
        0
280
     0
281
     1
  0
CLASS
  1
HATCH
  2
AcDbHatch
  3
AutoCAD 2000
 90
        0
280
     0
281
     1
  0
CLASS
  1
XRECORD
  2
AcDbXrecord
  3
AutoCAD 2000
 90
        0
280
     0
281
     0
  0
ENDSEC
  0
SECTION
  2
TABLES
  0
TABLE
  2
VPORT
  5
12
330
0
100
AcDbSymbolTable
 70
     2
  0
VPORT
  5
40D3
330
12
100
AcDbSymbolTableRecord
100
AcDbViewportTableRecord
  2
*ACTIVE
 70
     0
 10
0.0
 20
0.0
 11
1.0
 21
1.0
 12
4.240222234163662
 22
2.787865676845807
 13
0.0
 23
0.0
 14
0.0625
 24
0.0625
 15
0.0
 25
0.0
 16
0.0
 26
0.0
 36
1.0
 17
0.0
 27
0.0
 37
0.0
 40
2.40429684441178
 41
4.320930232558139
 42
50.0
 43
0.0
 44
0.0
 50
0.0
 51
0.0
 71
     0
 72
  2000
 73
     1
 74
     1
 75
     0
 76
     0
 77
     0
 78
     0
  0
ENDTAB
  0
TABLE
  2
LTYPE
  5
E
330
0
100
AcDbSymbolTable
 70
     1
  0
LTYPE
  5
F
330
E
100
AcDbSymbolTableRecord
100
AcDbLinetypeTableRecord
  2
BYBLOCK
 70
     0
  3

 72
    65
 73
     0
 40
0.0
  0
LTYPE
  5
6
330
E
100
AcDbSymbolTableRecord
100
AcDbLinetypeTableRecord
  2
BYLAYER
 70
     0
  3

 72
    65
 73
     0
 40
0.0
  0
LTYPE
  5
5
330
E
100
AcDbSymbolTableRecord
100
AcDbLinetypeTableRecord
  2
CONTINUOUS
 70
     0
  3
Solid line
 72
    65
 73
     0
 40
0.0
  0
ENDTAB
  0
TABLE
  2
LAYER
  5
B
330
0
100
AcDbSymbolTable
 70
     3
  0
LAYER
  5
4
330
B
100
AcDbSymbolTableRecord
100
AcDbLayerTableRecord
  2
0
 70
     0
 62
     7
  6
CONTINUOUS
  0
LAYER
  5
352
330
B
100
AcDbSymbolTableRecord
100
AcDbLayerTableRecord
  2
DIM
 70
     0
 62
     4
  6
CONTINUOUS
  0
LAYER
  5
9D4
330
B
100
AcDbSymbolTableRecord
100
AcDbLayerTableRecord
  2
TEXT
 70
     0
 62
     3
  6
CONTINUOUS
  0
ENDTAB
  0
TABLE
  2
STYLE
  5
C
330
0
100
AcDbSymbolTable
 70
     3
  0
STYLE
  5
D
330
C
100
AcDbSymbolTableRecord
100
AcDbTextStyleTableRecord
  2
STANDARD
 70
     0
 40
0.0
 41
1.0
 50
0.0
 71
     0
 42
0.625
  3
txt
  4

  0
STYLE
  5
1B
330
C
100
AcDbSymbolTableRecord
100
AcDbTextStyleTableRecord
  2
ROMANS
 70
     0
 40
0.0
 41
1.0
 50
0.0
 71
     0
 42
0.125
  3
romans.shx
  4

  0
STYLE
  5
3FC1
330
C
100
AcDbSymbolTableRecord
100
AcDbTextStyleTableRecord
  2
ITALICC
 70
     0
 40
0.0
 41
1.0
 50
0.0
 71
     0
 42
0.125
  3
italicc
  4

  0
ENDTAB
  0
TABLE
  2
VIEW
  5
10
330
0
100
AcDbSymbolTable
 70
     0
  0
ENDTAB
  0
TABLE
  2
UCS
  5
11
330
0
100
AcDbSymbolTable
 70
     0
  0
ENDTAB
  0
TABLE
  2
APPID
  5
14
330
0
100
AcDbSymbolTable
 70
     2
  0
APPID
  5
15
330
14
100
AcDbSymbolTableRecord
100
AcDbRegAppTableRecord
  2
ACAD
 70
     0
  0
APPID
  5
2378
330
14
100
AcDbSymbolTableRecord
100
AcDbRegAppTableRecord
  2
AME_SOLVIEW
 70
     0
  0
ENDTAB
  0
TABLE
  2
DIMSTYLE
  5
16
330
0
100
AcDbSymbolTable
 70
     1
  0
DIMSTYLE
105
1D
330
16
100
AcDbSymbolTableRecord
100
AcDbDimStyleTableRecord
  2
STANDARD
 70
     0
  3

  4

  5

  6

  7

 40
1.0
 41
0.125
 42
0.125
 43
0.375
 44
0.125
 45
0.0
 46
0.0
 47
0.0
 48
0.0
140
0.125
141
-0.125
142
0.0
143
25.4
144
0.25
145
0.0
146
1.0
147
0.09
 71
     0
 72
     0
 73
     1
 74
     1
 75
     0
 76
     0
 77
     0
 78
     4
170
     0
171
     2
172
     0
173
     0
174
     1
175
     0
176
     0
177
     0
178
     0
270
     2
271
     3
272
     3
273
     2
274
     2
340
1B
275
     0
280
     0
281
     0
282
     0
283
     1
284
     4
285
     0
286
     0
287
     3
288
     0
  0
ENDTAB
  0
TABLE
  2
BLOCK_RECORD
  5
1
330
0
100
AcDbSymbolTable
 70
     0
  0
BLOCK_RECORD
  5
2
102
{ACAD_XDICTIONARY
360
40F4
102
}
330
1
100
AcDbSymbolTableRecord
100
AcDbBlockTableRecord
  2
*MODEL_SPACE
  0
BLOCK_RECORD
  5
8
102
{ACAD_XDICTIONARY
360
40F6
102
}
330
1
100
AcDbSymbolTableRecord
100
AcDbBlockTableRecord
  2
*PAPER_SPACE
  0
ENDTAB
  0
ENDSEC
  0
SECTION
  2
BLOCKS
  0
BLOCK
  5
3
330
2
100
AcDbEntity
  8
0
100
AcDbBlockBegin
  2
*MODEL_SPACE
 70
     0
 10
0.0
 20
0.0
 30
0.0
  3
*MODEL_SPACE
  1

  0
ENDBLK
  5
7
330
2
100
AcDbEntity
  8
0
100
AcDbBlockEnd
  0
BLOCK
  5
9
330
8
100
AcDbEntity
 67
     1
  8
0
100
AcDbBlockBegin
  2
*PAPER_SPACE
 70
     0
 10
0.0
 20
0.0
 30
0.0
  3
*PAPER_SPACE
  1

  0
ENDBLK
  5
A
330
8
100
AcDbEntity
 67
     1
  8
0
100
AcDbBlockEnd
  0
ENDSEC
  0
SECTION
  2
ENTITIES
  0
LWPOLYLINE
  5
1F1A
330
2
100
AcDbEntity
  8
0
100
AcDbPolyline
 90
       10
 70
     1
 43
0.0
 10
0.8054323444373316
 20
3.729380848084641
 10
0.8054323444373316
 20
3.979380848084641
 10
1.075432344437331
 20
3.979380848084641
 10
1.075432344437331
 20
3.729380848084641
 10
1.002932344437333
 20
3.729380848084641
 10
1.002932344437333
 20
2.729380848084641
 10
0.9694101192260049
 20
2.604274200413204
 42
-0.7673269879789614
 10
0.9114545696486612
 20
2.604274200413204
 10
0.8779323444373332
 20
2.729380848084641
 10
0.8779323444373332
 20
3.729380848084641
  0
TEXT
  5
4046
330
2
100
AcDbEntity
  8
TEXT
100
AcDbText
 10
0.2406588513990508
 20
2.054594215497896
 30
0.0
 40
0.125
  1
PART #110586
  7
ITALICC
 72
     1
 11
0.9936350418752413
 21
2.054594215497896
 31
0.0
100
AcDbText
  0
LINE
  5
4047
330
2
100
AcDbEntity
  8
TEXT
100
AcDbLine
 10
0.961368540827304
 20
1.810240529478062
 30
0.0
 11
1.038016522119861
 21
1.810240529478062
 31
0.0
  0
LINE
  5
4048
330
2
100
AcDbEntity
  8
TEXT
100
AcDbLine
 10
1.033536634793361
 20
1.874517224134828
 30
0.0
 11
0.9660369171438452
 21
1.874517224134828
 31
0.0
  0
LWPOLYLINE
  5
4049
330
2
100
AcDbEntity
  8
TEXT
100
AcDbPolyline
 90
        5
 70
     0
 43
0.0001332181640625
 10
-0.675743501707371
 20
1.751290422377015
 10
-0.6624216853011223
 20
1.751290422377015
 10
-0.6624216853011223
 20
1.787925417494204
 10
-0.6257866901839324
 20
1.787925417494204
 10
-0.6257866901839324
 20
1.801247233900451
  0
LWPOLYLINE
  5
404A
330
2
100
AcDbEntity
  8
TEXT
100
AcDbPolyline
 90
        3
 70
     0
 43
0.0006660908203125
 10
-0.635778052488623
 20
1.84787359132233
 10
-0.7223698591292478
 20
1.84787359132233
 10
-0.7223698591292478
 20
1.761281784681703
  0
LWPOLYLINE
  5
404B
330
2
100
AcDbEntity
  8
TEXT
100
AcDbPolyline
 90
        3
 70
     0
 43
0.0006660908203125
 10
-0.635778052488623
 20
1.874517224134831
 10
-0.7490134919417453
 20
1.874517224134831
 10
-0.7490134919417453
 20
1.761281784681703
  0
LWPOLYLINE
  5
404C
330
2
100
AcDbEntity
  8
TEXT
100
AcDbPolyline
 90
        5
 70
     0
 43
0.0001332181640625
 10
-0.6257866901839324
 20
1.681350886244204
 10
-0.6257866901839324
 20
1.694672702650454
 10
-0.6624216853011205
 20
1.694672702650454
 10
-0.6624216853011205
 20
1.731307697767641
 10
-0.675743501707371
 20
1.731307697767641
  0
LWPOLYLINE
  5
404D
330
2
100
AcDbEntity
  8
TEXT
100
AcDbPolyline
 90
        3
 70
     0
 43
0.0006660908203125
 10
-0.7223698591292478
 20
1.721316335462955
 10
-0.7223698591292478
 20
1.634724528822329
 10
-0.635778052488623
 20
1.634724528822329
  0
LWPOLYLINE
  5
404E
330
2
100
AcDbEntity
  8
TEXT
100
AcDbPolyline
 90
        3
 70
     0
 43
0.0006660908203125
 10
-0.7490134919417453
 20
1.721316335462955
 10
-0.7490134919417453
 20
1.608080896009828
 10
-0.635778052488623
 20
1.608080896009828
  0
LWPOLYLINE
  5
404F
330
2
100
AcDbEntity
  8
TEXT
100
AcDbPolyline
 90
        2
 70
     0
 43
0.0001332181640625
 10
-0.7223698591292478
 20
1.721316335462955
 10
-0.6624216853011205
 20
1.731307697767641
  0
LWPOLYLINE
  5
4050
330
2
100
AcDbEntity
  8
TEXT
100
AcDbPolyline
 90
        2
 70
     0
 43
0.0001332181640625
 10
-0.675743501707371
 20
1.731307697767641
 10
-0.7490134919417453
 20
1.721316335462955
  0
LWPOLYLINE
  5
4051
330
2
100
AcDbEntity
  8
TEXT
100
AcDbPolyline
 90
        2
 70
     0
 43
0.0006660908203125
 10
-0.7223698591292478
 20
1.721316335462955
 10
-0.7490134919417453
 20
1.721316335462955
  0
LWPOLYLINE
  5
4052
330
2
100
AcDbEntity
  8
TEXT
100
AcDbPolyline
 90
        2
 70
     0
 43
0.0001332181640625
 10
-0.7223698591292478
 20
1.634724528822329
 10
-0.6624216853011205
 20
1.694672702650454
  0
LWPOLYLINE
  5
4053
330
2
100
AcDbEntity
  8
TEXT
100
AcDbPolyline
 90
        2
 70
     0
 43
0.0006660908203125
 10
-0.7223698591292478
 20
1.761281784681703
 10
-0.7490134919417453
 20
1.761281784681703
  0
LWPOLYLINE
  5
4054
330
2
100
AcDbEntity
  8
TEXT
100
AcDbPolyline
 90
        2
 70
     0
 43
0.0001332181640625
 10
-0.7490134919417453
 20
1.761281784681703
 10
-0.675743501707371
 20
1.751290422377015
  0
LWPOLYLINE
  5
4055
330
2
100
AcDbEntity
  8
TEXT
100
AcDbPolyline
 90
        2
 70
     0
 43
0.0001332181640625
 10
-0.7223698591292478
 20
1.761281784681703
 10
-0.6624216853011223
 20
1.751290422377015
  0
LWPOLYLINE
  5
4056
330
2
100
AcDbEntity
  8
TEXT
100
AcDbPolyline
 90
        2
 70
     0
 43
0.0001332181640625
 10
-0.7223698591292478
 20
1.84787359132233
 10
-0.6624216853011223
 20
1.787925417494204
  0
LWPOLYLINE
  5
4057
330
2
100
AcDbEntity
  8
TEXT
100
AcDbPolyline
 90
        5
 70
     0
 43
0.0001332181640625
 10
-0.5558471540511217
 20
1.731307697767641
 10
-0.5691689704573704
 20
1.731307697767641
 10
-0.5691689704573704
 20
1.694672702650454
 10
-0.6058039655745602
 20
1.694672702650454
 10
-0.6058039655745602
 20
1.681350886244204
  0
LWPOLYLINE
  5
4058
330
2
100
AcDbEntity
  8
TEXT
100
AcDbPolyline
 90
        2
 70
     0
 43
0.0001332181640625
 10
-0.5092207966292466
 20
1.721316335462955
 10
-0.5691689704573704
 20
1.731307697767641
  0
LWPOLYLINE
  5
4059
330
2
100
AcDbEntity
  8
TEXT
100
AcDbPolyline
 90
        2
 70
     0
 43
0.0001332181640625
 10
-0.4825771638167456
 20
1.721316335462955
 10
-0.5558471540511217
 20
1.731307697767641
  0
LWPOLYLINE
  5
405A
330
2
100
AcDbEntity
  8
TEXT
100
AcDbPolyline
 90
        3
 70
     0
 43
0.0006660908203125
 10
-0.5958126032698714
 20
1.608080896009828
 10
-0.4825771638167456
 20
1.608080896009828
 10
-0.4825771638167456
 20
1.721316335462955
  0
LWPOLYLINE
  5
405B
330
2
100
AcDbEntity
  8
TEXT
100
AcDbPolyline
 90
        3
 70
     0
 43
0.0006660908203125
 10
-0.5958126032698714
 20
1.634724528822329
 10
-0.5092207966292466
 20
1.634724528822329
 10
-0.5092207966292466
 20
1.721316335462955
  0
LWPOLYLINE
  5
405C
330
2
100
AcDbEntity
  8
TEXT
100
AcDbPolyline
 90
        2
 70
     0
 43
0.0001332181640625
 10
-0.5092207966292466
 20
1.634724528822329
 10
-0.5691689704573704
 20
1.694672702650454
  0
LWPOLYLINE
  5
405D
330
2
100
AcDbEntity
  8
TEXT
100
AcDbPolyline
 90
        2
 70
     0
 43
0.0006660908203125
 10
-0.5958126032698714
 20
1.634724528822329
 10
-0.5958126032698714
 20
1.608080896009828
  0
LWPOLYLINE
  5
405E
330
2
100
AcDbEntity
  8
TEXT
100
AcDbPolyline
 90
        2
 70
     0
 43
0.0001332181640625
 10
-0.6058039655745602
 20
1.681350886244204
 10
-0.5958126032698714
 20
1.608080896009828
  0
LWPOLYLINE
  5
405F
330
2
100
AcDbEntity
  8
TEXT
100
AcDbPolyline
 90
        2
 70
     0
 43
0.0001332181640625
 10
-0.5958126032698714
 20
1.634724528822329
 10
-0.6058039655745602
 20
1.694672702650454
  0
LWPOLYLINE
  5
4060
330
2
100
AcDbEntity
  8
TEXT
100
AcDbPolyline
 90
        2
 70
     0
 43
0.0001332181640625
 10
-0.635778052488623
 20
1.608080896009828
 10
-0.6257866901839324
 20
1.681350886244204
  0
LWPOLYLINE
  5
4061
330
2
100
AcDbEntity
  8
TEXT
100
AcDbPolyline
 90
        2
 70
     0
 43
0.0001332181640625
 10
-0.635778052488623
 20
1.634724528822329
 10
-0.6257866901839324
 20
1.694672702650454
  0
LWPOLYLINE
  5
4062
330
2
100
AcDbEntity
  8
TEXT
100
AcDbPolyline
 90
        2
 70
     0
 43
0.0006660908203125
 10
-0.635778052488623
 20
1.634724528822329
 10
-0.635778052488623
 20
1.608080896009828
  0
LWPOLYLINE
  5
4063
330
2
100
AcDbEntity
  8
TEXT
100
AcDbPolyline
 90
        2
 70
     0
 43
0.0006660908203125
 10
-0.5092207966292466
 20
1.721316335462955
 10
-0.4825771638167456
 20
1.721316335462955
  0
LWPOLYLINE
  5
4064
330
2
100
AcDbEntity
  8
TEXT
100
AcDbPolyline
 90
        2
 70
     0
 43
0.0001332181640625
 10
-0.5092207966292466
 20
1.84787359132233
 10
-0.5691689704573704
 20
1.787925417494204
  0
LWPOLYLINE
  5
4065
330
2
100
AcDbEntity
  8
TEXT
100
AcDbPolyline
 90
        2
 70
     0
 43
0.0001332181640625
 10
-0.5092207966292466
 20
1.761281784681703
 10
-0.5691689704573704
 20
1.751290422377015
  0
LWPOLYLINE
  5
4066
330
2
100
AcDbEntity
  8
TEXT
100
AcDbPolyline
 90
        2
 70
     0
 43
0.0001332181640625
 10
-0.5558471540511217
 20
1.751290422377015
 10
-0.4825771638167456
 20
1.761281784681703
  0
LWPOLYLINE
  5
4067
330
2
100
AcDbEntity
  8
TEXT
100
AcDbPolyline
 90
        3
 70
     0
 43
0.0006660908203125
 10
-0.5092207966292466
 20
1.761281784681703
 10
-0.5092207966292466
 20
1.84787359132233
 10
-0.5958126032698714
 20
1.84787359132233
  0
LWPOLYLINE
  5
4068
330
2
100
AcDbEntity
  8
TEXT
100
AcDbPolyline
 90
        3
 70
     0
 43
0.0006660908203125
 10
-0.4825771638167456
 20
1.761281784681703
 10
-0.4825771638167456
 20
1.874517224134831
 10
-0.5958126032698714
 20
1.874517224134831
  0
LWPOLYLINE
  5
4069
330
2
100
AcDbEntity
  8
TEXT
100
AcDbPolyline
 90
        2
 70
     0
 43
0.0001332181640625
 10
-0.5958126032698714
 20
1.874517224134831
 10
-0.6058039655745602
 20
1.801247233900451
  0
LWPOLYLINE
  5
406A
330
2
100
AcDbEntity
  8
TEXT
100
AcDbPolyline
 90
        2
 70
     0
 43
0.0001332181640625
 10
-0.5958126032698714
 20
1.84787359132233
 10
-0.6058039655745602
 20
1.787925417494204
  0
LWPOLYLINE
  5
406B
330
2
100
AcDbEntity
  8
TEXT
100
AcDbPolyline
 90
        2
 70
     0
 43
0.0006660908203125
 10
-0.5958126032698714
 20
1.84787359132233
 10
-0.5958126032698714
 20
1.874517224134831
  0
LWPOLYLINE
  5
406C
330
2
100
AcDbEntity
  8
TEXT
100
AcDbPolyline
 90
        5
 70
     0
 43
0.0001332181640625
 10
-0.6058039655745602
 20
1.801247233900451
 10
-0.6058039655745602
 20
1.787925417494204
 10
-0.5691689704573704
 20
1.787925417494204
 10
-0.5691689704573704
 20
1.751290422377015
 10
-0.5558471540511217
 20
1.751290422377015
  0
LWPOLYLINE
  5
406D
330
2
100
AcDbEntity
  8
TEXT
100
AcDbPolyline
 90
        2
 70
     0
 43
0.0001332181640625
 10
-0.635778052488623
 20
1.84787359132233
 10
-0.6257866901839324
 20
1.787925417494204
  0
LWPOLYLINE
  5
406E
330
2
100
AcDbEntity
  8
TEXT
100
AcDbPolyline
 90
        2
 70
     0
 43
0.0001332181640625
 10
-0.6257866901839324
 20
1.801247233900451
 10
-0.635778052488623
 20
1.874517224134831
  0
LWPOLYLINE
  5
406F
330
2
100
AcDbEntity
  8
TEXT
100
AcDbPolyline
 90
        2
 70
     0
 43
0.0006660908203125
 10
-0.635778052488623
 20
1.84787359132233
 10
-0.635778052488623
 20
1.874517224134831
  0
LWPOLYLINE
  5
4070
330
2
100
AcDbEntity
  8
TEXT
100
AcDbPolyline
 90
        2
 70
     0
 43
0.0006660908203125
 10
-0.5092207966292466
 20
1.761281784681703
 10
-0.4825771638167456
 20
1.761281784681703
  0
LWPOLYLINE
  5
4071
330
2
100
AcDbEntity
  8
TEXT
100
AcDbPolyline
 90
        2
 70
     0
 43
0.0
 10
0.2362027569318847
 20
1.659595533361245
 42
0.3318488747599744
 10
0.3053220494971978
 20
1.608044191146317
 42
-6.868794160588311
  0
LINE
  5
4072
330
2
100
AcDbEntity
  8
TEXT
100
AcDbLine
 10
0.3041824760010021
 20
1.942528701873638
 30
0.0
 11
0.2373737634346371
 21
1.942528701873638
 31
0.0
  0
LINE
  5
4073
330
2
100
AcDbEntity
  8
TEXT
100
AcDbLine
 10
-0.0419686041844569
 20
1.874517224134828
 30
0.0
 11
-0.2177003570829683
 21
1.874517224134828
 31
0.0
  0
ARC
  5
4074
330
2
100
AcDbEntity
  8
TEXT
100
AcDbCircle
 10
-0.1468628907244187
 20
1.691239999506874
 30
0.0
 40
0.0831958083605586
100
AcDbArc
 50
270.0
 51
90.0
  0
LINE
  5
4075
330
2
100
AcDbEntity
  8
TEXT
100
AcDbLine
 10
-0.2124630269687202
 20
1.810240529478062
 30
0.0
 11
-0.0455573729397498
 21
1.810240529478062
 31
0.0
  0
LINE
  5
4076
330
2
100
AcDbEntity
  8
TEXT
100
AcDbLine
 10
-0.1419225168181395
 20
1.676401197479756
 30
0.0
 11
-0.2997878165294736
 21
1.676401197479756
 31
0.0
  0
LINE
  5
4077
330
2
100
AcDbEntity
  8
TEXT
100
AcDbLine
 10
-0.2997878165294718
 20
1.608044191146317
 30
0.0
 11
-0.1468628907244192
 21
1.608044191146317
 31
0.0
  0
ARC
  5
4078
330
2
100
AcDbEntity
  8
TEXT
100
AcDbCircle
 10
-0.2177003570829679
 20
1.792429764688326
 30
0.0
 40
0.0820874594465043
100
AcDbArc
 50
90.0
 51
270.0
  0
LINE
  5
4079
330
2
100
AcDbEntity
  8
TEXT
100
AcDbLine
 10
-0.2997878165294736
 20
1.676401197479756
 30
0.0
 11
-0.2997878165294718
 21
1.608044191146317
 31
0.0
  0
LINE
  5
407A
330
2
100
AcDbEntity
  8
TEXT
100
AcDbLine
 10
-0.2177003570829683
 20
1.71034230524182
 30
0.0
 11
-0.1419225168181395
 21
1.71034230524182
 31
0.0
  0
ARC
  5
407B
330
2
100
AcDbEntity
  8
TEXT
100
AcDbCircle
 10
-0.141922516818139
 20
1.69337175136079
 30
0.0
 40
0.0169705538810321
100
AcDbArc
 50
270.0
 51
90.0
  0
LINE
  5
407C
330
2
100
AcDbEntity
  8
TEXT
100
AcDbLine
 10
-0.1468628907244192
 20
1.774435807867434
 30
0.0
 11
-0.2124630269687202
 21
1.774435807867434
 31
0.0
  0
ARC
  5
407D
330
2
100
AcDbEntity
  8
TEXT
100
AcDbCircle
 10
-0.2124630269687198
 20
1.79233816867275
 30
0.0
 40
0.017902360805315
100
AcDbArc
 50
90.0
 51
270.0
  0
LINE
  5
407E
330
2
100
AcDbEntity
  8
TEXT
100
AcDbLine
 10
0.1485032878353953
 20
1.773645228021707
 30
0.0
 11
0.0898729668034575
 21
1.874517224134828
 31
0.0
  0
LINE
  5
407F
330
2
100
AcDbEntity
  8
TEXT
100
AcDbLine
 10
0.0083292345403558
 20
1.608044191146317
 30
0.0
 11
0.1049694856153502
 21
1.608314830244599
 31
0.0
  0
LWPOLYLINE
  5
4080
330
2
100
AcDbEntity
  8
TEXT
100
AcDbPolyline
 90
        6
 70
     1
 43
0.0
 10
0.0508530381155059
 20
1.810240529478062
 10
0.0205364438952978
 20
1.810240529478062
 10
0.0205364438952978
 20
1.687129531423168
 42
0.407328721240804
 10
0.0320800950567741
 20
1.675310616746782
 10
0.0927017941015049
 20
1.675310616746782
 10
0.1101671345088229
 20
1.708122845790261
  0
LINE
  5
4081
330
2
100
AcDbEntity
  8
TEXT
100
AcDbLine
 10
-0.0455573729397498
 20
1.810240529478062
 30
0.0
 11
-0.0455573729397498
 21
1.667836582484366
 31
0.0
  0
ARC
  5
4082
330
2
100
AcDbEntity
  8
TEXT
100
AcDbCircle
 10
0.0145586450340027
 20
1.667836582484366
 30
0.0
 40
0.0601160179737537
100
AcDbArc
 50
180.0000000000003
 51
264.0521544866073
  0
LINE
  5
4083
330
2
100
AcDbEntity
  8
TEXT
100
AcDbLine
 10
0.0180740006595501
 20
1.908905141728966
 30
0.0
 11
-0.0419686041844569
 21
1.908905141728966
 31
0.0
  0
LINE
  5
4084
330
2
100
AcDbEntity
  8
TEXT
100
AcDbLine
 10
-0.0419686041844569
 20
1.908905141728966
 30
0.0
 11
-0.0419686041844569
 21
1.874517224134828
 31
0.0
  0
LINE
  5
4085
330
2
100
AcDbEntity
  8
TEXT
100
AcDbLine
 10
0.0180740006595501
 20
1.874517224134828
 30
0.0
 11
0.0180740006595501
 21
1.908905141728966
 31
0.0
  0
LINE
  5
4086
330
2
100
AcDbEntity
  8
TEXT
100
AcDbLine
 10
0.0898729668034575
 20
1.874517224134828
 30
0.0
 11
0.0180740006595501
 21
1.874517224134828
 31
0.0
  0
LINE
  5
4087
330
2
100
AcDbEntity
  8
TEXT
100
AcDbLine
 10
0.138903050838441
 20
1.628002697251329
 30
0.0
 11
0.2362027569318856
 21
1.792352908186598
 31
0.0
  0
LINE
  5
4088
330
2
100
AcDbEntity
  8
TEXT
100
AcDbLine
 10
0.2362027569318856
 20
1.792352908186598
 30
0.0
 11
0.2362027569318856
 21
1.659595533361241
 31
0.0
  0
ARC
  5
4089
330
2
100
AcDbEntity
  8
TEXT
100
AcDbCircle
 10
0.1048594909262275
 20
1.647591913420012
 30
0.0
 40
0.0392772371940762
100
AcDbArc
 50
270.1604552698595
 51
330.0831797321295
  0
LINE
  5
408A
330
2
100
AcDbEntity
  8
TEXT
100
AcDbLine
 10
0.2072518506412608
 20
1.874517224134828
 30
0.0
 11
0.1485032878353953
 21
1.773645228021707
 31
0.0
  0
LINE
  5
408B
330
2
100
AcDbEntity
  8
TEXT
100
AcDbLine
 10
0.2373737634346371
 20
1.942528701873638
 30
0.0
 11
0.2373737634346371
 21
1.874517224134828
 31
0.0
  0
LINE
  5
408C
330
2
100
AcDbEntity
  8
TEXT
100
AcDbLine
 10
0.2373737634346371
 20
1.874517224134828
 30
0.0
 11
0.2072518506412608
 21
1.874517224134828
 31
0.0
  0
LWPOLYLINE
  5
408D
330
2
100
AcDbEntity
  8
TEXT
100
AcDbPolyline
 90
        4
 70
     0
 43
0.0
 10
0.5894598850547954
 20
1.802686740311952
 10
0.5894598850547954
 20
1.608044191146317
 10
0.6579381683426533
 20
1.608044191146317
 10
0.6579381683426533
 20
1.651535136096755
 42
-1.714843617202739
  0
LWPOLYLINE
  5
408E
330
2
100
AcDbEntity
  8
TEXT
100
AcDbPolyline
 90
        2
 70
     0
 43
0.0
 10
0.6245942355990053
 20
1.874517224134831
 42
-0.3277054968067132
 10
0.6603759263121703
 20
1.846194678365187
 42
6.667889725900311
  0
LWPOLYLINE
  5
408F
330
2
100
AcDbEntity
  8
TEXT
100
AcDbPolyline
 90
        2
 70
     0
 43
0.0
 10
0.4531606630197782
 20
1.810240529478062
 42
-0.4142135623731017
 10
0.4607144521858917
 20
1.802686740311952
 42
-0.9999999999999998
  0
LINE
  5
4090
330
2
100
AcDbEntity
  8
TEXT
100
AcDbLine
 10
0.4705123860697987
 20
1.874517224134828
 30
0.0
 11
0.3364943301386623
 21
1.874517224134828
 31
0.0
  0
LINE
  5
4091
330
2
100
AcDbEntity
  8
TEXT
100
AcDbLine
 10
0.4033253831966315
 20
1.608044191146317
 30
0.0
 11
0.4033253831966315
 21
1.810240529478062
 31
0.0
  0
LINE
  5
4092
330
2
100
AcDbEntity
  8
TEXT
100
AcDbLine
 10
0.3364943301386623
 20
1.874517224134828
 30
0.0
 11
0.3364943301386623
 21
1.673653017402419
 31
0.0
  0
LINE
  5
4093
330
2
100
AcDbEntity
  8
TEXT
100
AcDbLine
 10
0.3041824760010021
 20
1.690432029249316
 30
0.0
 11
0.3041824760010021
 21
1.942528701873638
 31
0.0
  0
LINE
  5
4094
330
2
100
AcDbEntity
  8
TEXT
100
AcDbLine
 10
0.3053220494971969
 20
1.608044191146317
 30
0.0
 11
0.4033253831966315
 21
1.608044191146317
 31
0.0
  0
LINE
  5
4095
330
2
100
AcDbEntity
  8
TEXT
100
AcDbLine
 10
0.3364943301386623
 20
1.673653017402419
 30
0.0
 11
0.3195006932540609
 21
1.673653017402419
 31
0.0
  0
ARC
  5
4096
330
2
100
AcDbEntity
  8
TEXT
100
AcDbCircle
 10
0.31950069325406
 20
1.689034823645845
 30
0.0
 40
0.0153818062434269
100
AcDbArc
 50
174.7883570302258
 51
270.0
  0
LINE
  5
4097
330
2
100
AcDbEntity
  8
TEXT
100
AcDbLine
 10
0.4033253831966315
 20
1.810240529478062
 30
0.0
 11
0.4531606630197791
 21
1.810240529478062
 31
0.0
  0
LINE
  5
4098
330
2
100
AcDbEntity
  8
TEXT
100
AcDbLine
 10
0.4607144521858926
 20
1.802686740311952
 30
0.0
 11
0.4607144521858926
 21
1.608044191146317
 31
0.0
  0
LINE
  5
4099
330
2
100
AcDbEntity
  8
TEXT
100
AcDbLine
 10
0.5277724989677326
 20
1.608044191146317
 30
0.0
 11
0.5277724989677326
 21
1.810240529478062
 31
0.0
  0
LINE
  5
409A
330
2
100
AcDbEntity
  8
TEXT
100
AcDbLine
 10
0.4607144521858926
 20
1.608044191146317
 30
0.0
 11
0.5277724989677326
 21
1.608044191146317
 31
0.0
  0
LWPOLYLINE
  5
409B
330
2
100
AcDbEntity
  8
TEXT
100
AcDbPolyline
 90
        3
 70
     0
 43
0.0
 10
0.6245942355990053
 20
1.874517224134831
 10
0.5062940767829609
 20
1.874517224134831
 10
0.5062940767829609
 20
1.847349727373935
 42
-1.960274751411753
  0
LINE
  5
409C
330
2
100
AcDbEntity
  8
TEXT
100
AcDbLine
 10
0.5277724989677326
 20
1.810240529478062
 30
0.0
 11
0.5819060958886828
 21
1.810240529478062
 31
0.0
  0
LWPOLYLINE
  5
409D
330
2
100
AcDbEntity
  8
TEXT
100
AcDbPolyline
 90
        2
 70
     0
 43
0.0
 10
0.4705123860697995
 20
1.874517224134831
 42
-0.3328679258950098
 10
0.5062940767829609
 20
1.847349727373935
 42
6.772930709997214
  0
LWPOLYLINE
  5
409E
330
2
100
AcDbEntity
  8
TEXT
100
AcDbPolyline
 90
        2
 70
     0
 43
0.0
 10
0.581906095888682
 20
1.810240529478062
 42
-0.4142135623731017
 10
0.5894598850547954
 20
1.802686740311952
 42
-0.9999999999999998
  0
ARC
  5
409F
330
2
100
AcDbEntity
  8
TEXT
100
AcDbCircle
 10
0.7931808957521618
 20
1.832933657013925
 30
0.0
 40
0.0416329381542859
100
AcDbArc
 50
26.56974201007528
 51
87.20939649401342
  0
LWPOLYLINE
  5
40A0
330
2
100
AcDbEntity
  8
TEXT
100
AcDbPolyline
 90
        2
 70
     0
 43
0.0
 10
0.7010141012102889
 20
1.608044191146317
 10
0.8350315188416654
 20
1.608044191146317
 42
0.9999999999999998
  0
LWPOLYLINE
  5
40A1
330
2
100
AcDbEntity
  8
TEXT
100
AcDbPolyline
 90
        4
 70
     1
 43
0.0
 10
0.8149090537717729
 20
1.711008169130342
 10
0.7262487351119145
 20
1.711008169130342
 42
0.9999999999999998
 10
0.7262487351119145
 20
1.668609628626481
 10
0.8149090537717729
 20
1.668609628626481
 42
1.0
  0
LWPOLYLINE
  5
40A2
330
2
100
AcDbEntity
  8
TEXT
100
AcDbPolyline
 90
        2
 70
     0
 43
0.0
 10
0.6579381683426533
 20
1.651535136096755
 42
0.2901071551932823
 10
0.7010141012102889
 20
1.608044191146317
 42
5.328517124445801
  0
LINE
  5
40A3
330
2
100
AcDbEntity
  8
TEXT
100
AcDbLine
 10
0.7952078355292303
 20
1.874517224134828
 30
0.0
 11
0.6603759263121712
 21
1.874517224134828
 31
0.0
  0
LINE
  5
40A4
330
2
100
AcDbEntity
  8
TEXT
100
AcDbLine
 10
0.7196900227054899
 20
1.77296555601593
 30
0.0
 11
0.8019780124888731
 21
1.77296555601593
 31
0.0
  0
LINE
  5
40A5
330
2
100
AcDbEntity
  8
TEXT
100
AcDbLine
 10
0.7661769371847518
 20
1.810240529478062
 30
0.0
 11
0.6589706637974624
 21
1.810240529478062
 31
0.0
  0
LINE
  5
40A6
330
2
100
AcDbEntity
  8
TEXT
100
AcDbLine
 10
0.6603759263121712
 20
1.874517224134828
 30
0.0
 11
0.6603759263121712
 21
1.846194678365184
 31
0.0
  0
ARC
  5
40A7
330
2
100
AcDbEntity
  8
TEXT
100
AcDbCircle
 10
0.719690022705489
 20
1.705279974871811
 30
0.0
 40
0.0676855811441166
100
AcDbArc
 50
90.0
 51
153.7768192527749
  0
LINE
  5
40A8
330
2
100
AcDbEntity
  8
TEXT
100
AcDbLine
 10
0.6589706637974624
 20
1.810240529478062
 30
0.0
 11
0.6589706637974624
 21
1.735188123403855
 31
0.0
  0
LINE
  5
40A9
330
2
100
AcDbEntity
  8
TEXT
100
AcDbLine
 10
0.8019780124888731
 20
1.77296555601593
 30
0.0
 11
0.7917132520753088
 21
1.794216095588624
 31
0.0
  0
ARC
  5
40AA
330
2
100
AcDbEntity
  8
TEXT
100
AcDbCircle
 10
0.7661769371847509
 20
1.781881154478065
 30
0.0
 40
0.028359375
100
AcDbArc
 50
25.78218179591245
 51
90.0
  0
LINE
  5
40AB
330
2
100
AcDbEntity
  8
TEXT
100
AcDbLine
 10
0.9364626655446448
 20
1.608044191146317
 30
0.0
 11
0.9364626655446395
 21
1.785334696577785
 31
0.0
  0
LWPOLYLINE
  5
40AC
330
2
100
AcDbEntity
  8
TEXT
100
AcDbPolyline
 90
        2
 70
     0
 43
0.0
 10
0.8781074517093099
 20
1.608044191146317
 10
0.9364626655446439
 20
1.608044191146317
  0
LWPOLYLINE
  5
40AD
330
2
100
AcDbEntity
  8
TEXT
100
AcDbPolyline
 90
        2
 70
     0
 43
0.0
 10
0.8781074517093099
 20
1.651535136096755
 42
-0.2901071551932486
 10
0.8350315188416654
 20
1.608044191146317
 42
-5.328517124445184
  0
LWPOLYLINE
  5
40AE
330
2
100
AcDbEntity
  8
TEXT
100
AcDbPolyline
 90
        2
 70
     0
 43
0.0
 10
0.8781074517093099
 20
1.651535136096755
 10
0.8781074517093099
 20
1.608044191146317
  0
LINE
  5
40AF
330
2
100
AcDbEntity
  8
TEXT
100
AcDbLine
 10
0.9380646807037722
 20
1.874517224134828
 30
0.0
 11
0.8741677744042712
 21
1.874517224134828
 31
0.0
  0
LINE
  5
40B0
330
2
100
AcDbEntity
  8
TEXT
100
AcDbLine
 10
0.8741677744042712
 20
1.874517224134828
 30
0.0
 11
0.8741677744042712
 21
1.7693052455814
 31
0.0
  0
LINE
  5
40B1
330
2
100
AcDbEntity
  8
TEXT
100
AcDbLine
 10
0.8741677744042712
 20
1.7693052455814
 30
0.0
 11
0.8304170032223696
 21
1.851555521577545
 31
0.0
  0
ARC
  5
40B2
330
2
100
AcDbEntity
  8
TEXT
100
AcDbCircle
 10
0.9613685408273031
 20
1.785334654195399
 30
0.0
 40
0.0249058752826653
100
AcDbArc
 50
89.99971217465335
 51
179.9999999999985
  0
ARC
  5
40B3
330
2
100
AcDbEntity
  8
TEXT
100
AcDbCircle
 10
0.9692574977668808
 20
1.843271496852563
 30
0.0
 40
0.0314112657011332
100
AcDbArc
 50
95.88484768694724
 51
173.2388340632136
  0
LINE
  5
40B4
330
2
100
AcDbEntity
  8
TEXT
100
AcDbLine
 10
0.9380646807037722
 20
1.846969574273953
 30
0.0
 11
0.9380646807037722
 21
1.874517224134828
 31
0.0
  0
TEXT
  5
40B5
330
2
100
AcDbEntity
  8
TEXT
100
AcDbText
 10
1.406940200125562
 20
1.700929999791813
 30
0.0
 40
0.0522247191011236
  1
Minneapolis, MN 55432-0008
 41
1.11444212721585
 72
     5
 11
2.735872784395226
 21
1.700929999791813
 31
0.0
100
AcDbText
  0
TEXT
  5
40B6
330
2
100
AcDbEntity
  8
TEXT
100
AcDbText
 10
1.406940200125562
 20
1.794188426758105
 30
0.0
 40
0.0522247191011236
  1
6536 Main St. N.E. * P.O. Box 32008
 41
0.8388932496075355
 72
     5
 11
2.735872784395226
 21
1.794188426758105
 31
0.0
100
AcDbText
  0
TEXT
  5
40B7
330
2
100
AcDbEntity
  8
TEXT
100
AcDbText
 10
1.406940200125562
 20
1.887446853724397
 30
0.0
 40
0.0522247191011236
  1
Stylmark  Incorporated
 41
1.221428571428571
 72
     5
 11
2.735872784395226
 21
1.887446853724397
 31
0.0
100
AcDbText
  0
TEXT
  5
40B8
330
2
100
AcDbEntity
  8
TEXT
100
AcDbText
 10
1.406940200125562
 20
1.607671572825521
 30
0.0
 40
0.0522247191011236
  1
Phone  1-800-328-2495
 41
1.272321428571429
 72
     5
 11
2.735872784395226
 21
1.607671572825521
 31
0.0
100
AcDbText
  0
LINE
  5
40B9
330
2
100
AcDbEntity
  8
TEXT
100
AcDbLine
 10
1.159384388662547
 20
1.764623981193854
 30
0.0
 11
1.223941504628252
 21
1.874517224134828
 31
0.0
  0
LINE
  5
40BA
330
2
100
AcDbEntity
  8
TEXT
100
AcDbLine
 10
1.223941504628252
 20
1.874517224134828
 30
0.0
 11
1.148949671898626
 21
1.874517224134828
 31
0.0
  0
LINE
  5
40BB
330
2
100
AcDbEntity
  8
TEXT
100
AcDbLine
 10
1.178298239649952
 20
1.608044191146317
 30
0.0
 11
1.254876612026158
 21
1.608044191146317
 31
0.0
  0
LINE
  5
40BC
330
2
100
AcDbEntity
  8
TEXT
100
AcDbLine
 10
1.254876612026158
 20
1.608044191146317
 30
0.0
 11
1.159384388662547
 21
1.764623981193854
 31
0.0
  0
LINE
  5
40BD
330
2
100
AcDbEntity
  8
TEXT
100
AcDbLine
 10
1.102394706438487
 20
1.608044191146317
 30
0.0
 11
1.102394706438487
 21
1.739623759622497
 31
0.0
  0
LINE
  5
40BE
330
2
100
AcDbEntity
  8
TEXT
100
AcDbLine
 10
1.102394706438487
 20
1.739623759622497
 30
0.0
 11
1.178298239649952
 21
1.608044191146317
 31
0.0
  0
LINE
  5
40BF
330
2
100
AcDbEntity
  8
TEXT
100
AcDbLine
 10
1.038016522119861
 20
1.810240529478062
 30
0.0
 11
1.038016522119867
 21
1.608044191146317
 31
0.0
  0
LINE
  5
40C0
330
2
100
AcDbEntity
  8
TEXT
100
AcDbLine
 10
1.038016522119867
 20
1.608044191146317
 30
0.0
 11
1.102394706438487
 21
1.608044191146317
 31
0.0
  0
LINE
  5
40C1
330
2
100
AcDbEntity
  8
TEXT
100
AcDbLine
 10
1.10185151334264
 20
1.939981429902428
 30
0.0
 11
1.033536634793366
 21
1.939981429902428
 31
0.0
  0
LINE
  5
40C2
330
2
100
AcDbEntity
  8
TEXT
100
AcDbLine
 10
1.033536634793366
 20
1.939981429902428
 30
0.0
 11
1.033536634793361
 21
1.874517224134828
 31
0.0
  0
LINE
  5
40C3
330
2
100
AcDbEntity
  8
TEXT
100
AcDbLine
 10
1.148949671898624
 20
1.874517224134828
 30
0.0
 11
1.10185151334264
 21
1.798651897723289
 31
0.0
  0
LINE
  5
40C4
330
2
100
AcDbEntity
  8
TEXT
100
AcDbLine
 10
1.10185151334264
 20
1.798651897723289
 30
0.0
 11
1.10185151334264
 21
1.939981429902428
 31
0.0
  0
ENDSEC
  0
SECTION
  2
OBJECTS
  0
DICTIONARY
  5
1A
330
0
100
AcDbDictionary
  3
ACAD_GROUP
350
18
  3
ACAD_LAYOUT
350
40C9
  3
ACAD_MLINESTYLE
350
19
  3
ACAD_PLOTSETTINGS
350
40CA
  3
ACAD_PLOTSTYLENAME
350
40C7
  3
ACDBHEADERROUNDTRIPXREC
350
40D4
  3
ACDBVARIABLEDICTIONARY
350
40D1
  0
DICTIONARY
  5
40F4
330
2
100
AcDbDictionary
280
     1
  3
ACAD_LAYOUTSELFREF
360
40F5
  0
DICTIONARY
  5
40F6
330
8
100
AcDbDictionary
280
     1
  3
ACAD_LAYOUTSELFREF
360
40F7
  0
DICTIONARY
  5
18
102
{ACAD_REACTORS
330
1A
102
}
330
1A
100
AcDbDictionary
  3
*A1
350
177A
  3
*A2
350
1AE3
  3
*A3
350
1EB6
  3
*A4
350
2164
  3
*A5
350
2558
  3
*A6
350
2559
  3
*A7
350
2A54
  3
*A8
350
3CDF
  3
*A9
350
3EFF
  0
DICTIONARY
  5
40C9
102
{ACAD_REACTORS
330
1A
102
}
330
1A
100
AcDbDictionary
  0
DICTIONARY
  5
19
102
{ACAD_REACTORS
330
1A
102
}
330
1A
100
AcDbDictionary
  3
STANDARD
350
1C
  0
DICTIONARY
  5
40CA
102
{ACAD_REACTORS
330
1A
102
}
330
1A
100
AcDbDictionary
  0
ACDBDICTIONARYWDFLT
  5
40C7
102
{ACAD_REACTORS
330
1A
102
}
330
1A
100
AcDbDictionary
281
     1
  3
Normal
350
40C8
100
AcDbDictionaryWithDefault
340
40C8
  0
DICTIONARY
  5
40D4
102
{ACAD_REACTORS
330
1A
102
}
330
1A
100
AcDbDictionary
  3
CEPSNTYPE
350
40DE
  3
FINGERPRINTGUID
350
40DF
  3
HYPERLINKBASE
350
40D7
  3
INSUNITS
350
40DD
  3
LAYOUTDICT
350
40D9
  3
LWETCUNION
350
40DC
  3
PLOTSETDICT
350
40DA
  3
PLOTSTYLNAMDICT
350
40DB
  3
PSVPSCALE
350
40E1
  3
PUCSBASE
350
40E4
  3
PUCSORGBACK
350
40EA
  3
PUCSORGBOTTOM
350
40E6
  3
PUCSORGFRONT
350
40E9
  3
PUCSORGLEFT
350
40E7
  3
PUCSORGRIGHT
350
40E8
  3
PUCSORGTOP
350
40E5
  3
PUCSORTHOREF
350
40E2
  3
PUCSORTHOVIEW
350
40E3
  3
STYLESHEET
350
40D8
  3
TSTACKALIGN
350
40D5
  3
TSTACKSIZE
350
40D6
  3
UCSBASE
350
40ED
  3
UCSORGBACK
350
40F3
  3
UCSORGBOTTOM
350
40EF
  3
UCSORGFRONT
350
40F2
  3
UCSORGLEFT
350
40F0
  3
UCSORGRIGHT
350
40F1
  3
UCSORGTOP
350
40EE
  3
UCSORTHOREF
350
40EB
  3
UCSORTHOVIEW
350
40EC
  3
VERSIONGUID
350
40E0
  0
DICTIONARY
  5
40D1
102
{ACAD_REACTORS
330
1A
102
}
330
1A
100
AcDbDictionary
  3
DIMASSOC
350
40D2
  0
XRECORD
  5
40F5
102
{ACAD_REACTORS
330
40F4
102
}
330
40F4
100
AcDbXrecord
340
2
  0
XRECORD
  5
40F7
102
{ACAD_REACTORS
330
40F6
102
}
330
40F6
100
AcDbXrecord
340
8
  0
GROUP
  5
177A
102
{ACAD_REACTORS
330
18
102
}
330
18
100
AcDbGroup
300
BORDER FRAME 10-1-95
 70
     3
 71
     1
  0
GROUP
  5
1AE3
102
{ACAD_REACTORS
330
18
102
}
330
18
100
AcDbGroup
300

 70
     1
 71
     1
  0
GROUP
  5
1EB6
102
{ACAD_REACTORS
330
18
102
}
330
18
100
AcDbGroup
300

 70
     1
 71
     1
  0
GROUP
  5
2164
102
{ACAD_REACTORS
330
18
102
}
330
18
100
AcDbGroup
300

 70
     1
 71
     1
  0
GROUP
  5
2558
102
{ACAD_REACTORS
330
18
102
}
330
18
100
AcDbGroup
300
BORDER FRAME 10-1-95
 70
     3
 71
     1
  0
GROUP
  5
2559
102
{ACAD_REACTORS
330
18
102
}
330
18
100
AcDbGroup
300

 70
     3
 71
     1
  0
GROUP
  5
2A54
102
{ACAD_REACTORS
330
18
102
}
330
18
100
AcDbGroup
300

 70
     1
 71
     1
  0
GROUP
  5
3CDF
102
{ACAD_REACTORS
330
18
102
}
330
18
100
AcDbGroup
300

 70
     1
 71
     1
  0
GROUP
  5
3EFF
102
{ACAD_REACTORS
330
18
102
}
330
18
100
AcDbGroup
300

 70
     1
 71
     1
  0
MLINESTYLE
  5
1C
102
{ACAD_REACTORS
330
19
102
}
330
19
100
AcDbMlineStyle
  2
STANDARD
 70
     0
  3

 62
     0
 51
90.0
 52
90.0
 71
     2
 49
0.5
 62
   256
  6
BYLAYER
 49
-0.5
 62
   256
  6
BYLAYER
  0
ACDBPLACEHOLDER
  5
40C8
102
{ACAD_REACTORS
330
40C7
102
}
330
40C7
100
AcDbPlaceHolder
280
     0
  0
XRECORD
  5
40DE
102
{ACAD_REACTORS
330
40D4
102
}
330
40D4
100
AcDbXrecord
 90
        0
  0
XRECORD
  5
40DF
102
{ACAD_REACTORS
330
40D4
102
}
330
40D4
100
AcDbXrecord
  1
{C7204660-8DB8-11D6-88E6-0090279574E7}
  0
XRECORD
  5
40D7
102
{ACAD_REACTORS
330
40D4
102
}
330
40D4
100
AcDbXrecord
  1

  0
XRECORD
  5
40DD
102
{ACAD_REACTORS
330
40D4
102
}
330
40D4
100
AcDbXrecord
 90
        0
  0
XRECORD
  5
40D9
102
{ACAD_REACTORS
330
40D4
102
}
330
40D4
100
AcDbXrecord
340
40C9
  0
XRECORD
  5
40DC
102
{ACAD_REACTORS
330
40D4
102
}
330
40D4
100
AcDbXrecord
 90
    14877
  0
XRECORD
  5
40DA
102
{ACAD_REACTORS
330
40D4
102
}
330
40D4
100
AcDbXrecord
340
40CA
  0
XRECORD
  5
40DB
102
{ACAD_REACTORS
330
40D4
102
}
330
40D4
100
AcDbXrecord
340
40C7
  0
XRECORD
  5
40E1
102
{ACAD_REACTORS
330
40D4
102
}
330
40D4
100
AcDbXrecord
 40
0.0
  0
XRECORD
  5
40E4
102
{ACAD_REACTORS
330
40D4
102
}
330
40D4
100
AcDbXrecord
340
0
  0
XRECORD
  5
40EA
102
{ACAD_REACTORS
330
40D4
102
}
330
40D4
100
AcDbXrecord
 10
0.0
 20
0.0
 30
0.0
  0
XRECORD
  5
40E6
102
{ACAD_REACTORS
330
40D4
102
}
330
40D4
100
AcDbXrecord
 10
0.0
 20
0.0
 30
0.0
  0
XRECORD
  5
40E9
102
{ACAD_REACTORS
330
40D4
102
}
330
40D4
100
AcDbXrecord
 10
0.0
 20
0.0
 30
0.0
  0
XRECORD
  5
40E7
102
{ACAD_REACTORS
330
40D4
102
}
330
40D4
100
AcDbXrecord
 10
0.0
 20
0.0
 30
0.0
  0
XRECORD
  5
40E8
102
{ACAD_REACTORS
330
40D4
102
}
330
40D4
100
AcDbXrecord
 10
0.0
 20
0.0
 30
0.0
  0
XRECORD
  5
40E5
102
{ACAD_REACTORS
330
40D4
102
}
330
40D4
100
AcDbXrecord
 10
0.0
 20
0.0
 30
0.0
  0
XRECORD
  5
40E2
102
{ACAD_REACTORS
330
40D4
102
}
330
40D4
100
AcDbXrecord
340
0
  0
XRECORD
  5
40E3
102
{ACAD_REACTORS
330
40D4
102
}
330
40D4
100
AcDbXrecord
 70
     0
  0
XRECORD
  5
40D8
102
{ACAD_REACTORS
330
40D4
102
}
330
40D4
100
AcDbXrecord
  1

  0
XRECORD
  5
40D5
102
{ACAD_REACTORS
330
40D4
102
}
330
40D4
100
AcDbXrecord
 90
        1
  0
XRECORD
  5
40D6
102
{ACAD_REACTORS
330
40D4
102
}
330
40D4
100
AcDbXrecord
 90
       70
  0
XRECORD
  5
40ED
102
{ACAD_REACTORS
330
40D4
102
}
330
40D4
100
AcDbXrecord
340
0
  0
XRECORD
  5
40F3
102
{ACAD_REACTORS
330
40D4
102
}
330
40D4
100
AcDbXrecord
 10
0.0
 20
0.0
 30
0.0
  0
XRECORD
  5
40EF
102
{ACAD_REACTORS
330
40D4
102
}
330
40D4
100
AcDbXrecord
 10
0.0
 20
0.0
 30
0.0
  0
XRECORD
  5
40F2
102
{ACAD_REACTORS
330
40D4
102
}
330
40D4
100
AcDbXrecord
 10
0.0
 20
0.0
 30
0.0
  0
XRECORD
  5
40F0
102
{ACAD_REACTORS
330
40D4
102
}
330
40D4
100
AcDbXrecord
 10
0.0
 20
0.0
 30
0.0
  0
XRECORD
  5
40F1
102
{ACAD_REACTORS
330
40D4
102
}
330
40D4
100
AcDbXrecord
 10
0.0
 20
0.0
 30
0.0
  0
XRECORD
  5
40EE
102
{ACAD_REACTORS
330
40D4
102
}
330
40D4
100
AcDbXrecord
 10
0.0
 20
0.0
 30
0.0
  0
XRECORD
  5
40EB
102
{ACAD_REACTORS
330
40D4
102
}
330
40D4
100
AcDbXrecord
340
0
  0
XRECORD
  5
40EC
102
{ACAD_REACTORS
330
40D4
102
}
330
40D4
100
AcDbXrecord
 70
     0
  0
XRECORD
  5
40E0
102
{ACAD_REACTORS
330
40D4
102
}
330
40D4
100
AcDbXrecord
  1
{C7204662-8DB8-11D6-88E6-0090279574E7}
  0
DICTIONARYVAR
  5
40D2
102
{ACAD_REACTORS
330
40D1
102
}
330
40D1
100
DictionaryVariables
280
     0
  1
1
  0
ENDSEC
  0
EOF
