  0
SECTION
  2
HEADER
  9
$ACADVER
  1
AC1014
  9
$ACADMAINTVER
 70
     9
  9
$DWGCODEPAGE
  3
ANSI_1252
  9
$INSBASE
 10
19.07399572919845
 20
40.14969080675128
 30
0.0
  9
$EXTMIN
 10
-0.9280621528966193
 20
1.664771762659899
 30
0.0
  9
$EXTMAX
 10
2.557157168850508
 20
3.26567797343899
 30
0.0
  9
$LIMMIN
 10
0.0
 20
0.0
  9
$LIMMAX
 10
18.0
 20
12.0
  9
$ORTHOMODE
 70
     0
  9
$REGENMODE
 70
     1
  9
$FILLMODE
 70
     1
  9
$QTEXTMODE
 70
     0
  9
$MIRRTEXT
 70
     0
  9
$DRAGMODE
 70
     2
  9
$LTSCALE
 40
1.0
  9
$OSMODE
 70
    39
  9
$ATTMODE
 70
     1
  9
$TEXTSIZE
 40
0.125
  9
$TRACEWID
 40
0.05
  9
$TEXTSTYLE
  7
ROMANS
  9
$CLAYER
  8
DIM
  9
$CELTYPE
  6
BYLAYER
  9
$CECOLOR
 62
   256
  9
$CELTSCALE
 40
1.0
  9
$DELOBJ
 70
     1
  9
$DISPSILH
 70
     1
  9
$DIMSCALE
 40
1.0
  9
$DIMASZ
 40
0.125
  9
$DIMEXO
 40
0.125
  9
$DIMDLI
 40
0.375
  9
$DIMRND
 40
0.0
  9
$DIMDLE
 40
0.0
  9
$DIMEXE
 40
0.125
  9
$DIMTP
 40
0.0
  9
$DIMTM
 40
0.0
  9
$DIMTXT
 40
0.125
  9
$DIMCEN
 40
-0.125
  9
$DIMTSZ
 40
0.0
  9
$DIMTOL
 70
     0
  9
$DIMLIM
 70
     0
  9
$DIMTIH
 70
     1
  9
$DIMTOH
 70
     1
  9
$DIMSE1
 70
     0
  9
$DIMSE2
 70
     0
  9
$DIMTAD
 70
     0
  9
$DIMZIN
 70
     4
  9
$DIMBLK
  1

  9
$DIMASO
 70
     1
  9
$DIMSHO
 70
     1
  9
$DIMPOST
  1

  9
$DIMAPOST
  1

  9
$DIMALT
 70
     0
  9
$DIMALTD
 70
     2
  9
$DIMALTF
 40
25.4
  9
$DIMLFAC
 40
0.25
  9
$DIMTOFL
 70
     0
  9
$DIMTVP
 40
0.0
  9
$DIMTIX
 70
     1
  9
$DIMSOXD
 70
     0
  9
$DIMSAH
 70
     0
  9
$DIMBLK1
  1

  9
$DIMBLK2
  1

  9
$DIMSTYLE
  2
STANDARD
  9
$DIMCLRD
 70
     0
  9
$DIMCLRE
 70
     0
  9
$DIMCLRT
 70
     0
  9
$DIMTFAC
 40
1.0
  9
$DIMGAP
 40
0.09
  9
$DIMJUST
 70
     0
  9
$DIMSD1
 70
     0
  9
$DIMSD2
 70
     0
  9
$DIMTOLJ
 70
     1
  9
$DIMTZIN
 70
     4
  9
$DIMALTZ
 70
     0
  9
$DIMALTTZ
 70
     0
  9
$DIMFIT
 70
     3
  9
$DIMUPT
 70
     0
  9
$DIMUNIT
 70
     2
  9
$DIMDEC
 70
     3
  9
$DIMTDEC
 70
     3
  9
$DIMALTU
 70
     2
  9
$DIMALTTD
 70
     2
  9
$DIMTXSTY
  7
ROMANS
  9
$DIMAUNIT
 70
     0
  9
$LUNITS
 70
     2
  9
$LUPREC
 70
     3
  9
$SKETCHINC
 40
0.1
  9
$FILLETRAD
 40
0.015
  9
$AUNITS
 70
     0
  9
$AUPREC
 70
     0
  9
$MENU
  1
ACAD
  9
$ELEVATION
 40
0.0
  9
$PELEVATION
 40
0.0
  9
$THICKNESS
 40
0.0
  9
$LIMCHECK
 70
     0
  9
$BLIPMODE
 70
     0
  9
$CHAMFERA
 40
0.03125
  9
$CHAMFERB
 40
0.03125
  9
$CHAMFERC
 40
0.0
  9
$CHAMFERD
 40
0.0
  9
$SKPOLY
 70
     0
  9
$TDCREATE
 40
2450407.401623032
  9
$TDUPDATE
 40
2452458.319160173
  9
$TDINDWG
 40
10.1138245718
  9
$TDUSRTIMER
 40
10.1138245718
  9
$USRTIMER
 70
     1
  9
$ANGBASE
 50
0.0
  9
$ANGDIR
 70
     0
  9
$PDMODE
 70
     0
  9
$PDSIZE
 40
0.0
  9
$PLINEWID
 40
0.0
  9
$COORDS
 70
     2
  9
$SPLFRAME
 70
     0
  9
$SPLINETYPE
 70
     6
  9
$SPLINESEGS
 70
     8
  9
$ATTDIA
 70
     0
  9
$ATTREQ
 70
     1
  9
$HANDLING
 70
 22529
  9
$HANDSEED
  5
40F8
  9
$SURFTAB1
 70
     6
  9
$SURFTAB2
 70
     6
  9
$SURFTYPE
 70
     6
  9
$SURFU
 70
     6
  9
$SURFV
 70
     6
  9
$UCSNAME
  2

  9
$UCSORG
 10
0.0
 20
0.0
 30
0.0
  9
$UCSXDIR
 10
1.0
 20
0.0
 30
0.0
  9
$UCSYDIR
 10
0.0
 20
1.0
 30
0.0
  9
$PUCSNAME
  2

  9
$PUCSORG
 10
0.0
 20
0.0
 30
0.0
  9
$PUCSXDIR
 10
1.0
 20
0.0
 30
0.0
  9
$PUCSYDIR
 10
0.0
 20
1.0
 30
0.0
  9
$USERI1
 70
     0
  9
$USERI2
 70
     0
  9
$USERI3
 70
     0
  9
$USERI4
 70
     0
  9
$USERI5
 70
     0
  9
$USERR1
 40
0.0
  9
$USERR2
 40
0.0
  9
$USERR3
 40
0.0
  9
$USERR4
 40
0.0
  9
$USERR5
 40
0.0
  9
$WORLDVIEW
 70
     1
  9
$SHADEDGE
 70
     3
  9
$SHADEDIF
 70
    70
  9
$TILEMODE
 70
     1
  9
$MAXACTVP
 70
    16
  9
$PINSBASE
 10
0.0
 20
0.0
 30
0.0
  9
$PLIMCHECK
 70
     0
  9
$PEXTMIN
 10
50.016483474401
 20
33.40594830216693
 30
-29.11368750000001
  9
$PEXTMAX
 10
116.7849835004977
 20
55.41491692415298
 30
22.78631249999999
  9
$PLIMMIN
 10
0.0
 20
0.0
  9
$PLIMMAX
 10
12.0
 20
9.0
  9
$UNITMODE
 70
     0
  9
$VISRETAIN
 70
     0
  9
$PLINEGEN
 70
     1
  9
$PSLTSCALE
 70
     0
  9
$TREEDEPTH
 70
  3020
  9
$PICKSTYLE
 70
     1
  9
$CMLSTYLE
  2
STANDARD
  9
$CMLJUST
 70
     0
  9
$CMLSCALE
 40
1.0
  9
$PROXYGRAPHICS
 70
     1
  9
$MEASUREMENT
 70
     0
  0
ENDSEC
  0
SECTION
  2
CLASSES
  0
CLASS
  1
LWPOLYLINE
  2
AcDbPolyline
  3
AutoCAD 2000
 90
        0
280
     0
281
     1
  0
CLASS
  1
ACDBDICTIONARYWDFLT
  2
AcDbDictionaryWithDefault
  3
AutoCAD 2000
 90
        0
280
     0
281
     0
  0
CLASS
  1
ACDBPLACEHOLDER
  2
AcDbPlaceHolder
  3
AutoCAD 2000
 90
        0
280
     0
281
     0
  0
CLASS
  1
LAYOUT
  2
AcDbLayout
  3
AutoCAD 2000
 90
        0
280
     0
281
     0
  0
CLASS
  1
DICTIONARYVAR
  2
AcDbDictionaryVar
  3
AutoCAD 2000
 90
        0
280
     0
281
     0
  0
CLASS
  1
LONG_TRANSACTION
  2
AcDbLongTransaction
  3
AutoCAD 2000
 90
        0
280
     0
281
     0
  0
CLASS
  1
LWPOLYLINE
  2
AcDbPolyline
  3
AutoCAD 2000
 90
        0
280
     0
281
     1
  0
CLASS
  1
HATCH
  2
AcDbHatch
  3
AutoCAD 2000
 90
        0
280
     0
281
     1
  0
CLASS
  1
XRECORD
  2
AcDbXrecord
  3
AutoCAD 2000
 90
        0
280
     0
281
     0
  0
ENDSEC
  0
SECTION
  2
TABLES
  0
TABLE
  2
VPORT
  5
12
330
0
100
AcDbSymbolTable
 70
     2
  0
VPORT
  5
40D3
330
12
100
AcDbSymbolTableRecord
100
AcDbViewportTableRecord
  2
*ACTIVE
 70
     0
 10
0.0
 20
0.0
 11
1.0
 21
1.0
 12
3.736600581966861
 22
2.465449852955581
 13
0.0
 23
0.0
 14
0.0625
 24
0.0625
 15
0.0
 25
0.0
 16
0.0
 26
0.0
 36
1.0
 17
0.0
 27
0.0
 37
0.0
 40
2.163628077419664
 41
4.320930232558139
 42
50.0
 43
0.0
 44
0.0
 50
0.0
 51
0.0
 71
     0
 72
  2000
 73
     1
 74
     1
 75
     0
 76
     0
 77
     0
 78
     0
  0
ENDTAB
  0
TABLE
  2
LTYPE
  5
E
330
0
100
AcDbSymbolTable
 70
     1
  0
LTYPE
  5
F
330
E
100
AcDbSymbolTableRecord
100
AcDbLinetypeTableRecord
  2
BYBLOCK
 70
     0
  3

 72
    65
 73
     0
 40
0.0
  0
LTYPE
  5
6
330
E
100
AcDbSymbolTableRecord
100
AcDbLinetypeTableRecord
  2
BYLAYER
 70
     0
  3

 72
    65
 73
     0
 40
0.0
  0
LTYPE
  5
5
330
E
100
AcDbSymbolTableRecord
100
AcDbLinetypeTableRecord
  2
CONTINUOUS
 70
     0
  3
Solid line
 72
    65
 73
     0
 40
0.0
  0
ENDTAB
  0
TABLE
  2
LAYER
  5
B
330
0
100
AcDbSymbolTable
 70
     3
  0
LAYER
  5
4
330
B
100
AcDbSymbolTableRecord
100
AcDbLayerTableRecord
  2
0
 70
     0
 62
     7
  6
CONTINUOUS
  0
LAYER
  5
352
330
B
100
AcDbSymbolTableRecord
100
AcDbLayerTableRecord
  2
DIM
 70
     0
 62
     4
  6
CONTINUOUS
  0
LAYER
  5
9D4
330
B
100
AcDbSymbolTableRecord
100
AcDbLayerTableRecord
  2
TEXT
 70
     0
 62
     3
  6
CONTINUOUS
  0
ENDTAB
  0
TABLE
  2
STYLE
  5
C
330
0
100
AcDbSymbolTable
 70
     3
  0
STYLE
  5
D
330
C
100
AcDbSymbolTableRecord
100
AcDbTextStyleTableRecord
  2
STANDARD
 70
     0
 40
0.0
 41
1.0
 50
0.0
 71
     0
 42
0.625
  3
txt
  4

  0
STYLE
  5
1B
330
C
100
AcDbSymbolTableRecord
100
AcDbTextStyleTableRecord
  2
ROMANS
 70
     0
 40
0.0
 41
1.0
 50
0.0
 71
     0
 42
0.125
  3
romans.shx
  4

  0
STYLE
  5
3FC1
330
C
100
AcDbSymbolTableRecord
100
AcDbTextStyleTableRecord
  2
ITALICC
 70
     0
 40
0.0
 41
1.0
 50
0.0
 71
     0
 42
0.125
  3
italicc
  4

  0
ENDTAB
  0
TABLE
  2
VIEW
  5
10
330
0
100
AcDbSymbolTable
 70
     0
  0
ENDTAB
  0
TABLE
  2
UCS
  5
11
330
0
100
AcDbSymbolTable
 70
     0
  0
ENDTAB
  0
TABLE
  2
APPID
  5
14
330
0
100
AcDbSymbolTable
 70
     2
  0
APPID
  5
15
330
14
100
AcDbSymbolTableRecord
100
AcDbRegAppTableRecord
  2
ACAD
 70
     0
  0
APPID
  5
2378
330
14
100
AcDbSymbolTableRecord
100
AcDbRegAppTableRecord
  2
AME_SOLVIEW
 70
     0
  0
ENDTAB
  0
TABLE
  2
DIMSTYLE
  5
16
330
0
100
AcDbSymbolTable
 70
     1
  0
DIMSTYLE
105
1D
330
16
100
AcDbSymbolTableRecord
100
AcDbDimStyleTableRecord
  2
STANDARD
 70
     0
  3

  4

  5

  6

  7

 40
1.0
 41
0.125
 42
0.125
 43
0.375
 44
0.125
 45
0.0
 46
0.0
 47
0.0
 48
0.0
140
0.125
141
-0.125
142
0.0
143
25.4
144
0.25
145
0.0
146
1.0
147
0.09
 71
     0
 72
     0
 73
     1
 74
     1
 75
     0
 76
     0
 77
     0
 78
     4
170
     0
171
     2
172
     0
173
     0
174
     1
175
     0
176
     0
177
     0
178
     0
270
     2
271
     3
272
     3
273
     2
274
     2
340
1B
275
     0
280
     0
281
     0
282
     0
283
     1
284
     4
285
     0
286
     0
287
     3
288
     0
  0
ENDTAB
  0
TABLE
  2
BLOCK_RECORD
  5
1
330
0
100
AcDbSymbolTable
 70
     0
  0
BLOCK_RECORD
  5
2
102
{ACAD_XDICTIONARY
360
40F4
102
}
330
1
100
AcDbSymbolTableRecord
100
AcDbBlockTableRecord
  2
*MODEL_SPACE
  0
BLOCK_RECORD
  5
8
102
{ACAD_XDICTIONARY
360
40F6
102
}
330
1
100
AcDbSymbolTableRecord
100
AcDbBlockTableRecord
  2
*PAPER_SPACE
  0
ENDTAB
  0
ENDSEC
  0
SECTION
  2
BLOCKS
  0
BLOCK
  5
3
330
2
100
AcDbEntity
  8
0
100
AcDbBlockBegin
  2
*MODEL_SPACE
 70
     0
 10
0.0
 20
0.0
 30
0.0
  3
*MODEL_SPACE
  1

  0
ENDBLK
  5
7
330
2
100
AcDbEntity
  8
0
100
AcDbBlockEnd
  0
BLOCK
  5
9
330
8
100
AcDbEntity
 67
     1
  8
0
100
AcDbBlockBegin
  2
*PAPER_SPACE
 70
     0
 10
0.0
 20
0.0
 30
0.0
  3
*PAPER_SPACE
  1

  0
ENDBLK
  5
A
330
8
100
AcDbEntity
 67
     1
  8
0
100
AcDbBlockEnd
  0
ENDSEC
  0
SECTION
  2
ENTITIES
  0
LWPOLYLINE
  5
3D1E
330
2
100
AcDbEntity
  8
0
100
AcDbPolyline
 90
       28
 70
   129
 43
0.0
 10
0.8267204565983448
 20
3.215927973438967
 10
0.9669256508072336
 20
3.215927973438963
 10
0.9669256508072336
 20
2.750357976240517
 10
1.046355653608745
 20
2.670927973438992
 10
1.065751621486665
 20
2.560927973438984
 10
1.065751621486672
 20
2.515927973438987
 42
-0.4142135623731029
 10
1.040751621486673
 20
2.490927973438989
 10
0.990323053702788
 20
2.490927973438989
 10
0.9903230537027667
 20
2.44592797343899
 10
1.045823053702783
 20
2.44592797343899
 42
0.4142135623730951
 10
1.115823053702772
 20
2.515927973438975
 10
1.115823053702779
 20
2.560927973438976
 10
1.077912752850469
 20
2.775927973438966
 10
1.026925650807235
 20
2.775927973438966
 10
1.026925650807235
 20
3.26567797343899
 10
0.7667204565983426
 20
3.265677973438986
 10
0.7667204565983426
 20
2.775927973438966
 10
0.715733354555109
 20
2.775927973438966
 10
0.6778230537027917
 20
2.560927973438976
 10
0.6778230537027952
 20
2.515927973438991
 42
0.4142135623730951
 10
0.7478230537027955
 20
2.44592797343899
 10
0.8033230537027833
 20
2.44592797343899
 10
0.8033230537027833
 20
2.490927973438989
 10
0.7528944859189047
 20
2.490927973438989
 42
-0.4142135623731029
 10
0.7278944859189061
 20
2.515927973438987
 10
0.7278944859189061
 20
2.560927973438984
 10
0.7472904537968362
 20
2.670927973439003
 10
0.8267204565983448
 20
2.750357976240522
  0
TEXT
  5
4046
330
2
100
AcDbEntity
  8
TEXT
100
AcDbText
 10
0.0589670453781426
 20
2.122790366742481
 30
0.0
 40
0.125
  1
PART #110585
  7
ITALICC
 72
     1
 11
0.8149194263305234
 21
2.122790366742481
 31
0.0
100
AcDbText
  0
LINE
  5
4047
330
2
100
AcDbEntity
  8
TEXT
100
AcDbLine
 10
0.7826529252825863
 20
1.878436680722647
 30
0.0
 11
0.859300906575144
 21
1.878436680722647
 31
0.0
  0
LINE
  5
4048
330
2
100
AcDbEntity
  8
TEXT
100
AcDbLine
 10
0.8548210192486438
 20
1.942713375379413
 30
0.0
 11
0.7873213015991274
 21
1.942713375379413
 31
0.0
  0
LWPOLYLINE
  5
4049
330
2
100
AcDbEntity
  8
TEXT
100
AcDbPolyline
 90
        5
 70
     0
 43
0.0001332181640625
 10
-0.8544591172520888
 20
1.8194865736216
 10
-0.8411373008458401
 20
1.8194865736216
 10
-0.8411373008458401
 20
1.85612156873879
 10
-0.8045023057286503
 20
1.85612156873879
 10
-0.8045023057286503
 20
1.869443385145037
  0
LWPOLYLINE
  5
404A
330
2
100
AcDbEntity
  8
TEXT
100
AcDbPolyline
 90
        3
 70
     0
 43
0.0006660908203125
 10
-0.8144936680333408
 20
1.916069742566915
 10
-0.9010854746739656
 20
1.916069742566915
 10
-0.9010854746739656
 20
1.829477935926289
  0
LWPOLYLINE
  5
404B
330
2
100
AcDbEntity
  8
TEXT
100
AcDbPolyline
 90
        3
 70
     0
 43
0.0006660908203125
 10
-0.8144936680333408
 20
1.942713375379416
 10
-0.9277291074864631
 20
1.942713375379416
 10
-0.9277291074864631
 20
1.829477935926289
  0
LWPOLYLINE
  5
404C
330
2
100
AcDbEntity
  8
TEXT
100
AcDbPolyline
 90
        5
 70
     0
 43
0.0001332181640625
 10
-0.8045023057286503
 20
1.749547037488789
 10
-0.8045023057286503
 20
1.76286885389504
 10
-0.8411373008458383
 20
1.76286885389504
 10
-0.8411373008458383
 20
1.799503849012226
 10
-0.8544591172520888
 20
1.799503849012226
  0
LWPOLYLINE
  5
404D
330
2
100
AcDbEntity
  8
TEXT
100
AcDbPolyline
 90
        3
 70
     0
 43
0.0006660908203125
 10
-0.9010854746739656
 20
1.789512486707541
 10
-0.9010854746739656
 20
1.702920680066914
 10
-0.8144936680333408
 20
1.702920680066914
  0
LWPOLYLINE
  5
404E
330
2
100
AcDbEntity
  8
TEXT
100
AcDbPolyline
 90
        3
 70
     0
 43
0.0006660908203125
 10
-0.9277291074864631
 20
1.789512486707541
 10
-0.9277291074864631
 20
1.676277047254413
 10
-0.8144936680333408
 20
1.676277047254413
  0
LWPOLYLINE
  5
404F
330
2
100
AcDbEntity
  8
TEXT
100
AcDbPolyline
 90
        2
 70
     0
 43
0.0001332181640625
 10
-0.9010854746739656
 20
1.789512486707541
 10
-0.8411373008458383
 20
1.799503849012226
  0
LWPOLYLINE
  5
4050
330
2
100
AcDbEntity
  8
TEXT
100
AcDbPolyline
 90
        2
 70
     0
 43
0.0001332181640625
 10
-0.8544591172520888
 20
1.799503849012226
 10
-0.9277291074864631
 20
1.789512486707541
  0
LWPOLYLINE
  5
4051
330
2
100
AcDbEntity
  8
TEXT
100
AcDbPolyline
 90
        2
 70
     0
 43
0.0006660908203125
 10
-0.9010854746739656
 20
1.789512486707541
 10
-0.9277291074864631
 20
1.789512486707541
  0
LWPOLYLINE
  5
4052
330
2
100
AcDbEntity
  8
TEXT
100
AcDbPolyline
 90
        2
 70
     0
 43
0.0001332181640625
 10
-0.9010854746739656
 20
1.702920680066914
 10
-0.8411373008458383
 20
1.76286885389504
  0
LWPOLYLINE
  5
4053
330
2
100
AcDbEntity
  8
TEXT
100
AcDbPolyline
 90
        2
 70
     0
 43
0.0006660908203125
 10
-0.9010854746739656
 20
1.829477935926289
 10
-0.9277291074864631
 20
1.829477935926289
  0
LWPOLYLINE
  5
4054
330
2
100
AcDbEntity
  8
TEXT
100
AcDbPolyline
 90
        2
 70
     0
 43
0.0001332181640625
 10
-0.9277291074864631
 20
1.829477935926289
 10
-0.8544591172520888
 20
1.8194865736216
  0
LWPOLYLINE
  5
4055
330
2
100
AcDbEntity
  8
TEXT
100
AcDbPolyline
 90
        2
 70
     0
 43
0.0001332181640625
 10
-0.9010854746739656
 20
1.829477935926289
 10
-0.8411373008458401
 20
1.8194865736216
  0
LWPOLYLINE
  5
4056
330
2
100
AcDbEntity
  8
TEXT
100
AcDbPolyline
 90
        2
 70
     0
 43
0.0001332181640625
 10
-0.9010854746739656
 20
1.916069742566915
 10
-0.8411373008458401
 20
1.85612156873879
  0
LWPOLYLINE
  5
4057
330
2
100
AcDbEntity
  8
TEXT
100
AcDbPolyline
 90
        5
 70
     0
 43
0.0001332181640625
 10
-0.7345627695958395
 20
1.799503849012226
 10
-0.7478845860020882
 20
1.799503849012226
 10
-0.7478845860020882
 20
1.76286885389504
 10
-0.784519581119278
 20
1.76286885389504
 10
-0.784519581119278
 20
1.749547037488789
  0
LWPOLYLINE
  5
4058
330
2
100
AcDbEntity
  8
TEXT
100
AcDbPolyline
 90
        2
 70
     0
 43
0.0001332181640625
 10
-0.6879364121739644
 20
1.789512486707541
 10
-0.7478845860020882
 20
1.799503849012226
  0
LWPOLYLINE
  5
4059
330
2
100
AcDbEntity
  8
TEXT
100
AcDbPolyline
 90
        2
 70
     0
 43
0.0001332181640625
 10
-0.6612927793614634
 20
1.789512486707541
 10
-0.7345627695958395
 20
1.799503849012226
  0
LWPOLYLINE
  5
405A
330
2
100
AcDbEntity
  8
TEXT
100
AcDbPolyline
 90
        3
 70
     0
 43
0.0006660908203125
 10
-0.7745282188145893
 20
1.676277047254413
 10
-0.6612927793614634
 20
1.676277047254413
 10
-0.6612927793614634
 20
1.789512486707541
  0
LWPOLYLINE
  5
405B
330
2
100
AcDbEntity
  8
TEXT
100
AcDbPolyline
 90
        3
 70
     0
 43
0.0006660908203125
 10
-0.7745282188145893
 20
1.702920680066914
 10
-0.6879364121739644
 20
1.702920680066914
 10
-0.6879364121739644
 20
1.789512486707541
  0
LWPOLYLINE
  5
405C
330
2
100
AcDbEntity
  8
TEXT
100
AcDbPolyline
 90
        2
 70
     0
 43
0.0001332181640625
 10
-0.6879364121739644
 20
1.702920680066914
 10
-0.7478845860020882
 20
1.76286885389504
  0
LWPOLYLINE
  5
405D
330
2
100
AcDbEntity
  8
TEXT
100
AcDbPolyline
 90
        2
 70
     0
 43
0.0006660908203125
 10
-0.7745282188145893
 20
1.702920680066914
 10
-0.7745282188145893
 20
1.676277047254413
  0
LWPOLYLINE
  5
405E
330
2
100
AcDbEntity
  8
TEXT
100
AcDbPolyline
 90
        2
 70
     0
 43
0.0001332181640625
 10
-0.784519581119278
 20
1.749547037488789
 10
-0.7745282188145893
 20
1.676277047254413
  0
LWPOLYLINE
  5
405F
330
2
100
AcDbEntity
  8
TEXT
100
AcDbPolyline
 90
        2
 70
     0
 43
0.0001332181640625
 10
-0.7745282188145893
 20
1.702920680066914
 10
-0.784519581119278
 20
1.76286885389504
  0
LWPOLYLINE
  5
4060
330
2
100
AcDbEntity
  8
TEXT
100
AcDbPolyline
 90
        2
 70
     0
 43
0.0001332181640625
 10
-0.8144936680333408
 20
1.676277047254413
 10
-0.8045023057286503
 20
1.749547037488789
  0
LWPOLYLINE
  5
4061
330
2
100
AcDbEntity
  8
TEXT
100
AcDbPolyline
 90
        2
 70
     0
 43
0.0001332181640625
 10
-0.8144936680333408
 20
1.702920680066914
 10
-0.8045023057286503
 20
1.76286885389504
  0
LWPOLYLINE
  5
4062
330
2
100
AcDbEntity
  8
TEXT
100
AcDbPolyline
 90
        2
 70
     0
 43
0.0006660908203125
 10
-0.8144936680333408
 20
1.702920680066914
 10
-0.8144936680333408
 20
1.676277047254413
  0
LWPOLYLINE
  5
4063
330
2
100
AcDbEntity
  8
TEXT
100
AcDbPolyline
 90
        2
 70
     0
 43
0.0006660908203125
 10
-0.6879364121739644
 20
1.789512486707541
 10
-0.6612927793614634
 20
1.789512486707541
  0
LWPOLYLINE
  5
4064
330
2
100
AcDbEntity
  8
TEXT
100
AcDbPolyline
 90
        2
 70
     0
 43
0.0001332181640625
 10
-0.6879364121739644
 20
1.916069742566915
 10
-0.7478845860020882
 20
1.85612156873879
  0
LWPOLYLINE
  5
4065
330
2
100
AcDbEntity
  8
TEXT
100
AcDbPolyline
 90
        2
 70
     0
 43
0.0001332181640625
 10
-0.6879364121739644
 20
1.829477935926289
 10
-0.7478845860020882
 20
1.8194865736216
  0
LWPOLYLINE
  5
4066
330
2
100
AcDbEntity
  8
TEXT
100
AcDbPolyline
 90
        2
 70
     0
 43
0.0001332181640625
 10
-0.7345627695958395
 20
1.8194865736216
 10
-0.6612927793614634
 20
1.829477935926289
  0
LWPOLYLINE
  5
4067
330
2
100
AcDbEntity
  8
TEXT
100
AcDbPolyline
 90
        3
 70
     0
 43
0.0006660908203125
 10
-0.6879364121739644
 20
1.829477935926289
 10
-0.6879364121739644
 20
1.916069742566915
 10
-0.7745282188145893
 20
1.916069742566915
  0
LWPOLYLINE
  5
4068
330
2
100
AcDbEntity
  8
TEXT
100
AcDbPolyline
 90
        3
 70
     0
 43
0.0006660908203125
 10
-0.6612927793614634
 20
1.829477935926289
 10
-0.6612927793614634
 20
1.942713375379416
 10
-0.7745282188145893
 20
1.942713375379416
  0
LWPOLYLINE
  5
4069
330
2
100
AcDbEntity
  8
TEXT
100
AcDbPolyline
 90
        2
 70
     0
 43
0.0001332181640625
 10
-0.7745282188145893
 20
1.942713375379416
 10
-0.784519581119278
 20
1.869443385145037
  0
LWPOLYLINE
  5
406A
330
2
100
AcDbEntity
  8
TEXT
100
AcDbPolyline
 90
        2
 70
     0
 43
0.0001332181640625
 10
-0.7745282188145893
 20
1.916069742566915
 10
-0.784519581119278
 20
1.85612156873879
  0
LWPOLYLINE
  5
406B
330
2
100
AcDbEntity
  8
TEXT
100
AcDbPolyline
 90
        2
 70
     0
 43
0.0006660908203125
 10
-0.7745282188145893
 20
1.916069742566915
 10
-0.7745282188145893
 20
1.942713375379416
  0
LWPOLYLINE
  5
406C
330
2
100
AcDbEntity
  8
TEXT
100
AcDbPolyline
 90
        5
 70
     0
 43
0.0001332181640625
 10
-0.784519581119278
 20
1.869443385145037
 10
-0.784519581119278
 20
1.85612156873879
 10
-0.7478845860020882
 20
1.85612156873879
 10
-0.7478845860020882
 20
1.8194865736216
 10
-0.7345627695958395
 20
1.8194865736216
  0
LWPOLYLINE
  5
406D
330
2
100
AcDbEntity
  8
TEXT
100
AcDbPolyline
 90
        2
 70
     0
 43
0.0001332181640625
 10
-0.8144936680333408
 20
1.916069742566915
 10
-0.8045023057286503
 20
1.85612156873879
  0
LWPOLYLINE
  5
406E
330
2
100
AcDbEntity
  8
TEXT
100
AcDbPolyline
 90
        2
 70
     0
 43
0.0001332181640625
 10
-0.8045023057286503
 20
1.869443385145037
 10
-0.8144936680333408
 20
1.942713375379416
  0
LWPOLYLINE
  5
406F
330
2
100
AcDbEntity
  8
TEXT
100
AcDbPolyline
 90
        2
 70
     0
 43
0.0006660908203125
 10
-0.8144936680333408
 20
1.916069742566915
 10
-0.8144936680333408
 20
1.942713375379416
  0
LWPOLYLINE
  5
4070
330
2
100
AcDbEntity
  8
TEXT
100
AcDbPolyline
 90
        2
 70
     0
 43
0.0006660908203125
 10
-0.6879364121739644
 20
1.829477935926289
 10
-0.6612927793614634
 20
1.829477935926289
  0
LWPOLYLINE
  5
4071
330
2
100
AcDbEntity
  8
TEXT
100
AcDbPolyline
 90
        2
 70
     0
 43
0.0
 10
0.0574871413871669
 20
1.72779168460583
 42
0.3318488747599744
 10
0.1266064339524799
 20
1.676240342390902
 42
-6.868794160588311
  0
LINE
  5
4072
330
2
100
AcDbEntity
  8
TEXT
100
AcDbLine
 10
0.1254668604562843
 20
2.010724853118223
 30
0.0
 11
0.0586581478899193
 21
2.010724853118223
 31
0.0
  0
LINE
  5
4073
330
2
100
AcDbEntity
  8
TEXT
100
AcDbLine
 10
-0.2206842197291747
 20
1.942713375379413
 30
0.0
 11
-0.3964159726276861
 21
1.942713375379413
 31
0.0
  0
ARC
  5
4074
330
2
100
AcDbEntity
  8
TEXT
100
AcDbCircle
 10
-0.3255785062691365
 20
1.759436150751459
 30
0.0
 40
0.0831958083605586
100
AcDbArc
 50
270.0
 51
90.0
  0
LINE
  5
4075
330
2
100
AcDbEntity
  8
TEXT
100
AcDbLine
 10
-0.391178642513438
 20
1.878436680722647
 30
0.0
 11
-0.2242729884844676
 21
1.878436680722647
 31
0.0
  0
LINE
  5
4076
330
2
100
AcDbEntity
  8
TEXT
100
AcDbLine
 10
-0.3206381323628573
 20
1.744597348724341
 30
0.0
 11
-0.4785034320741915
 21
1.744597348724341
 31
0.0
  0
LINE
  5
4077
330
2
100
AcDbEntity
  8
TEXT
100
AcDbLine
 10
-0.4785034320741897
 20
1.676240342390902
 30
0.0
 11
-0.325578506269137
 21
1.676240342390902
 31
0.0
  0
ARC
  5
4078
330
2
100
AcDbEntity
  8
TEXT
100
AcDbCircle
 10
-0.3964159726276857
 20
1.860625915932911
 30
0.0
 40
0.0820874594465043
100
AcDbArc
 50
90.0
 51
270.0
  0
LINE
  5
4079
330
2
100
AcDbEntity
  8
TEXT
100
AcDbLine
 10
-0.4785034320741915
 20
1.744597348724341
 30
0.0
 11
-0.4785034320741897
 21
1.676240342390902
 31
0.0
  0
LINE
  5
407A
330
2
100
AcDbEntity
  8
TEXT
100
AcDbLine
 10
-0.3964159726276861
 20
1.778538456486406
 30
0.0
 11
-0.3206381323628573
 21
1.778538456486406
 31
0.0
  0
ARC
  5
407B
330
2
100
AcDbEntity
  8
TEXT
100
AcDbCircle
 10
-0.3206381323628569
 20
1.761567902605375
 30
0.0
 40
0.0169705538810321
100
AcDbArc
 50
270.0
 51
90.0
  0
LINE
  5
407C
330
2
100
AcDbEntity
  8
TEXT
100
AcDbLine
 10
-0.325578506269137
 20
1.842631959112019
 30
0.0
 11
-0.391178642513438
 21
1.842631959112019
 31
0.0
  0
ARC
  5
407D
330
2
100
AcDbEntity
  8
TEXT
100
AcDbCircle
 10
-0.3911786425134376
 20
1.860534319917335
 30
0.0
 40
0.017902360805315
100
AcDbArc
 50
90.0
 51
270.0
  0
LINE
  5
407E
330
2
100
AcDbEntity
  8
TEXT
100
AcDbLine
 10
-0.0302123277093225
 20
1.841841379266292
 30
0.0
 11
-0.0888426487412604
 21
1.942713375379413
 31
0.0
  0
LINE
  5
407F
330
2
100
AcDbEntity
  8
TEXT
100
AcDbLine
 10
-0.170386381004362
 20
1.676240342390902
 30
0.0
 11
-0.0737461299293676
 21
1.676510981489184
 31
0.0
  0
LWPOLYLINE
  5
4080
330
2
100
AcDbEntity
  8
TEXT
100
AcDbPolyline
 90
        6
 70
     1
 43
0.0
 10
-0.1278625774292119
 20
1.878436680722647
 10
-0.1581791716494201
 20
1.878436680722647
 10
-0.1581791716494201
 20
1.755325682667753
 42
0.407328721240804
 10
-0.1466355204879437
 20
1.743506767991367
 10
-0.0860138214432129
 20
1.743506767991367
 10
-0.068548481035895
 20
1.776318997034846
  0
LINE
  5
4081
330
2
100
AcDbEntity
  8
TEXT
100
AcDbLine
 10
-0.2242729884844676
 20
1.878436680722647
 30
0.0
 11
-0.2242729884844676
 21
1.736032733728952
 31
0.0
  0
ARC
  5
4082
330
2
100
AcDbEntity
  8
TEXT
100
AcDbCircle
 10
-0.1641569705107151
 20
1.736032733728952
 30
0.0
 40
0.0601160179737537
100
AcDbArc
 50
180.0000000000003
 51
264.0521544866073
  0
LINE
  5
4083
330
2
100
AcDbEntity
  8
TEXT
100
AcDbLine
 10
-0.1606416148851677
 20
1.977101292973551
 30
0.0
 11
-0.2206842197291747
 21
1.977101292973551
 31
0.0
  0
LINE
  5
4084
330
2
100
AcDbEntity
  8
TEXT
100
AcDbLine
 10
-0.2206842197291747
 20
1.977101292973551
 30
0.0
 11
-0.2206842197291747
 21
1.942713375379413
 31
0.0
  0
LINE
  5
4085
330
2
100
AcDbEntity
  8
TEXT
100
AcDbLine
 10
-0.1606416148851677
 20
1.942713375379413
 30
0.0
 11
-0.1606416148851677
 21
1.977101292973551
 31
0.0
  0
LINE
  5
4086
330
2
100
AcDbEntity
  8
TEXT
100
AcDbLine
 10
-0.0888426487412604
 20
1.942713375379413
 30
0.0
 11
-0.1606416148851677
 21
1.942713375379413
 31
0.0
  0
LINE
  5
4087
330
2
100
AcDbEntity
  8
TEXT
100
AcDbLine
 10
-0.0398125647062768
 20
1.696198848495915
 30
0.0
 11
0.0574871413871678
 21
1.860549059431183
 31
0.0
  0
LINE
  5
4088
330
2
100
AcDbEntity
  8
TEXT
100
AcDbLine
 10
0.0574871413871678
 20
1.860549059431183
 30
0.0
 11
0.0574871413871678
 21
1.727791684605826
 31
0.0
  0
ARC
  5
4089
330
2
100
AcDbEntity
  8
TEXT
100
AcDbCircle
 10
-0.0738561246184903
 20
1.715788064664597
 30
0.0
 40
0.0392772371940762
100
AcDbArc
 50
270.1604552698595
 51
330.0831797321295
  0
LINE
  5
408A
330
2
100
AcDbEntity
  8
TEXT
100
AcDbLine
 10
0.028536235096543
 20
1.942713375379413
 30
0.0
 11
-0.0302123277093225
 21
1.841841379266292
 31
0.0
  0
LINE
  5
408B
330
2
100
AcDbEntity
  8
TEXT
100
AcDbLine
 10
0.0586581478899193
 20
2.010724853118223
 30
0.0
 11
0.0586581478899193
 21
1.942713375379413
 31
0.0
  0
LINE
  5
408C
330
2
100
AcDbEntity
  8
TEXT
100
AcDbLine
 10
0.0586581478899193
 20
1.942713375379413
 30
0.0
 11
0.028536235096543
 21
1.942713375379413
 31
0.0
  0
LWPOLYLINE
  5
408D
330
2
100
AcDbEntity
  8
TEXT
100
AcDbPolyline
 90
        4
 70
     0
 43
0.0
 10
0.4107442695100776
 20
1.870882891556537
 10
0.4107442695100776
 20
1.676240342390902
 10
0.4792225527979355
 20
1.676240342390902
 10
0.4792225527979355
 20
1.71973128734134
 42
-1.714843617202739
  0
LWPOLYLINE
  5
408E
330
2
100
AcDbEntity
  8
TEXT
100
AcDbPolyline
 90
        2
 70
     0
 43
0.0
 10
0.4458786200542875
 20
1.942713375379416
 42
-0.3277054968067132
 10
0.4816603107674525
 20
1.914390829609772
 42
6.667889725900311
  0
LWPOLYLINE
  5
408F
330
2
100
AcDbEntity
  8
TEXT
100
AcDbPolyline
 90
        2
 70
     0
 43
0.0
 10
0.2744450474750604
 20
1.878436680722647
 42
-0.4142135623731017
 10
0.2819988366411739
 20
1.870882891556537
 42
-0.9999999999999998
  0
LINE
  5
4090
330
2
100
AcDbEntity
  8
TEXT
100
AcDbLine
 10
0.2917967705250808
 20
1.942713375379413
 30
0.0
 11
0.1577787145939444
 21
1.942713375379413
 31
0.0
  0
LINE
  5
4091
330
2
100
AcDbEntity
  8
TEXT
100
AcDbLine
 10
0.2246097676519136
 20
1.676240342390902
 30
0.0
 11
0.2246097676519136
 21
1.878436680722647
 31
0.0
  0
LINE
  5
4092
330
2
100
AcDbEntity
  8
TEXT
100
AcDbLine
 10
0.1577787145939444
 20
1.942713375379413
 30
0.0
 11
0.1577787145939444
 21
1.741849168647005
 31
0.0
  0
LINE
  5
4093
330
2
100
AcDbEntity
  8
TEXT
100
AcDbLine
 10
0.1254668604562843
 20
1.758628180493901
 30
0.0
 11
0.1254668604562843
 21
2.010724853118223
 31
0.0
  0
LINE
  5
4094
330
2
100
AcDbEntity
  8
TEXT
100
AcDbLine
 10
0.1266064339524791
 20
1.676240342390902
 30
0.0
 11
0.2246097676519136
 21
1.676240342390902
 31
0.0
  0
LINE
  5
4095
330
2
100
AcDbEntity
  8
TEXT
100
AcDbLine
 10
0.1577787145939444
 20
1.741849168647005
 30
0.0
 11
0.1407850777093431
 21
1.741849168647005
 31
0.0
  0
ARC
  5
4096
330
2
100
AcDbEntity
  8
TEXT
100
AcDbCircle
 10
0.1407850777093422
 20
1.75723097489043
 30
0.0
 40
0.0153818062434269
100
AcDbArc
 50
174.7883570302258
 51
270.0
  0
LINE
  5
4097
330
2
100
AcDbEntity
  8
TEXT
100
AcDbLine
 10
0.2246097676519136
 20
1.878436680722647
 30
0.0
 11
0.2744450474750613
 21
1.878436680722647
 31
0.0
  0
LINE
  5
4098
330
2
100
AcDbEntity
  8
TEXT
100
AcDbLine
 10
0.2819988366411747
 20
1.870882891556537
 30
0.0
 11
0.2819988366411747
 21
1.676240342390902
 31
0.0
  0
LINE
  5
4099
330
2
100
AcDbEntity
  8
TEXT
100
AcDbLine
 10
0.3490568834230148
 20
1.676240342390902
 30
0.0
 11
0.3490568834230148
 21
1.878436680722647
 31
0.0
  0
LINE
  5
409A
330
2
100
AcDbEntity
  8
TEXT
100
AcDbLine
 10
0.2819988366411747
 20
1.676240342390902
 30
0.0
 11
0.3490568834230148
 21
1.676240342390902
 31
0.0
  0
LWPOLYLINE
  5
409B
330
2
100
AcDbEntity
  8
TEXT
100
AcDbPolyline
 90
        3
 70
     0
 43
0.0
 10
0.4458786200542875
 20
1.942713375379416
 10
0.3275784612382431
 20
1.942713375379416
 10
0.3275784612382431
 20
1.91554587861852
 42
-1.960274751411753
  0
LINE
  5
409C
330
2
100
AcDbEntity
  8
TEXT
100
AcDbLine
 10
0.3490568834230148
 20
1.878436680722647
 30
0.0
 11
0.403190480343965
 21
1.878436680722647
 31
0.0
  0
LWPOLYLINE
  5
409D
330
2
100
AcDbEntity
  8
TEXT
100
AcDbPolyline
 90
        2
 70
     0
 43
0.0
 10
0.2917967705250817
 20
1.942713375379416
 42
-0.3328679258950098
 10
0.3275784612382431
 20
1.91554587861852
 42
6.772930709997214
  0
LWPOLYLINE
  5
409E
330
2
100
AcDbEntity
  8
TEXT
100
AcDbPolyline
 90
        2
 70
     0
 43
0.0
 10
0.4031904803439641
 20
1.878436680722647
 42
-0.4142135623731017
 10
0.4107442695100776
 20
1.870882891556537
 42
-0.9999999999999998
  0
ARC
  5
409F
330
2
100
AcDbEntity
  8
TEXT
100
AcDbCircle
 10
0.614465280207444
 20
1.90112980825851
 30
0.0
 40
0.0416329381542859
100
AcDbArc
 50
26.56974201007528
 51
87.20939649401342
  0
LWPOLYLINE
  5
40A0
330
2
100
AcDbEntity
  8
TEXT
100
AcDbPolyline
 90
        2
 70
     0
 43
0.0
 10
0.5222984856655711
 20
1.676240342390902
 10
0.6563159032969477
 20
1.676240342390902
 42
0.9999999999999998
  0
LWPOLYLINE
  5
40A1
330
2
100
AcDbEntity
  8
TEXT
100
AcDbPolyline
 90
        4
 70
     1
 43
0.0
 10
0.6361934382270551
 20
1.779204320374927
 10
0.5475331195671967
 20
1.779204320374927
 42
0.9999999999999998
 10
0.5475331195671967
 20
1.736805779871066
 10
0.6361934382270551
 20
1.736805779871066
 42
1.0
  0
LWPOLYLINE
  5
40A2
330
2
100
AcDbEntity
  8
TEXT
100
AcDbPolyline
 90
        2
 70
     0
 43
0.0
 10
0.4792225527979355
 20
1.71973128734134
 42
0.2901071551932823
 10
0.5222984856655711
 20
1.676240342390902
 42
5.328517124445801
  0
LINE
  5
40A3
330
2
100
AcDbEntity
  8
TEXT
100
AcDbLine
 10
0.6164922199845125
 20
1.942713375379413
 30
0.0
 11
0.4816603107674533
 21
1.942713375379413
 31
0.0
  0
LINE
  5
40A4
330
2
100
AcDbEntity
  8
TEXT
100
AcDbLine
 10
0.5409744071607721
 20
1.841161707260515
 30
0.0
 11
0.6232623969441553
 21
1.841161707260515
 31
0.0
  0
LINE
  5
40A5
330
2
100
AcDbEntity
  8
TEXT
100
AcDbLine
 10
0.587461321640034
 20
1.878436680722647
 30
0.0
 11
0.4802550482527446
 21
1.878436680722647
 31
0.0
  0
LINE
  5
40A6
330
2
100
AcDbEntity
  8
TEXT
100
AcDbLine
 10
0.4816603107674533
 20
1.942713375379413
 30
0.0
 11
0.4816603107674533
 21
1.914390829609769
 31
0.0
  0
ARC
  5
40A7
330
2
100
AcDbEntity
  8
TEXT
100
AcDbCircle
 10
0.5409744071607712
 20
1.773476126116396
 30
0.0
 40
0.0676855811441166
100
AcDbArc
 50
90.0
 51
153.7768192527749
  0
LINE
  5
40A8
330
2
100
AcDbEntity
  8
TEXT
100
AcDbLine
 10
0.4802550482527446
 20
1.878436680722647
 30
0.0
 11
0.4802550482527446
 21
1.803384274648441
 31
0.0
  0
LINE
  5
40A9
330
2
100
AcDbEntity
  8
TEXT
100
AcDbLine
 10
0.6232623969441553
 20
1.841161707260515
 30
0.0
 11
0.612997636530591
 21
1.862412246833209
 31
0.0
  0
ARC
  5
40AA
330
2
100
AcDbEntity
  8
TEXT
100
AcDbCircle
 10
0.5874613216400331
 20
1.85007730572265
 30
0.0
 40
0.028359375
100
AcDbArc
 50
25.78218179591245
 51
90.0
  0
LINE
  5
40AB
330
2
100
AcDbEntity
  8
TEXT
100
AcDbLine
 10
0.7577470499999271
 20
1.676240342390902
 30
0.0
 11
0.7577470499999217
 21
1.85353084782237
 31
0.0
  0
LWPOLYLINE
  5
40AC
330
2
100
AcDbEntity
  8
TEXT
100
AcDbPolyline
 90
        2
 70
     0
 43
0.0
 10
0.6993918361645921
 20
1.676240342390902
 10
0.7577470499999262
 20
1.676240342390902
  0
LWPOLYLINE
  5
40AD
330
2
100
AcDbEntity
  8
TEXT
100
AcDbPolyline
 90
        2
 70
     0
 43
0.0
 10
0.6993918361645921
 20
1.71973128734134
 42
-0.2901071551932486
 10
0.6563159032969477
 20
1.676240342390902
 42
-5.328517124445184
  0
LWPOLYLINE
  5
40AE
330
2
100
AcDbEntity
  8
TEXT
100
AcDbPolyline
 90
        2
 70
     0
 43
0.0
 10
0.6993918361645921
 20
1.71973128734134
 10
0.6993918361645921
 20
1.676240342390902
  0
LINE
  5
40AF
330
2
100
AcDbEntity
  8
TEXT
100
AcDbLine
 10
0.7593490651590545
 20
1.942713375379413
 30
0.0
 11
0.6954521588595535
 21
1.942713375379413
 31
0.0
  0
LINE
  5
40B0
330
2
100
AcDbEntity
  8
TEXT
100
AcDbLine
 10
0.6954521588595535
 20
1.942713375379413
 30
0.0
 11
0.6954521588595535
 21
1.837501396825985
 31
0.0
  0
LINE
  5
40B1
330
2
100
AcDbEntity
  8
TEXT
100
AcDbLine
 10
0.6954521588595535
 20
1.837501396825985
 30
0.0
 11
0.6517013876776519
 21
1.919751672822131
 31
0.0
  0
ARC
  5
40B2
330
2
100
AcDbEntity
  8
TEXT
100
AcDbCircle
 10
0.7826529252825854
 20
1.853530805439985
 30
0.0
 40
0.0249058752826653
100
AcDbArc
 50
89.99971217465335
 51
179.9999999999985
  0
ARC
  5
40B3
330
2
100
AcDbEntity
  8
TEXT
100
AcDbCircle
 10
0.7905418822221631
 20
1.911467648097148
 30
0.0
 40
0.0314112657011332
100
AcDbArc
 50
95.88484768694724
 51
173.2388340632136
  0
LINE
  5
40B4
330
2
100
AcDbEntity
  8
TEXT
100
AcDbLine
 10
0.7593490651590545
 20
1.915165725518538
 30
0.0
 11
0.7593490651590545
 21
1.942713375379413
 31
0.0
  0
TEXT
  5
40B5
330
2
100
AcDbEntity
  8
TEXT
100
AcDbText
 10
1.228224584580845
 20
1.769126151036398
 30
0.0
 40
0.0522247191011236
  1
Minneapolis, MN 55432-0008
 41
1.11444212721585
 72
     5
 11
2.557157168850508
 21
1.769126151036398
 31
0.0
100
AcDbText
  0
TEXT
  5
40B6
330
2
100
AcDbEntity
  8
TEXT
100
AcDbText
 10
1.228224584580845
 20
1.86238457800269
 30
0.0
 40
0.0522247191011236
  1
6536 Main St. N.E. * P.O. Box 32008
 41
0.8388932496075355
 72
     5
 11
2.557157168850508
 21
1.86238457800269
 31
0.0
100
AcDbText
  0
TEXT
  5
40B7
330
2
100
AcDbEntity
  8
TEXT
100
AcDbText
 10
1.228224584580845
 20
1.955643004968982
 30
0.0
 40
0.0522247191011236
  1
Stylmark  Incorporated
 41
1.221428571428571
 72
     5
 11
2.557157168850508
 21
1.955643004968982
 31
0.0
100
AcDbText
  0
TEXT
  5
40B8
330
2
100
AcDbEntity
  8
TEXT
100
AcDbText
 10
1.228224584580845
 20
1.675867724070106
 30
0.0
 40
0.0522247191011236
  1
Phone  1-800-328-2495
 41
1.272321428571429
 72
     5
 11
2.557157168850508
 21
1.675867724070106
 31
0.0
100
AcDbText
  0
LINE
  5
40B9
330
2
100
AcDbEntity
  8
TEXT
100
AcDbLine
 10
0.9806687731178298
 20
1.832820132438439
 30
0.0
 11
1.045225889083535
 21
1.942713375379413
 31
0.0
  0
LINE
  5
40BA
330
2
100
AcDbEntity
  8
TEXT
100
AcDbLine
 10
1.045225889083535
 20
1.942713375379413
 30
0.0
 11
0.9702340563539086
 21
1.942713375379413
 31
0.0
  0
LINE
  5
40BB
330
2
100
AcDbEntity
  8
TEXT
100
AcDbLine
 10
0.9995826241052343
 20
1.676240342390902
 30
0.0
 11
1.07616099648144
 21
1.676240342390902
 31
0.0
  0
LINE
  5
40BC
330
2
100
AcDbEntity
  8
TEXT
100
AcDbLine
 10
1.07616099648144
 20
1.676240342390902
 30
0.0
 11
0.9806687731178298
 21
1.832820132438439
 31
0.0
  0
LINE
  5
40BD
330
2
100
AcDbEntity
  8
TEXT
100
AcDbLine
 10
0.9236790908937697
 20
1.676240342390902
 30
0.0
 11
0.9236790908937697
 21
1.807819910867082
 31
0.0
  0
LINE
  5
40BE
330
2
100
AcDbEntity
  8
TEXT
100
AcDbLine
 10
0.9236790908937697
 20
1.807819910867082
 30
0.0
 11
0.9995826241052343
 21
1.676240342390902
 31
0.0
  0
LINE
  5
40BF
330
2
100
AcDbEntity
  8
TEXT
100
AcDbLine
 10
0.859300906575144
 20
1.878436680722647
 30
0.0
 11
0.8593009065751493
 21
1.676240342390902
 31
0.0
  0
LINE
  5
40C0
330
2
100
AcDbEntity
  8
TEXT
100
AcDbLine
 10
0.8593009065751493
 20
1.676240342390902
 30
0.0
 11
0.9236790908937697
 21
1.676240342390902
 31
0.0
  0
LINE
  5
40C1
330
2
100
AcDbEntity
  8
TEXT
100
AcDbLine
 10
0.9231358977979224
 20
2.008177581147013
 30
0.0
 11
0.8548210192486491
 21
2.008177581147013
 31
0.0
  0
LINE
  5
40C2
330
2
100
AcDbEntity
  8
TEXT
100
AcDbLine
 10
0.8548210192486491
 20
2.008177581147013
 30
0.0
 11
0.8548210192486438
 21
1.942713375379413
 31
0.0
  0
LINE
  5
40C3
330
2
100
AcDbEntity
  8
TEXT
100
AcDbLine
 10
0.9702340563539069
 20
1.942713375379413
 30
0.0
 11
0.9231358977979224
 21
1.866848048967875
 31
0.0
  0
LINE
  5
40C4
330
2
100
AcDbEntity
  8
TEXT
100
AcDbLine
 10
0.9231358977979224
 20
1.866848048967875
 30
0.0
 11
0.9231358977979224
 21
2.008177581147013
 31
0.0
  0
ENDSEC
  0
SECTION
  2
OBJECTS
  0
DICTIONARY
  5
1A
330
0
100
AcDbDictionary
  3
ACAD_GROUP
350
18
  3
ACAD_LAYOUT
350
40C9
  3
ACAD_MLINESTYLE
350
19
  3
ACAD_PLOTSETTINGS
350
40CA
  3
ACAD_PLOTSTYLENAME
350
40C7
  3
ACDBHEADERROUNDTRIPXREC
350
40D4
  3
ACDBVARIABLEDICTIONARY
350
40D1
  0
DICTIONARY
  5
40F4
330
2
100
AcDbDictionary
280
     1
  3
ACAD_LAYOUTSELFREF
360
40F5
  0
DICTIONARY
  5
40F6
330
8
100
AcDbDictionary
280
     1
  3
ACAD_LAYOUTSELFREF
360
40F7
  0
DICTIONARY
  5
18
102
{ACAD_REACTORS
330
1A
102
}
330
1A
100
AcDbDictionary
  3
*A1
350
177A
  3
*A2
350
1AE3
  3
*A3
350
1EB6
  3
*A4
350
2164
  3
*A5
350
2558
  3
*A6
350
2559
  3
*A7
350
2A54
  3
*A8
350
3CDF
  3
*A9
350
3EFF
  0
DICTIONARY
  5
40C9
102
{ACAD_REACTORS
330
1A
102
}
330
1A
100
AcDbDictionary
  0
DICTIONARY
  5
19
102
{ACAD_REACTORS
330
1A
102
}
330
1A
100
AcDbDictionary
  3
STANDARD
350
1C
  0
DICTIONARY
  5
40CA
102
{ACAD_REACTORS
330
1A
102
}
330
1A
100
AcDbDictionary
  0
ACDBDICTIONARYWDFLT
  5
40C7
102
{ACAD_REACTORS
330
1A
102
}
330
1A
100
AcDbDictionary
281
     1
  3
Normal
350
40C8
100
AcDbDictionaryWithDefault
340
40C8
  0
DICTIONARY
  5
40D4
102
{ACAD_REACTORS
330
1A
102
}
330
1A
100
AcDbDictionary
  3
CEPSNTYPE
350
40DE
  3
FINGERPRINTGUID
350
40DF
  3
HYPERLINKBASE
350
40D7
  3
INSUNITS
350
40DD
  3
LAYOUTDICT
350
40D9
  3
LWETCUNION
350
40DC
  3
PLOTSETDICT
350
40DA
  3
PLOTSTYLNAMDICT
350
40DB
  3
PSVPSCALE
350
40E1
  3
PUCSBASE
350
40E4
  3
PUCSORGBACK
350
40EA
  3
PUCSORGBOTTOM
350
40E6
  3
PUCSORGFRONT
350
40E9
  3
PUCSORGLEFT
350
40E7
  3
PUCSORGRIGHT
350
40E8
  3
PUCSORGTOP
350
40E5
  3
PUCSORTHOREF
350
40E2
  3
PUCSORTHOVIEW
350
40E3
  3
STYLESHEET
350
40D8
  3
TSTACKALIGN
350
40D5
  3
TSTACKSIZE
350
40D6
  3
UCSBASE
350
40ED
  3
UCSORGBACK
350
40F3
  3
UCSORGBOTTOM
350
40EF
  3
UCSORGFRONT
350
40F2
  3
UCSORGLEFT
350
40F0
  3
UCSORGRIGHT
350
40F1
  3
UCSORGTOP
350
40EE
  3
UCSORTHOREF
350
40EB
  3
UCSORTHOVIEW
350
40EC
  3
VERSIONGUID
350
40E0
  0
DICTIONARY
  5
40D1
102
{ACAD_REACTORS
330
1A
102
}
330
1A
100
AcDbDictionary
  3
DIMASSOC
350
40D2
  0
XRECORD
  5
40F5
102
{ACAD_REACTORS
330
40F4
102
}
330
40F4
100
AcDbXrecord
340
2
  0
XRECORD
  5
40F7
102
{ACAD_REACTORS
330
40F6
102
}
330
40F6
100
AcDbXrecord
340
8
  0
GROUP
  5
177A
102
{ACAD_REACTORS
330
18
102
}
330
18
100
AcDbGroup
300
BORDER FRAME 10-1-95
 70
     3
 71
     1
  0
GROUP
  5
1AE3
102
{ACAD_REACTORS
330
18
102
}
330
18
100
AcDbGroup
300

 70
     1
 71
     1
  0
GROUP
  5
1EB6
102
{ACAD_REACTORS
330
18
102
}
330
18
100
AcDbGroup
300

 70
     1
 71
     1
  0
GROUP
  5
2164
102
{ACAD_REACTORS
330
18
102
}
330
18
100
AcDbGroup
300

 70
     1
 71
     1
  0
GROUP
  5
2558
102
{ACAD_REACTORS
330
18
102
}
330
18
100
AcDbGroup
300
BORDER FRAME 10-1-95
 70
     3
 71
     1
  0
GROUP
  5
2559
102
{ACAD_REACTORS
330
18
102
}
330
18
100
AcDbGroup
300

 70
     3
 71
     1
  0
GROUP
  5
2A54
102
{ACAD_REACTORS
330
18
102
}
330
18
100
AcDbGroup
300

 70
     1
 71
     1
  0
GROUP
  5
3CDF
102
{ACAD_REACTORS
330
18
102
}
330
18
100
AcDbGroup
300

 70
     1
 71
     1
  0
GROUP
  5
3EFF
102
{ACAD_REACTORS
330
18
102
}
330
18
100
AcDbGroup
300

 70
     1
 71
     1
  0
MLINESTYLE
  5
1C
102
{ACAD_REACTORS
330
19
102
}
330
19
100
AcDbMlineStyle
  2
STANDARD
 70
     0
  3

 62
     0
 51
90.0
 52
90.0
 71
     2
 49
0.5
 62
   256
  6
BYLAYER
 49
-0.5
 62
   256
  6
BYLAYER
  0
ACDBPLACEHOLDER
  5
40C8
102
{ACAD_REACTORS
330
40C7
102
}
330
40C7
100
AcDbPlaceHolder
280
     0
  0
XRECORD
  5
40DE
102
{ACAD_REACTORS
330
40D4
102
}
330
40D4
100
AcDbXrecord
 90
        0
  0
XRECORD
  5
40DF
102
{ACAD_REACTORS
330
40D4
102
}
330
40D4
100
AcDbXrecord
  1
{C1A0EAB0-8DB8-11D6-88E6-0090279574E7}
  0
XRECORD
  5
40D7
102
{ACAD_REACTORS
330
40D4
102
}
330
40D4
100
AcDbXrecord
  1

  0
XRECORD
  5
40DD
102
{ACAD_REACTORS
330
40D4
102
}
330
40D4
100
AcDbXrecord
 90
        0
  0
XRECORD
  5
40D9
102
{ACAD_REACTORS
330
40D4
102
}
330
40D4
100
AcDbXrecord
340
40C9
  0
XRECORD
  5
40DC
102
{ACAD_REACTORS
330
40D4
102
}
330
40D4
100
AcDbXrecord
 90
    14877
  0
XRECORD
  5
40DA
102
{ACAD_REACTORS
330
40D4
102
}
330
40D4
100
AcDbXrecord
340
40CA
  0
XRECORD
  5
40DB
102
{ACAD_REACTORS
330
40D4
102
}
330
40D4
100
AcDbXrecord
340
40C7
  0
XRECORD
  5
40E1
102
{ACAD_REACTORS
330
40D4
102
}
330
40D4
100
AcDbXrecord
 40
0.0
  0
XRECORD
  5
40E4
102
{ACAD_REACTORS
330
40D4
102
}
330
40D4
100
AcDbXrecord
340
0
  0
XRECORD
  5
40EA
102
{ACAD_REACTORS
330
40D4
102
}
330
40D4
100
AcDbXrecord
 10
0.0
 20
0.0
 30
0.0
  0
XRECORD
  5
40E6
102
{ACAD_REACTORS
330
40D4
102
}
330
40D4
100
AcDbXrecord
 10
0.0
 20
0.0
 30
0.0
  0
XRECORD
  5
40E9
102
{ACAD_REACTORS
330
40D4
102
}
330
40D4
100
AcDbXrecord
 10
0.0
 20
0.0
 30
0.0
  0
XRECORD
  5
40E7
102
{ACAD_REACTORS
330
40D4
102
}
330
40D4
100
AcDbXrecord
 10
0.0
 20
0.0
 30
0.0
  0
XRECORD
  5
40E8
102
{ACAD_REACTORS
330
40D4
102
}
330
40D4
100
AcDbXrecord
 10
0.0
 20
0.0
 30
0.0
  0
XRECORD
  5
40E5
102
{ACAD_REACTORS
330
40D4
102
}
330
40D4
100
AcDbXrecord
 10
0.0
 20
0.0
 30
0.0
  0
XRECORD
  5
40E2
102
{ACAD_REACTORS
330
40D4
102
}
330
40D4
100
AcDbXrecord
340
0
  0
XRECORD
  5
40E3
102
{ACAD_REACTORS
330
40D4
102
}
330
40D4
100
AcDbXrecord
 70
     0
  0
XRECORD
  5
40D8
102
{ACAD_REACTORS
330
40D4
102
}
330
40D4
100
AcDbXrecord
  1

  0
XRECORD
  5
40D5
102
{ACAD_REACTORS
330
40D4
102
}
330
40D4
100
AcDbXrecord
 90
        1
  0
XRECORD
  5
40D6
102
{ACAD_REACTORS
330
40D4
102
}
330
40D4
100
AcDbXrecord
 90
       70
  0
XRECORD
  5
40ED
102
{ACAD_REACTORS
330
40D4
102
}
330
40D4
100
AcDbXrecord
340
0
  0
XRECORD
  5
40F3
102
{ACAD_REACTORS
330
40D4
102
}
330
40D4
100
AcDbXrecord
 10
0.0
 20
0.0
 30
0.0
  0
XRECORD
  5
40EF
102
{ACAD_REACTORS
330
40D4
102
}
330
40D4
100
AcDbXrecord
 10
0.0
 20
0.0
 30
0.0
  0
XRECORD
  5
40F2
102
{ACAD_REACTORS
330
40D4
102
}
330
40D4
100
AcDbXrecord
 10
0.0
 20
0.0
 30
0.0
  0
XRECORD
  5
40F0
102
{ACAD_REACTORS
330
40D4
102
}
330
40D4
100
AcDbXrecord
 10
0.0
 20
0.0
 30
0.0
  0
XRECORD
  5
40F1
102
{ACAD_REACTORS
330
40D4
102
}
330
40D4
100
AcDbXrecord
 10
0.0
 20
0.0
 30
0.0
  0
XRECORD
  5
40EE
102
{ACAD_REACTORS
330
40D4
102
}
330
40D4
100
AcDbXrecord
 10
0.0
 20
0.0
 30
0.0
  0
XRECORD
  5
40EB
102
{ACAD_REACTORS
330
40D4
102
}
330
40D4
100
AcDbXrecord
340
0
  0
XRECORD
  5
40EC
102
{ACAD_REACTORS
330
40D4
102
}
330
40D4
100
AcDbXrecord
 70
     0
  0
XRECORD
  5
40E0
102
{ACAD_REACTORS
330
40D4
102
}
330
40D4
100
AcDbXrecord
  1
{C1A0EAB2-8DB8-11D6-88E6-0090279574E7}
  0
DICTIONARYVAR
  5
40D2
102
{ACAD_REACTORS
330
40D1
102
}
330
40D1
100
DictionaryVariables
280
     0
  1
1
  0
ENDSEC
  0
EOF
