  0
SECTION
  2
HEADER
  9
$ACADVER
  1
AC1014
  9
$ACADMAINTVER
 70
     9
  9
$DWGCODEPAGE
  3
ANSI_1252
  9
$INSBASE
 10
19.07399572919845
 20
40.14969080675128
 30
0.0
  9
$EXTMIN
 10
-0.8077326936344604
 20
1.630465631670233
 30
0.0
  9
$EXTMAX
 10
2.677486628112667
 20
3.18952526127709
 30
0.0
  9
$LIMMIN
 10
0.0
 20
0.0
  9
$LIMMAX
 10
18.0
 20
12.0
  9
$ORTHOMODE
 70
     1
  9
$REGENMODE
 70
     1
  9
$FILLMODE
 70
     1
  9
$QTEXTMODE
 70
     0
  9
$MIRRTEXT
 70
     0
  9
$DRAGMODE
 70
     2
  9
$LTSCALE
 40
1.0
  9
$OSMODE
 70
    39
  9
$ATTMODE
 70
     1
  9
$TEXTSIZE
 40
0.125
  9
$TRACEWID
 40
0.05
  9
$TEXTSTYLE
  7
ROMANS
  9
$CLAYER
  8
DIM
  9
$CELTYPE
  6
BYLAYER
  9
$CECOLOR
 62
   256
  9
$CELTSCALE
 40
1.0
  9
$DELOBJ
 70
     1
  9
$DISPSILH
 70
     1
  9
$DIMSCALE
 40
1.0
  9
$DIMASZ
 40
0.125
  9
$DIMEXO
 40
0.125
  9
$DIMDLI
 40
0.375
  9
$DIMRND
 40
0.0
  9
$DIMDLE
 40
0.0
  9
$DIMEXE
 40
0.125
  9
$DIMTP
 40
0.0
  9
$DIMTM
 40
0.0
  9
$DIMTXT
 40
0.125
  9
$DIMCEN
 40
-0.125
  9
$DIMTSZ
 40
0.0
  9
$DIMTOL
 70
     0
  9
$DIMLIM
 70
     0
  9
$DIMTIH
 70
     1
  9
$DIMTOH
 70
     1
  9
$DIMSE1
 70
     0
  9
$DIMSE2
 70
     0
  9
$DIMTAD
 70
     0
  9
$DIMZIN
 70
     4
  9
$DIMBLK
  1

  9
$DIMASO
 70
     1
  9
$DIMSHO
 70
     1
  9
$DIMPOST
  1

  9
$DIMAPOST
  1

  9
$DIMALT
 70
     0
  9
$DIMALTD
 70
     2
  9
$DIMALTF
 40
25.4
  9
$DIMLFAC
 40
0.25
  9
$DIMTOFL
 70
     0
  9
$DIMTVP
 40
0.0
  9
$DIMTIX
 70
     1
  9
$DIMSOXD
 70
     0
  9
$DIMSAH
 70
     0
  9
$DIMBLK1
  1

  9
$DIMBLK2
  1

  9
$DIMSTYLE
  2
STANDARD
  9
$DIMCLRD
 70
     0
  9
$DIMCLRE
 70
     0
  9
$DIMCLRT
 70
     0
  9
$DIMTFAC
 40
1.0
  9
$DIMGAP
 40
0.09
  9
$DIMJUST
 70
     0
  9
$DIMSD1
 70
     0
  9
$DIMSD2
 70
     0
  9
$DIMTOLJ
 70
     1
  9
$DIMTZIN
 70
     4
  9
$DIMALTZ
 70
     0
  9
$DIMALTTZ
 70
     0
  9
$DIMFIT
 70
     3
  9
$DIMUPT
 70
     0
  9
$DIMUNIT
 70
     2
  9
$DIMDEC
 70
     3
  9
$DIMTDEC
 70
     3
  9
$DIMALTU
 70
     2
  9
$DIMALTTD
 70
     2
  9
$DIMTXSTY
  7
ROMANS
  9
$DIMAUNIT
 70
     0
  9
$LUNITS
 70
     2
  9
$LUPREC
 70
     3
  9
$SKETCHINC
 40
0.1
  9
$FILLETRAD
 40
0.015
  9
$AUNITS
 70
     0
  9
$AUPREC
 70
     0
  9
$MENU
  1
ACAD
  9
$ELEVATION
 40
0.0
  9
$PELEVATION
 40
0.0
  9
$THICKNESS
 40
0.0
  9
$LIMCHECK
 70
     0
  9
$BLIPMODE
 70
     0
  9
$CHAMFERA
 40
0.03125
  9
$CHAMFERB
 40
0.03125
  9
$CHAMFERC
 40
0.0
  9
$CHAMFERD
 40
0.0
  9
$SKPOLY
 70
     0
  9
$TDCREATE
 40
2450407.401623032
  9
$TDUPDATE
 40
2452458.319051342
  9
$TDINDWG
 40
10.4230398264
  9
$TDUSRTIMER
 40
10.4230398264
  9
$USRTIMER
 70
     1
  9
$ANGBASE
 50
0.0
  9
$ANGDIR
 70
     0
  9
$PDMODE
 70
     0
  9
$PDSIZE
 40
0.0
  9
$PLINEWID
 40
0.0
  9
$COORDS
 70
     2
  9
$SPLFRAME
 70
     0
  9
$SPLINETYPE
 70
     6
  9
$SPLINESEGS
 70
     8
  9
$ATTDIA
 70
     0
  9
$ATTREQ
 70
     1
  9
$HANDLING
 70
 22529
  9
$HANDSEED
  5
4105
  9
$SURFTAB1
 70
     6
  9
$SURFTAB2
 70
     6
  9
$SURFTYPE
 70
     6
  9
$SURFU
 70
     6
  9
$SURFV
 70
     6
  9
$UCSNAME
  2

  9
$UCSORG
 10
0.0
 20
0.0
 30
0.0
  9
$UCSXDIR
 10
1.0
 20
0.0
 30
0.0
  9
$UCSYDIR
 10
0.0
 20
1.0
 30
0.0
  9
$PUCSNAME
  2

  9
$PUCSORG
 10
0.0
 20
0.0
 30
0.0
  9
$PUCSXDIR
 10
1.0
 20
0.0
 30
0.0
  9
$PUCSYDIR
 10
0.0
 20
1.0
 30
0.0
  9
$USERI1
 70
     0
  9
$USERI2
 70
     0
  9
$USERI3
 70
     0
  9
$USERI4
 70
     0
  9
$USERI5
 70
     0
  9
$USERR1
 40
0.0
  9
$USERR2
 40
0.0
  9
$USERR3
 40
0.0
  9
$USERR4
 40
0.0
  9
$USERR5
 40
0.0
  9
$WORLDVIEW
 70
     1
  9
$SHADEDGE
 70
     3
  9
$SHADEDIF
 70
    70
  9
$TILEMODE
 70
     1
  9
$MAXACTVP
 70
    16
  9
$PINSBASE
 10
0.0
 20
0.0
 30
0.0
  9
$PLIMCHECK
 70
     0
  9
$PEXTMIN
 10
50.016483474401
 20
33.40594830216693
 30
-29.11368750000001
  9
$PEXTMAX
 10
116.7849835004977
 20
55.41491692415298
 30
22.78631249999999
  9
$PLIMMIN
 10
0.0
 20
0.0
  9
$PLIMMAX
 10
12.0
 20
9.0
  9
$UNITMODE
 70
     0
  9
$VISRETAIN
 70
     0
  9
$PLINEGEN
 70
     1
  9
$PSLTSCALE
 70
     0
  9
$TREEDEPTH
 70
  3020
  9
$PICKSTYLE
 70
     1
  9
$CMLSTYLE
  2
STANDARD
  9
$CMLJUST
 70
     0
  9
$CMLSCALE
 40
1.0
  9
$PROXYGRAPHICS
 70
     1
  9
$MEASUREMENT
 70
     0
  0
ENDSEC
  0
SECTION
  2
CLASSES
  0
CLASS
  1
LWPOLYLINE
  2
AcDbPolyline
  3
AutoCAD 2000
 90
        0
280
     0
281
     1
  0
CLASS
  1
ACDBDICTIONARYWDFLT
  2
AcDbDictionaryWithDefault
  3
AutoCAD 2000
 90
        0
280
     0
281
     0
  0
CLASS
  1
ACDBPLACEHOLDER
  2
AcDbPlaceHolder
  3
AutoCAD 2000
 90
        0
280
     0
281
     0
  0
CLASS
  1
LAYOUT
  2
AcDbLayout
  3
AutoCAD 2000
 90
        0
280
     0
281
     0
  0
CLASS
  1
DICTIONARYVAR
  2
AcDbDictionaryVar
  3
AutoCAD 2000
 90
        0
280
     0
281
     0
  0
CLASS
  1
LONG_TRANSACTION
  2
AcDbLongTransaction
  3
AutoCAD 2000
 90
        0
280
     0
281
     0
  0
CLASS
  1
LWPOLYLINE
  2
AcDbPolyline
  3
AutoCAD 2000
 90
        0
280
     0
281
     1
  0
CLASS
  1
HATCH
  2
AcDbHatch
  3
AutoCAD 2000
 90
        0
280
     0
281
     1
  0
CLASS
  1
XRECORD
  2
AcDbXrecord
  3
AutoCAD 2000
 90
        0
280
     0
281
     0
  0
ENDSEC
  0
SECTION
  2
TABLES
  0
TABLE
  2
VPORT
  5
12
330
0
100
AcDbSymbolTable
 70
     2
  0
VPORT
  5
40E0
330
12
100
AcDbSymbolTableRecord
100
AcDbViewportTableRecord
  2
*ACTIVE
 70
     0
 10
0.0
 20
0.0
 11
1.0
 21
1.0
 12
3.857982069352229
 22
2.410014290757256
 13
0.0
 23
0.0
 14
0.0625
 24
0.0625
 15
0.0
 25
0.0
 16
0.0
 26
0.0
 36
1.0
 17
0.0
 27
0.0
 37
0.0
 40
2.164480906781282
 41
4.320930232558139
 42
50.0
 43
0.0
 44
0.0
 50
0.0
 51
0.0
 71
     0
 72
  2000
 73
     1
 74
     1
 75
     0
 76
     0
 77
     0
 78
     0
  0
ENDTAB
  0
TABLE
  2
LTYPE
  5
E
330
0
100
AcDbSymbolTable
 70
     1
  0
LTYPE
  5
F
330
E
100
AcDbSymbolTableRecord
100
AcDbLinetypeTableRecord
  2
BYBLOCK
 70
     0
  3

 72
    65
 73
     0
 40
0.0
  0
LTYPE
  5
6
330
E
100
AcDbSymbolTableRecord
100
AcDbLinetypeTableRecord
  2
BYLAYER
 70
     0
  3

 72
    65
 73
     0
 40
0.0
  0
LTYPE
  5
5
330
E
100
AcDbSymbolTableRecord
100
AcDbLinetypeTableRecord
  2
CONTINUOUS
 70
     0
  3
Solid line
 72
    65
 73
     0
 40
0.0
  0
ENDTAB
  0
TABLE
  2
LAYER
  5
B
330
0
100
AcDbSymbolTable
 70
     3
  0
LAYER
  5
4
330
B
100
AcDbSymbolTableRecord
100
AcDbLayerTableRecord
  2
0
 70
     0
 62
     7
  6
CONTINUOUS
  0
LAYER
  5
352
330
B
100
AcDbSymbolTableRecord
100
AcDbLayerTableRecord
  2
DIM
 70
     0
 62
     4
  6
CONTINUOUS
  0
LAYER
  5
9D4
330
B
100
AcDbSymbolTableRecord
100
AcDbLayerTableRecord
  2
TEXT
 70
     0
 62
     3
  6
CONTINUOUS
  0
ENDTAB
  0
TABLE
  2
STYLE
  5
C
330
0
100
AcDbSymbolTable
 70
     3
  0
STYLE
  5
D
330
C
100
AcDbSymbolTableRecord
100
AcDbTextStyleTableRecord
  2
STANDARD
 70
     0
 40
0.0
 41
1.0
 50
0.0
 71
     0
 42
0.625
  3
txt
  4

  0
STYLE
  5
1B
330
C
100
AcDbSymbolTableRecord
100
AcDbTextStyleTableRecord
  2
ROMANS
 70
     0
 40
0.0
 41
1.0
 50
0.0
 71
     0
 42
0.125
  3
romans.shx
  4

  0
STYLE
  5
3FCE
330
C
100
AcDbSymbolTableRecord
100
AcDbTextStyleTableRecord
  2
ITALICC
 70
     0
 40
0.0
 41
1.0
 50
0.0
 71
     0
 42
0.125
  3
italicc
  4

  0
ENDTAB
  0
TABLE
  2
VIEW
  5
10
330
0
100
AcDbSymbolTable
 70
     0
  0
ENDTAB
  0
TABLE
  2
UCS
  5
11
330
0
100
AcDbSymbolTable
 70
     0
  0
ENDTAB
  0
TABLE
  2
APPID
  5
14
330
0
100
AcDbSymbolTable
 70
     2
  0
APPID
  5
15
330
14
100
AcDbSymbolTableRecord
100
AcDbRegAppTableRecord
  2
ACAD
 70
     0
  0
APPID
  5
2378
330
14
100
AcDbSymbolTableRecord
100
AcDbRegAppTableRecord
  2
AME_SOLVIEW
 70
     0
  0
ENDTAB
  0
TABLE
  2
DIMSTYLE
  5
16
330
0
100
AcDbSymbolTable
 70
     1
  0
DIMSTYLE
105
1D
330
16
100
AcDbSymbolTableRecord
100
AcDbDimStyleTableRecord
  2
STANDARD
 70
     0
  3

  4

  5

  6

  7

 40
1.0
 41
0.125
 42
0.125
 43
0.375
 44
0.125
 45
0.0
 46
0.0
 47
0.0
 48
0.0
140
0.125
141
-0.125
142
0.0
143
25.4
144
0.25
145
0.0
146
1.0
147
0.09
 71
     0
 72
     0
 73
     1
 74
     1
 75
     0
 76
     0
 77
     0
 78
     4
170
     0
171
     2
172
     0
173
     0
174
     1
175
     0
176
     0
177
     0
178
     0
270
     2
271
     3
272
     3
273
     2
274
     2
340
1B
275
     0
280
     0
281
     0
282
     0
283
     1
284
     4
285
     0
286
     0
287
     3
288
     0
  0
ENDTAB
  0
TABLE
  2
BLOCK_RECORD
  5
1
330
0
100
AcDbSymbolTable
 70
     0
  0
BLOCK_RECORD
  5
2
102
{ACAD_XDICTIONARY
360
4101
102
}
330
1
100
AcDbSymbolTableRecord
100
AcDbBlockTableRecord
  2
*MODEL_SPACE
  0
BLOCK_RECORD
  5
8
102
{ACAD_XDICTIONARY
360
4103
102
}
330
1
100
AcDbSymbolTableRecord
100
AcDbBlockTableRecord
  2
*PAPER_SPACE
  0
ENDTAB
  0
ENDSEC
  0
SECTION
  2
BLOCKS
  0
BLOCK
  5
3
330
2
100
AcDbEntity
  8
0
100
AcDbBlockBegin
  2
*MODEL_SPACE
 70
     0
 10
0.0
 20
0.0
 30
0.0
  3
*MODEL_SPACE
  1

  0
ENDBLK
  5
7
330
2
100
AcDbEntity
  8
0
100
AcDbBlockEnd
  0
BLOCK
  5
9
330
8
100
AcDbEntity
 67
     1
  8
0
100
AcDbBlockBegin
  2
*PAPER_SPACE
 70
     0
 10
0.0
 20
0.0
 30
0.0
  3
*PAPER_SPACE
  1

  0
ENDBLK
  5
A
330
8
100
AcDbEntity
 67
     1
  8
0
100
AcDbBlockEnd
  0
ENDSEC
  0
SECTION
  2
ENTITIES
  0
LWPOLYLINE
  5
3F38
330
2
100
AcDbEntity
  8
0
100
AcDbPolyline
 90
       48
 70
   129
 43
0.0
 10
0.8348223890470869
 20
3.04940026127709
 42
-0.4142135623730951
 10
0.8498223890470875
 20
3.03440026127709
 10
0.8498223890470875
 20
3.024400261277092
 42
-0.4142135623730951
 10
0.8348223890470869
 20
3.009400261277091
 10
0.7560723890470804
 20
3.009400261277091
 10
0.7560723890470769
 20
2.604525261277096
 42
0.4142135623730948
 10
0.8160723890470791
 20
2.544525261277101
 10
1.164822389047074
 20
2.544525261277094
 42
0.4142135623730951
 10
1.224822389047069
 20
2.604525261277089
 10
1.224822389047083
 20
3.009400261277091
 10
1.146072389047077
 20
3.009400261277091
 42
-0.4142135623728872
 10
1.131072389047076
 20
3.024400261277094
 10
1.131072389047069
 20
3.03440026127709
 42
-0.4142135623730951
 10
1.14607238904707
 20
3.04940026127709
 10
1.203609185611497
 20
3.049400261277083
 42
0.6681786379193394
 10
1.214215787329294
 20
3.075006862994882
 10
1.196697389047081
 20
3.092525261277094
 42
-0.9999999999999998
 10
1.346697389047072
 20
3.092525261277094
 10
1.329178990764859
 20
3.075006862994891
 42
0.6681786379193561
 10
1.339785592482655
 20
3.04940026127709
 10
1.397322389047069
 20
3.04940026127709
 42
-0.4142135623730951
 10
1.412322389047069
 20
3.03440026127709
 10
1.412322389047069
 20
3.024400261277092
 42
-0.4142135623730951
 10
1.397322389047069
 20
3.009400261277091
 10
1.318572389047062
 20
3.009400261277091
 10
1.318572389047076
 20
2.604525261277089
 42
0.4142135623730948
 10
1.378572389047079
 20
2.544525261277094
 10
1.541965663266736
 20
2.544525261277094
 42
-0.9999999999999998
 10
1.541965663266736
 20
2.489525261277094
 10
0.4566973890470792
 20
2.489525261277094
 42
-0.4142135623730951
 10
0.3966973890470839
 20
2.549525261277096
 10
0.3966973890470839
 20
3.16202526127709
 42
-0.9999999999999998
 10
0.4516973890470837
 20
3.16202526127709
 10
0.4516973890470837
 20
2.564525261277097
 42
0.4142135623730951
 10
0.4716973890470797
 20
2.544525261277101
 10
0.6023223890470888
 20
2.544525261277101
 42
0.4142135623730951
 10
0.662322389047084
 20
2.604525261277096
 10
0.6623223890470804
 20
3.009400261277091
 10
0.5835723890470952
 20
3.009400261277091
 42
-0.4142135623729216
 10
0.5685723890470911
 20
3.024400261277092
 10
0.5685723890470876
 20
3.03440026127709
 42
-0.4142135623730951
 10
0.5835723890470881
 20
3.04940026127709
 10
0.6411091856115086
 20
3.049400261277083
 42
0.6681786379192938
 10
0.6517157873293087
 20
3.075006862994881
 10
0.6341973890470989
 20
3.092525261277094
 42
-0.9999999999999998
 10
0.7841973890470904
 20
3.092525261277094
 10
0.7666789907648841
 20
3.075006862994893
 42
0.6681786379193446
 10
0.7772855924826807
 20
3.049400261277092
  0
TEXT
  5
4053
330
2
100
AcDbEntity
  8
TEXT
100
AcDbText
 10
0.1822726951164919
 20
2.088484235752815
 30
0.0
 40
0.125
  1
PART #110584
  7
ITALICC
 72
     1
 11
0.9352488855926823
 21
2.088484235752815
 31
0.0
100
AcDbText
  0
LINE
  5
4054
330
2
100
AcDbEntity
  8
TEXT
100
AcDbLine
 10
0.9029823845447451
 20
1.844130549732981
 30
0.0
 11
0.9796303658373028
 21
1.844130549732981
 31
0.0
  0
LINE
  5
4055
330
2
100
AcDbEntity
  8
TEXT
100
AcDbLine
 10
0.9751504785108027
 20
1.908407244389747
 30
0.0
 11
0.9076507608612862
 21
1.908407244389747
 31
0.0
  0
LWPOLYLINE
  5
4056
330
2
100
AcDbEntity
  8
TEXT
100
AcDbPolyline
 90
        5
 70
     0
 43
0.0001332181640625
 10
-0.7341296579899299
 20
1.785180442631934
 10
-0.7208078415836812
 20
1.785180442631934
 10
-0.7208078415836812
 20
1.821815437749124
 10
-0.6841728464664914
 20
1.821815437749124
 10
-0.6841728464664914
 20
1.83513725415537
  0
LWPOLYLINE
  5
4057
330
2
100
AcDbEntity
  8
TEXT
100
AcDbPolyline
 90
        3
 70
     0
 43
0.0006660908203125
 10
-0.6941642087711819
 20
1.881763611577249
 10
-0.7807560154118068
 20
1.881763611577249
 10
-0.7807560154118068
 20
1.795171804936622
  0
LWPOLYLINE
  5
4058
330
2
100
AcDbEntity
  8
TEXT
100
AcDbPolyline
 90
        3
 70
     0
 43
0.0006660908203125
 10
-0.6941642087711819
 20
1.90840724438975
 10
-0.8073996482243043
 20
1.90840724438975
 10
-0.8073996482243043
 20
1.795171804936622
  0
LWPOLYLINE
  5
4059
330
2
100
AcDbEntity
  8
TEXT
100
AcDbPolyline
 90
        5
 70
     0
 43
0.0001332181640625
 10
-0.6841728464664914
 20
1.715240906499123
 10
-0.6841728464664914
 20
1.728562722905373
 10
-0.7208078415836794
 20
1.728562722905373
 10
-0.7208078415836794
 20
1.76519771802256
 10
-0.7341296579899299
 20
1.76519771802256
  0
LWPOLYLINE
  5
405A
330
2
100
AcDbEntity
  8
TEXT
100
AcDbPolyline
 90
        3
 70
     0
 43
0.0006660908203125
 10
-0.7807560154118068
 20
1.755206355717874
 10
-0.7807560154118068
 20
1.668614549077248
 10
-0.6941642087711819
 20
1.668614549077248
  0
LWPOLYLINE
  5
405B
330
2
100
AcDbEntity
  8
TEXT
100
AcDbPolyline
 90
        3
 70
     0
 43
0.0006660908203125
 10
-0.8073996482243043
 20
1.755206355717874
 10
-0.8073996482243043
 20
1.641970916264747
 10
-0.6941642087711819
 20
1.641970916264747
  0
LWPOLYLINE
  5
405C
330
2
100
AcDbEntity
  8
TEXT
100
AcDbPolyline
 90
        2
 70
     0
 43
0.0001332181640625
 10
-0.7807560154118068
 20
1.755206355717874
 10
-0.7208078415836794
 20
1.76519771802256
  0
LWPOLYLINE
  5
405D
330
2
100
AcDbEntity
  8
TEXT
100
AcDbPolyline
 90
        2
 70
     0
 43
0.0001332181640625
 10
-0.7341296579899299
 20
1.76519771802256
 10
-0.8073996482243043
 20
1.755206355717874
  0
LWPOLYLINE
  5
405E
330
2
100
AcDbEntity
  8
TEXT
100
AcDbPolyline
 90
        2
 70
     0
 43
0.0006660908203125
 10
-0.7807560154118068
 20
1.755206355717874
 10
-0.8073996482243043
 20
1.755206355717874
  0
LWPOLYLINE
  5
405F
330
2
100
AcDbEntity
  8
TEXT
100
AcDbPolyline
 90
        2
 70
     0
 43
0.0001332181640625
 10
-0.7807560154118068
 20
1.668614549077248
 10
-0.7208078415836794
 20
1.728562722905373
  0
LWPOLYLINE
  5
4060
330
2
100
AcDbEntity
  8
TEXT
100
AcDbPolyline
 90
        2
 70
     0
 43
0.0006660908203125
 10
-0.7807560154118068
 20
1.795171804936622
 10
-0.8073996482243043
 20
1.795171804936622
  0
LWPOLYLINE
  5
4061
330
2
100
AcDbEntity
  8
TEXT
100
AcDbPolyline
 90
        2
 70
     0
 43
0.0001332181640625
 10
-0.8073996482243043
 20
1.795171804936622
 10
-0.7341296579899299
 20
1.785180442631934
  0
LWPOLYLINE
  5
4062
330
2
100
AcDbEntity
  8
TEXT
100
AcDbPolyline
 90
        2
 70
     0
 43
0.0001332181640625
 10
-0.7807560154118068
 20
1.795171804936622
 10
-0.7208078415836812
 20
1.785180442631934
  0
LWPOLYLINE
  5
4063
330
2
100
AcDbEntity
  8
TEXT
100
AcDbPolyline
 90
        2
 70
     0
 43
0.0001332181640625
 10
-0.7807560154118068
 20
1.881763611577249
 10
-0.7208078415836812
 20
1.821815437749124
  0
LWPOLYLINE
  5
4064
330
2
100
AcDbEntity
  8
TEXT
100
AcDbPolyline
 90
        5
 70
     0
 43
0.0001332181640625
 10
-0.6142333103336806
 20
1.76519771802256
 10
-0.6275551267399293
 20
1.76519771802256
 10
-0.6275551267399293
 20
1.728562722905373
 10
-0.6641901218571192
 20
1.728562722905373
 10
-0.6641901218571192
 20
1.715240906499123
  0
LWPOLYLINE
  5
4065
330
2
100
AcDbEntity
  8
TEXT
100
AcDbPolyline
 90
        2
 70
     0
 43
0.0001332181640625
 10
-0.5676069529118056
 20
1.755206355717874
 10
-0.6275551267399293
 20
1.76519771802256
  0
LWPOLYLINE
  5
4066
330
2
100
AcDbEntity
  8
TEXT
100
AcDbPolyline
 90
        2
 70
     0
 43
0.0001332181640625
 10
-0.5409633200993045
 20
1.755206355717874
 10
-0.6142333103336806
 20
1.76519771802256
  0
LWPOLYLINE
  5
4067
330
2
100
AcDbEntity
  8
TEXT
100
AcDbPolyline
 90
        3
 70
     0
 43
0.0006660908203125
 10
-0.6541987595524304
 20
1.641970916264747
 10
-0.5409633200993045
 20
1.641970916264747
 10
-0.5409633200993045
 20
1.755206355717874
  0
LWPOLYLINE
  5
4068
330
2
100
AcDbEntity
  8
TEXT
100
AcDbPolyline
 90
        3
 70
     0
 43
0.0006660908203125
 10
-0.6541987595524304
 20
1.668614549077248
 10
-0.5676069529118056
 20
1.668614549077248
 10
-0.5676069529118056
 20
1.755206355717874
  0
LWPOLYLINE
  5
4069
330
2
100
AcDbEntity
  8
TEXT
100
AcDbPolyline
 90
        2
 70
     0
 43
0.0001332181640625
 10
-0.5676069529118056
 20
1.668614549077248
 10
-0.6275551267399293
 20
1.728562722905373
  0
LWPOLYLINE
  5
406A
330
2
100
AcDbEntity
  8
TEXT
100
AcDbPolyline
 90
        2
 70
     0
 43
0.0006660908203125
 10
-0.6541987595524304
 20
1.668614549077248
 10
-0.6541987595524304
 20
1.641970916264747
  0
LWPOLYLINE
  5
406B
330
2
100
AcDbEntity
  8
TEXT
100
AcDbPolyline
 90
        2
 70
     0
 43
0.0001332181640625
 10
-0.6641901218571192
 20
1.715240906499123
 10
-0.6541987595524304
 20
1.641970916264747
  0
LWPOLYLINE
  5
406C
330
2
100
AcDbEntity
  8
TEXT
100
AcDbPolyline
 90
        2
 70
     0
 43
0.0001332181640625
 10
-0.6541987595524304
 20
1.668614549077248
 10
-0.6641901218571192
 20
1.728562722905373
  0
LWPOLYLINE
  5
406D
330
2
100
AcDbEntity
  8
TEXT
100
AcDbPolyline
 90
        2
 70
     0
 43
0.0001332181640625
 10
-0.6941642087711819
 20
1.641970916264747
 10
-0.6841728464664914
 20
1.715240906499123
  0
LWPOLYLINE
  5
406E
330
2
100
AcDbEntity
  8
TEXT
100
AcDbPolyline
 90
        2
 70
     0
 43
0.0001332181640625
 10
-0.6941642087711819
 20
1.668614549077248
 10
-0.6841728464664914
 20
1.728562722905373
  0
LWPOLYLINE
  5
406F
330
2
100
AcDbEntity
  8
TEXT
100
AcDbPolyline
 90
        2
 70
     0
 43
0.0006660908203125
 10
-0.6941642087711819
 20
1.668614549077248
 10
-0.6941642087711819
 20
1.641970916264747
  0
LWPOLYLINE
  5
4070
330
2
100
AcDbEntity
  8
TEXT
100
AcDbPolyline
 90
        2
 70
     0
 43
0.0006660908203125
 10
-0.5676069529118056
 20
1.755206355717874
 10
-0.5409633200993045
 20
1.755206355717874
  0
LWPOLYLINE
  5
4071
330
2
100
AcDbEntity
  8
TEXT
100
AcDbPolyline
 90
        2
 70
     0
 43
0.0001332181640625
 10
-0.5676069529118056
 20
1.881763611577249
 10
-0.6275551267399293
 20
1.821815437749124
  0
LWPOLYLINE
  5
4072
330
2
100
AcDbEntity
  8
TEXT
100
AcDbPolyline
 90
        2
 70
     0
 43
0.0001332181640625
 10
-0.5676069529118056
 20
1.795171804936622
 10
-0.6275551267399293
 20
1.785180442631934
  0
LWPOLYLINE
  5
4073
330
2
100
AcDbEntity
  8
TEXT
100
AcDbPolyline
 90
        2
 70
     0
 43
0.0001332181640625
 10
-0.6142333103336806
 20
1.785180442631934
 10
-0.5409633200993045
 20
1.795171804936622
  0
LWPOLYLINE
  5
4074
330
2
100
AcDbEntity
  8
TEXT
100
AcDbPolyline
 90
        3
 70
     0
 43
0.0006660908203125
 10
-0.5676069529118056
 20
1.795171804936622
 10
-0.5676069529118056
 20
1.881763611577249
 10
-0.6541987595524304
 20
1.881763611577249
  0
LWPOLYLINE
  5
4075
330
2
100
AcDbEntity
  8
TEXT
100
AcDbPolyline
 90
        3
 70
     0
 43
0.0006660908203125
 10
-0.5409633200993045
 20
1.795171804936622
 10
-0.5409633200993045
 20
1.90840724438975
 10
-0.6541987595524304
 20
1.90840724438975
  0
LWPOLYLINE
  5
4076
330
2
100
AcDbEntity
  8
TEXT
100
AcDbPolyline
 90
        2
 70
     0
 43
0.0001332181640625
 10
-0.6541987595524304
 20
1.90840724438975
 10
-0.6641901218571192
 20
1.83513725415537
  0
LWPOLYLINE
  5
4077
330
2
100
AcDbEntity
  8
TEXT
100
AcDbPolyline
 90
        2
 70
     0
 43
0.0001332181640625
 10
-0.6541987595524304
 20
1.881763611577249
 10
-0.6641901218571192
 20
1.821815437749124
  0
LWPOLYLINE
  5
4078
330
2
100
AcDbEntity
  8
TEXT
100
AcDbPolyline
 90
        2
 70
     0
 43
0.0006660908203125
 10
-0.6541987595524304
 20
1.881763611577249
 10
-0.6541987595524304
 20
1.90840724438975
  0
LWPOLYLINE
  5
4079
330
2
100
AcDbEntity
  8
TEXT
100
AcDbPolyline
 90
        5
 70
     0
 43
0.0001332181640625
 10
-0.6641901218571192
 20
1.83513725415537
 10
-0.6641901218571192
 20
1.821815437749124
 10
-0.6275551267399293
 20
1.821815437749124
 10
-0.6275551267399293
 20
1.785180442631934
 10
-0.6142333103336806
 20
1.785180442631934
  0
LWPOLYLINE
  5
407A
330
2
100
AcDbEntity
  8
TEXT
100
AcDbPolyline
 90
        2
 70
     0
 43
0.0001332181640625
 10
-0.6941642087711819
 20
1.881763611577249
 10
-0.6841728464664914
 20
1.821815437749124
  0
LWPOLYLINE
  5
407B
330
2
100
AcDbEntity
  8
TEXT
100
AcDbPolyline
 90
        2
 70
     0
 43
0.0001332181640625
 10
-0.6841728464664914
 20
1.83513725415537
 10
-0.6941642087711819
 20
1.90840724438975
  0
LWPOLYLINE
  5
407C
330
2
100
AcDbEntity
  8
TEXT
100
AcDbPolyline
 90
        2
 70
     0
 43
0.0006660908203125
 10
-0.6941642087711819
 20
1.881763611577249
 10
-0.6941642087711819
 20
1.90840724438975
  0
LWPOLYLINE
  5
407D
330
2
100
AcDbEntity
  8
TEXT
100
AcDbPolyline
 90
        2
 70
     0
 43
0.0006660908203125
 10
-0.5676069529118056
 20
1.795171804936622
 10
-0.5409633200993045
 20
1.795171804936622
  0
LWPOLYLINE
  5
407E
330
2
100
AcDbEntity
  8
TEXT
100
AcDbPolyline
 90
        2
 70
     0
 43
0.0
 10
0.1778166006493258
 20
1.693485553616164
 42
0.3318488747599744
 10
0.2469358932146388
 20
1.641934211401236
 42
-6.868794160588311
  0
LINE
  5
407F
330
2
100
AcDbEntity
  8
TEXT
100
AcDbLine
 10
0.2457963197184432
 20
1.976418722128557
 30
0.0
 11
0.1789876071520782
 21
1.976418722128557
 31
0.0
  0
LINE
  5
4080
330
2
100
AcDbEntity
  8
TEXT
100
AcDbLine
 10
-0.1003547604670159
 20
1.908407244389747
 30
0.0
 11
-0.2760865133655272
 21
1.908407244389747
 31
0.0
  0
ARC
  5
4081
330
2
100
AcDbEntity
  8
TEXT
100
AcDbCircle
 10
-0.2052490470069777
 20
1.725130019761793
 30
0.0
 40
0.0831958083605586
100
AcDbArc
 50
270.0
 51
90.0
  0
LINE
  5
4082
330
2
100
AcDbEntity
  8
TEXT
100
AcDbLine
 10
-0.2708491832512792
 20
1.844130549732981
 30
0.0
 11
-0.1039435292223088
 21
1.844130549732981
 31
0.0
  0
LINE
  5
4083
330
2
100
AcDbEntity
  8
TEXT
100
AcDbLine
 10
-0.2003086731006984
 20
1.710291217734675
 30
0.0
 11
-0.3581739728120326
 21
1.710291217734675
 31
0.0
  0
LINE
  5
4084
330
2
100
AcDbEntity
  8
TEXT
100
AcDbLine
 10
-0.3581739728120308
 20
1.641934211401236
 30
0.0
 11
-0.2052490470069781
 21
1.641934211401236
 31
0.0
  0
ARC
  5
4085
330
2
100
AcDbEntity
  8
TEXT
100
AcDbCircle
 10
-0.2760865133655268
 20
1.826319784943245
 30
0.0
 40
0.0820874594465043
100
AcDbArc
 50
90.0
 51
270.0
  0
LINE
  5
4086
330
2
100
AcDbEntity
  8
TEXT
100
AcDbLine
 10
-0.3581739728120326
 20
1.710291217734675
 30
0.0
 11
-0.3581739728120308
 21
1.641934211401236
 31
0.0
  0
LINE
  5
4087
330
2
100
AcDbEntity
  8
TEXT
100
AcDbLine
 10
-0.2760865133655272
 20
1.74423232549674
 30
0.0
 11
-0.2003086731006984
 21
1.74423232549674
 31
0.0
  0
ARC
  5
4088
330
2
100
AcDbEntity
  8
TEXT
100
AcDbCircle
 10
-0.200308673100698
 20
1.727261771615709
 30
0.0
 40
0.0169705538810321
100
AcDbArc
 50
270.0
 51
90.0
  0
LINE
  5
4089
330
2
100
AcDbEntity
  8
TEXT
100
AcDbLine
 10
-0.2052490470069781
 20
1.808325828122353
 30
0.0
 11
-0.2708491832512792
 21
1.808325828122353
 31
0.0
  0
ARC
  5
408A
330
2
100
AcDbEntity
  8
TEXT
100
AcDbCircle
 10
-0.2708491832512787
 20
1.826228188927669
 30
0.0
 40
0.017902360805315
100
AcDbArc
 50
90.0
 51
270.0
  0
LINE
  5
408B
330
2
100
AcDbEntity
  8
TEXT
100
AcDbLine
 10
0.0901171315528364
 20
1.807535248276626
 30
0.0
 11
0.0314868105208985
 21
1.908407244389747
 31
0.0
  0
LINE
  5
408C
330
2
100
AcDbEntity
  8
TEXT
100
AcDbLine
 10
-0.0500569217422031
 20
1.641934211401236
 30
0.0
 11
0.0465833293327913
 21
1.642204850499518
 31
0.0
  0
LWPOLYLINE
  5
408D
330
2
100
AcDbEntity
  8
TEXT
100
AcDbPolyline
 90
        6
 70
     1
 43
0.0
 10
-0.007533118167053
 20
1.844130549732981
 10
-0.0378497123872612
 20
1.844130549732981
 10
-0.0378497123872612
 20
1.721019551678087
 42
0.407328721240804
 10
-0.0263060612257848
 20
1.709200637001701
 10
0.034315637818946
 20
1.709200637001701
 10
0.0517809782262639
 20
1.74201286604518
  0
LINE
  5
408E
330
2
100
AcDbEntity
  8
TEXT
100
AcDbLine
 10
-0.1039435292223088
 20
1.844130549732981
 30
0.0
 11
-0.1039435292223088
 21
1.701726602739285
 31
0.0
  0
ARC
  5
408F
330
2
100
AcDbEntity
  8
TEXT
100
AcDbCircle
 10
-0.0438275112485562
 20
1.701726602739285
 30
0.0
 40
0.0601160179737537
100
AcDbArc
 50
180.0000000000003
 51
264.0521544866073
  0
LINE
  5
4090
330
2
100
AcDbEntity
  8
TEXT
100
AcDbLine
 10
-0.0403121556230088
 20
1.942795161983885
 30
0.0
 11
-0.1003547604670159
 21
1.942795161983885
 31
0.0
  0
LINE
  5
4091
330
2
100
AcDbEntity
  8
TEXT
100
AcDbLine
 10
-0.1003547604670159
 20
1.942795161983885
 30
0.0
 11
-0.1003547604670159
 21
1.908407244389747
 31
0.0
  0
LINE
  5
4092
330
2
100
AcDbEntity
  8
TEXT
100
AcDbLine
 10
-0.0403121556230088
 20
1.908407244389747
 30
0.0
 11
-0.0403121556230088
 21
1.942795161983885
 31
0.0
  0
LINE
  5
4093
330
2
100
AcDbEntity
  8
TEXT
100
AcDbLine
 10
0.0314868105208985
 20
1.908407244389747
 30
0.0
 11
-0.0403121556230088
 21
1.908407244389747
 31
0.0
  0
LINE
  5
4094
330
2
100
AcDbEntity
  8
TEXT
100
AcDbLine
 10
0.0805168945558821
 20
1.661892717506249
 30
0.0
 11
0.1778166006493267
 21
1.826242928441517
 31
0.0
  0
LINE
  5
4095
330
2
100
AcDbEntity
  8
TEXT
100
AcDbLine
 10
0.1778166006493267
 20
1.826242928441517
 30
0.0
 11
0.1778166006493267
 21
1.69348555361616
 31
0.0
  0
ARC
  5
4096
330
2
100
AcDbEntity
  8
TEXT
100
AcDbCircle
 10
0.0464733346436686
 20
1.681481933674931
 30
0.0
 40
0.0392772371940762
100
AcDbArc
 50
270.1604552698595
 51
330.0831797321295
  0
LINE
  5
4097
330
2
100
AcDbEntity
  8
TEXT
100
AcDbLine
 10
0.1488656943587019
 20
1.908407244389747
 30
0.0
 11
0.0901171315528364
 21
1.807535248276626
 31
0.0
  0
LINE
  5
4098
330
2
100
AcDbEntity
  8
TEXT
100
AcDbLine
 10
0.1789876071520782
 20
1.976418722128557
 30
0.0
 11
0.1789876071520782
 21
1.908407244389747
 31
0.0
  0
LINE
  5
4099
330
2
100
AcDbEntity
  8
TEXT
100
AcDbLine
 10
0.1789876071520782
 20
1.908407244389747
 30
0.0
 11
0.1488656943587019
 21
1.908407244389747
 31
0.0
  0
LWPOLYLINE
  5
409A
330
2
100
AcDbEntity
  8
TEXT
100
AcDbPolyline
 90
        4
 70
     0
 43
0.0
 10
0.5310737287722365
 20
1.836576760566871
 10
0.5310737287722365
 20
1.641934211401236
 10
0.5995520120600944
 20
1.641934211401236
 10
0.5995520120600944
 20
1.685425156351674
 42
-1.714843617202739
  0
LWPOLYLINE
  5
409B
330
2
100
AcDbEntity
  8
TEXT
100
AcDbPolyline
 90
        2
 70
     0
 43
0.0
 10
0.5662080793164464
 20
1.90840724438975
 42
-0.3277054968067132
 10
0.6019897700296113
 20
1.880084698620106
 42
6.667889725900311
  0
LWPOLYLINE
  5
409C
330
2
100
AcDbEntity
  8
TEXT
100
AcDbPolyline
 90
        2
 70
     0
 43
0.0
 10
0.3947745067372192
 20
1.844130549732981
 42
-0.4142135623731017
 10
0.4023282959033328
 20
1.836576760566871
 42
-0.9999999999999998
  0
LINE
  5
409D
330
2
100
AcDbEntity
  8
TEXT
100
AcDbLine
 10
0.4121262297872397
 20
1.908407244389747
 30
0.0
 11
0.2781081738561033
 21
1.908407244389747
 31
0.0
  0
LINE
  5
409E
330
2
100
AcDbEntity
  8
TEXT
100
AcDbLine
 10
0.3449392269140725
 20
1.641934211401236
 30
0.0
 11
0.3449392269140725
 21
1.844130549732981
 31
0.0
  0
LINE
  5
409F
330
2
100
AcDbEntity
  8
TEXT
100
AcDbLine
 10
0.2781081738561033
 20
1.908407244389747
 30
0.0
 11
0.2781081738561033
 21
1.707543037657338
 31
0.0
  0
LINE
  5
40A0
330
2
100
AcDbEntity
  8
TEXT
100
AcDbLine
 10
0.2457963197184432
 20
1.724322049504235
 30
0.0
 11
0.2457963197184432
 21
1.976418722128557
 31
0.0
  0
LINE
  5
40A1
330
2
100
AcDbEntity
  8
TEXT
100
AcDbLine
 10
0.2469358932146379
 20
1.641934211401236
 30
0.0
 11
0.3449392269140725
 21
1.641934211401236
 31
0.0
  0
LINE
  5
40A2
330
2
100
AcDbEntity
  8
TEXT
100
AcDbLine
 10
0.2781081738561033
 20
1.707543037657338
 30
0.0
 11
0.261114536971502
 21
1.707543037657338
 31
0.0
  0
ARC
  5
40A3
330
2
100
AcDbEntity
  8
TEXT
100
AcDbCircle
 10
0.2611145369715011
 20
1.722924843900764
 30
0.0
 40
0.0153818062434269
100
AcDbArc
 50
174.7883570302258
 51
270.0
  0
LINE
  5
40A4
330
2
100
AcDbEntity
  8
TEXT
100
AcDbLine
 10
0.3449392269140725
 20
1.844130549732981
 30
0.0
 11
0.3947745067372201
 21
1.844130549732981
 31
0.0
  0
LINE
  5
40A5
330
2
100
AcDbEntity
  8
TEXT
100
AcDbLine
 10
0.4023282959033337
 20
1.836576760566871
 30
0.0
 11
0.4023282959033337
 21
1.641934211401236
 31
0.0
  0
LINE
  5
40A6
330
2
100
AcDbEntity
  8
TEXT
100
AcDbLine
 10
0.4693863426851737
 20
1.641934211401236
 30
0.0
 11
0.4693863426851737
 21
1.844130549732981
 31
0.0
  0
LINE
  5
40A7
330
2
100
AcDbEntity
  8
TEXT
100
AcDbLine
 10
0.4023282959033337
 20
1.641934211401236
 30
0.0
 11
0.4693863426851737
 21
1.641934211401236
 31
0.0
  0
LWPOLYLINE
  5
40A8
330
2
100
AcDbEntity
  8
TEXT
100
AcDbPolyline
 90
        3
 70
     0
 43
0.0
 10
0.5662080793164464
 20
1.90840724438975
 10
0.447907920500402
 20
1.90840724438975
 10
0.447907920500402
 20
1.881239747628854
 42
-1.960274751411753
  0
LINE
  5
40A9
330
2
100
AcDbEntity
  8
TEXT
100
AcDbLine
 10
0.4693863426851737
 20
1.844130549732981
 30
0.0
 11
0.5235199396061239
 21
1.844130549732981
 31
0.0
  0
LWPOLYLINE
  5
40AA
330
2
100
AcDbEntity
  8
TEXT
100
AcDbPolyline
 90
        2
 70
     0
 43
0.0
 10
0.4121262297872406
 20
1.90840724438975
 42
-0.3328679258950098
 10
0.447907920500402
 20
1.881239747628854
 42
6.772930709997214
  0
LWPOLYLINE
  5
40AB
330
2
100
AcDbEntity
  8
TEXT
100
AcDbPolyline
 90
        2
 70
     0
 43
0.0
 10
0.523519939606123
 20
1.844130549732981
 42
-0.4142135623731017
 10
0.5310737287722365
 20
1.836576760566871
 42
-0.9999999999999998
  0
ARC
  5
40AC
330
2
100
AcDbEntity
  8
TEXT
100
AcDbCircle
 10
0.7347947394696029
 20
1.866823677268844
 30
0.0
 40
0.0416329381542859
100
AcDbArc
 50
26.56974201007528
 51
87.20939649401342
  0
LWPOLYLINE
  5
40AD
330
2
100
AcDbEntity
  8
TEXT
100
AcDbPolyline
 90
        2
 70
     0
 43
0.0
 10
0.6426279449277299
 20
1.641934211401236
 10
0.7766453625591066
 20
1.641934211401236
 42
0.9999999999999998
  0
LWPOLYLINE
  5
40AE
330
2
100
AcDbEntity
  8
TEXT
100
AcDbPolyline
 90
        4
 70
     1
 43
0.0
 10
0.756522897489214
 20
1.744898189385261
 10
0.6678625788293556
 20
1.744898189385261
 42
0.9999999999999998
 10
0.6678625788293556
 20
1.7024996488814
 10
0.756522897489214
 20
1.7024996488814
 42
1.0
  0
LWPOLYLINE
  5
40AF
330
2
100
AcDbEntity
  8
TEXT
100
AcDbPolyline
 90
        2
 70
     0
 43
0.0
 10
0.5995520120600944
 20
1.685425156351674
 42
0.2901071551932823
 10
0.6426279449277299
 20
1.641934211401236
 42
5.328517124445801
  0
LINE
  5
40B0
330
2
100
AcDbEntity
  8
TEXT
100
AcDbLine
 10
0.7368216792466713
 20
1.908407244389747
 30
0.0
 11
0.6019897700296122
 21
1.908407244389747
 31
0.0
  0
LINE
  5
40B1
330
2
100
AcDbEntity
  8
TEXT
100
AcDbLine
 10
0.661303866422931
 20
1.806855576270849
 30
0.0
 11
0.7435918562063142
 21
1.806855576270849
 31
0.0
  0
LINE
  5
40B2
330
2
100
AcDbEntity
  8
TEXT
100
AcDbLine
 10
0.7077907809021929
 20
1.844130549732981
 30
0.0
 11
0.6005845075149035
 21
1.844130549732981
 31
0.0
  0
LINE
  5
40B3
330
2
100
AcDbEntity
  8
TEXT
100
AcDbLine
 10
0.6019897700296122
 20
1.908407244389747
 30
0.0
 11
0.6019897700296122
 21
1.880084698620103
 31
0.0
  0
ARC
  5
40B4
330
2
100
AcDbEntity
  8
TEXT
100
AcDbCircle
 10
0.6613038664229301
 20
1.73916999512673
 30
0.0
 40
0.0676855811441166
100
AcDbArc
 50
90.0
 51
153.7768192527749
  0
LINE
  5
40B5
330
2
100
AcDbEntity
  8
TEXT
100
AcDbLine
 10
0.6005845075149035
 20
1.844130549732981
 30
0.0
 11
0.6005845075149035
 21
1.769078143658775
 31
0.0
  0
LINE
  5
40B6
330
2
100
AcDbEntity
  8
TEXT
100
AcDbLine
 10
0.7435918562063142
 20
1.806855576270849
 30
0.0
 11
0.7333270957927498
 21
1.828106115843543
 31
0.0
  0
ARC
  5
40B7
330
2
100
AcDbEntity
  8
TEXT
100
AcDbCircle
 10
0.707790780902192
 20
1.815771174732984
 30
0.0
 40
0.028359375
100
AcDbArc
 50
25.78218179591245
 51
90.0
  0
LINE
  5
40B8
330
2
100
AcDbEntity
  8
TEXT
100
AcDbLine
 10
0.8780765092620859
 20
1.641934211401236
 30
0.0
 11
0.8780765092620805
 21
1.819224716832704
 31
0.0
  0
LWPOLYLINE
  5
40B9
330
2
100
AcDbEntity
  8
TEXT
100
AcDbPolyline
 90
        2
 70
     0
 43
0.0
 10
0.8197212954267509
 20
1.641934211401236
 10
0.878076509262085
 20
1.641934211401236
  0
LWPOLYLINE
  5
40BA
330
2
100
AcDbEntity
  8
TEXT
100
AcDbPolyline
 90
        2
 70
     0
 43
0.0
 10
0.8197212954267509
 20
1.685425156351674
 42
-0.2901071551932486
 10
0.7766453625591066
 20
1.641934211401236
 42
-5.328517124445184
  0
LWPOLYLINE
  5
40BB
330
2
100
AcDbEntity
  8
TEXT
100
AcDbPolyline
 90
        2
 70
     0
 43
0.0
 10
0.8197212954267509
 20
1.685425156351674
 10
0.8197212954267509
 20
1.641934211401236
  0
LINE
  5
40BC
330
2
100
AcDbEntity
  8
TEXT
100
AcDbLine
 10
0.8796785244212133
 20
1.908407244389747
 30
0.0
 11
0.8157816181217123
 21
1.908407244389747
 31
0.0
  0
LINE
  5
40BD
330
2
100
AcDbEntity
  8
TEXT
100
AcDbLine
 10
0.8157816181217123
 20
1.908407244389747
 30
0.0
 11
0.8157816181217123
 21
1.803195265836319
 31
0.0
  0
LINE
  5
40BE
330
2
100
AcDbEntity
  8
TEXT
100
AcDbLine
 10
0.8157816181217123
 20
1.803195265836319
 30
0.0
 11
0.7720308469398108
 21
1.885445541832464
 31
0.0
  0
ARC
  5
40BF
330
2
100
AcDbEntity
  8
TEXT
100
AcDbCircle
 10
0.9029823845447442
 20
1.819224674450318
 30
0.0
 40
0.0249058752826653
100
AcDbArc
 50
89.99971217465335
 51
179.9999999999985
  0
ARC
  5
40C0
330
2
100
AcDbEntity
  8
TEXT
100
AcDbCircle
 10
0.9108713414843219
 20
1.877161517107482
 30
0.0
 40
0.0314112657011332
100
AcDbArc
 50
95.88484768694724
 51
173.2388340632136
  0
LINE
  5
40C1
330
2
100
AcDbEntity
  8
TEXT
100
AcDbLine
 10
0.8796785244212133
 20
1.880859594528872
 30
0.0
 11
0.8796785244212133
 21
1.908407244389747
 31
0.0
  0
TEXT
  5
40C2
330
2
100
AcDbEntity
  8
TEXT
100
AcDbText
 10
1.348554043843003
 20
1.734820020046732
 30
0.0
 40
0.0522247191011236
  1
Minneapolis, MN 55432-0008
 41
1.11444212721585
 72
     5
 11
2.677486628112667
 21
1.734820020046732
 31
0.0
100
AcDbText
  0
TEXT
  5
40C3
330
2
100
AcDbEntity
  8
TEXT
100
AcDbText
 10
1.348554043843003
 20
1.828078447013024
 30
0.0
 40
0.0522247191011236
  1
6536 Main St. N.E. * P.O. Box 32008
 41
0.8388932496075355
 72
     5
 11
2.677486628112667
 21
1.828078447013024
 31
0.0
100
AcDbText
  0
TEXT
  5
40C4
330
2
100
AcDbEntity
  8
TEXT
100
AcDbText
 10
1.348554043843003
 20
1.921336873979316
 30
0.0
 40
0.0522247191011236
  1
Stylmark  Incorporated
 41
1.221428571428571
 72
     5
 11
2.677486628112667
 21
1.921336873979316
 31
0.0
100
AcDbText
  0
TEXT
  5
40C5
330
2
100
AcDbEntity
  8
TEXT
100
AcDbText
 10
1.348554043843003
 20
1.64156159308044
 30
0.0
 40
0.0522247191011236
  1
Phone  1-800-328-2495
 41
1.272321428571429
 72
     5
 11
2.677486628112667
 21
1.64156159308044
 31
0.0
100
AcDbText
  0
LINE
  5
40C6
330
2
100
AcDbEntity
  8
TEXT
100
AcDbLine
 10
1.100998232379988
 20
1.798514001448773
 30
0.0
 11
1.165555348345693
 21
1.908407244389747
 31
0.0
  0
LINE
  5
40C7
330
2
100
AcDbEntity
  8
TEXT
100
AcDbLine
 10
1.165555348345693
 20
1.908407244389747
 30
0.0
 11
1.090563515616067
 21
1.908407244389747
 31
0.0
  0
LINE
  5
40C8
330
2
100
AcDbEntity
  8
TEXT
100
AcDbLine
 10
1.119912083367393
 20
1.641934211401236
 30
0.0
 11
1.196490455743599
 21
1.641934211401236
 31
0.0
  0
LINE
  5
40C9
330
2
100
AcDbEntity
  8
TEXT
100
AcDbLine
 10
1.196490455743599
 20
1.641934211401236
 30
0.0
 11
1.100998232379988
 21
1.798514001448773
 31
0.0
  0
LINE
  5
40CA
330
2
100
AcDbEntity
  8
TEXT
100
AcDbLine
 10
1.044008550155928
 20
1.641934211401236
 30
0.0
 11
1.044008550155928
 21
1.773513779877416
 31
0.0
  0
LINE
  5
40CB
330
2
100
AcDbEntity
  8
TEXT
100
AcDbLine
 10
1.044008550155928
 20
1.773513779877416
 30
0.0
 11
1.119912083367393
 21
1.641934211401236
 31
0.0
  0
LINE
  5
40CC
330
2
100
AcDbEntity
  8
TEXT
100
AcDbLine
 10
0.9796303658373028
 20
1.844130549732981
 30
0.0
 11
0.9796303658373082
 21
1.641934211401236
 31
0.0
  0
LINE
  5
40CD
330
2
100
AcDbEntity
  8
TEXT
100
AcDbLine
 10
0.9796303658373082
 20
1.641934211401236
 30
0.0
 11
1.044008550155928
 21
1.641934211401236
 31
0.0
  0
LINE
  5
40CE
330
2
100
AcDbEntity
  8
TEXT
100
AcDbLine
 10
1.043465357060081
 20
1.973871450157347
 30
0.0
 11
0.975150478510808
 21
1.973871450157347
 31
0.0
  0
LINE
  5
40CF
330
2
100
AcDbEntity
  8
TEXT
100
AcDbLine
 10
0.975150478510808
 20
1.973871450157347
 30
0.0
 11
0.9751504785108027
 21
1.908407244389747
 31
0.0
  0
LINE
  5
40D0
330
2
100
AcDbEntity
  8
TEXT
100
AcDbLine
 10
1.090563515616065
 20
1.908407244389747
 30
0.0
 11
1.043465357060081
 21
1.832541917978208
 31
0.0
  0
LINE
  5
40D1
330
2
100
AcDbEntity
  8
TEXT
100
AcDbLine
 10
1.043465357060081
 20
1.832541917978208
 30
0.0
 11
1.043465357060081
 21
1.973871450157347
 31
0.0
  0
ENDSEC
  0
SECTION
  2
OBJECTS
  0
DICTIONARY
  5
1A
330
0
100
AcDbDictionary
  3
ACAD_GROUP
350
18
  3
ACAD_LAYOUT
350
40D6
  3
ACAD_MLINESTYLE
350
19
  3
ACAD_PLOTSETTINGS
350
40D7
  3
ACAD_PLOTSTYLENAME
350
40D4
  3
ACDBHEADERROUNDTRIPXREC
350
40E1
  3
ACDBVARIABLEDICTIONARY
350
40DE
  0
DICTIONARY
  5
4101
330
2
100
AcDbDictionary
280
     1
  3
ACAD_LAYOUTSELFREF
360
4102
  0
DICTIONARY
  5
4103
330
8
100
AcDbDictionary
280
     1
  3
ACAD_LAYOUTSELFREF
360
4104
  0
DICTIONARY
  5
18
102
{ACAD_REACTORS
330
1A
102
}
330
1A
100
AcDbDictionary
  3
*A1
350
177A
  3
*A2
350
1AE3
  3
*A3
350
1EB6
  3
*A4
350
2164
  3
*A5
350
2558
  3
*A6
350
2559
  3
*A7
350
2A54
  3
*A8
350
3CDF
  3
*A9
350
3EFF
  0
DICTIONARY
  5
40D6
102
{ACAD_REACTORS
330
1A
102
}
330
1A
100
AcDbDictionary
  0
DICTIONARY
  5
19
102
{ACAD_REACTORS
330
1A
102
}
330
1A
100
AcDbDictionary
  3
STANDARD
350
1C
  0
DICTIONARY
  5
40D7
102
{ACAD_REACTORS
330
1A
102
}
330
1A
100
AcDbDictionary
  0
ACDBDICTIONARYWDFLT
  5
40D4
102
{ACAD_REACTORS
330
1A
102
}
330
1A
100
AcDbDictionary
281
     1
  3
Normal
350
40D5
100
AcDbDictionaryWithDefault
340
40D5
  0
DICTIONARY
  5
40E1
102
{ACAD_REACTORS
330
1A
102
}
330
1A
100
AcDbDictionary
  3
CEPSNTYPE
350
40EB
  3
FINGERPRINTGUID
350
40EC
  3
HYPERLINKBASE
350
40E4
  3
INSUNITS
350
40EA
  3
LAYOUTDICT
350
40E6
  3
LWETCUNION
350
40E9
  3
PLOTSETDICT
350
40E7
  3
PLOTSTYLNAMDICT
350
40E8
  3
PSVPSCALE
350
40EE
  3
PUCSBASE
350
40F1
  3
PUCSORGBACK
350
40F7
  3
PUCSORGBOTTOM
350
40F3
  3
PUCSORGFRONT
350
40F6
  3
PUCSORGLEFT
350
40F4
  3
PUCSORGRIGHT
350
40F5
  3
PUCSORGTOP
350
40F2
  3
PUCSORTHOREF
350
40EF
  3
PUCSORTHOVIEW
350
40F0
  3
STYLESHEET
350
40E5
  3
TSTACKALIGN
350
40E2
  3
TSTACKSIZE
350
40E3
  3
UCSBASE
350
40FA
  3
UCSORGBACK
350
4100
  3
UCSORGBOTTOM
350
40FC
  3
UCSORGFRONT
350
40FF
  3
UCSORGLEFT
350
40FD
  3
UCSORGRIGHT
350
40FE
  3
UCSORGTOP
350
40FB
  3
UCSORTHOREF
350
40F8
  3
UCSORTHOVIEW
350
40F9
  3
VERSIONGUID
350
40ED
  0
DICTIONARY
  5
40DE
102
{ACAD_REACTORS
330
1A
102
}
330
1A
100
AcDbDictionary
  3
DIMASSOC
350
40DF
  0
XRECORD
  5
4102
102
{ACAD_REACTORS
330
4101
102
}
330
4101
100
AcDbXrecord
340
2
  0
XRECORD
  5
4104
102
{ACAD_REACTORS
330
4103
102
}
330
4103
100
AcDbXrecord
340
8
  0
GROUP
  5
177A
102
{ACAD_REACTORS
330
18
102
}
330
18
100
AcDbGroup
300
BORDER FRAME 10-1-95
 70
     3
 71
     1
  0
GROUP
  5
1AE3
102
{ACAD_REACTORS
330
18
102
}
330
18
100
AcDbGroup
300

 70
     1
 71
     1
  0
GROUP
  5
1EB6
102
{ACAD_REACTORS
330
18
102
}
330
18
100
AcDbGroup
300

 70
     1
 71
     1
  0
GROUP
  5
2164
102
{ACAD_REACTORS
330
18
102
}
330
18
100
AcDbGroup
300

 70
     1
 71
     1
  0
GROUP
  5
2558
102
{ACAD_REACTORS
330
18
102
}
330
18
100
AcDbGroup
300
BORDER FRAME 10-1-95
 70
     3
 71
     1
  0
GROUP
  5
2559
102
{ACAD_REACTORS
330
18
102
}
330
18
100
AcDbGroup
300

 70
     3
 71
     1
  0
GROUP
  5
2A54
102
{ACAD_REACTORS
330
18
102
}
330
18
100
AcDbGroup
300

 70
     1
 71
     1
  0
GROUP
  5
3CDF
102
{ACAD_REACTORS
330
18
102
}
330
18
100
AcDbGroup
300

 70
     1
 71
     1
  0
GROUP
  5
3EFF
102
{ACAD_REACTORS
330
18
102
}
330
18
100
AcDbGroup
300

 70
     1
 71
     1
  0
MLINESTYLE
  5
1C
102
{ACAD_REACTORS
330
19
102
}
330
19
100
AcDbMlineStyle
  2
STANDARD
 70
     0
  3

 62
     0
 51
90.0
 52
90.0
 71
     2
 49
0.5
 62
   256
  6
BYLAYER
 49
-0.5
 62
   256
  6
BYLAYER
  0
ACDBPLACEHOLDER
  5
40D5
102
{ACAD_REACTORS
330
40D4
102
}
330
40D4
100
AcDbPlaceHolder
280
     0
  0
XRECORD
  5
40EB
102
{ACAD_REACTORS
330
40E1
102
}
330
40E1
100
AcDbXrecord
 90
        0
  0
XRECORD
  5
40EC
102
{ACAD_REACTORS
330
40E1
102
}
330
40E1
100
AcDbXrecord
  1
{BC9A46D0-8DB8-11D6-88E6-0090279574E7}
  0
XRECORD
  5
40E4
102
{ACAD_REACTORS
330
40E1
102
}
330
40E1
100
AcDbXrecord
  1

  0
XRECORD
  5
40EA
102
{ACAD_REACTORS
330
40E1
102
}
330
40E1
100
AcDbXrecord
 90
        0
  0
XRECORD
  5
40E6
102
{ACAD_REACTORS
330
40E1
102
}
330
40E1
100
AcDbXrecord
340
40D6
  0
XRECORD
  5
40E9
102
{ACAD_REACTORS
330
40E1
102
}
330
40E1
100
AcDbXrecord
 90
    14877
  0
XRECORD
  5
40E7
102
{ACAD_REACTORS
330
40E1
102
}
330
40E1
100
AcDbXrecord
340
40D7
  0
XRECORD
  5
40E8
102
{ACAD_REACTORS
330
40E1
102
}
330
40E1
100
AcDbXrecord
340
40D4
  0
XRECORD
  5
40EE
102
{ACAD_REACTORS
330
40E1
102
}
330
40E1
100
AcDbXrecord
 40
0.0
  0
XRECORD
  5
40F1
102
{ACAD_REACTORS
330
40E1
102
}
330
40E1
100
AcDbXrecord
340
0
  0
XRECORD
  5
40F7
102
{ACAD_REACTORS
330
40E1
102
}
330
40E1
100
AcDbXrecord
 10
0.0
 20
0.0
 30
0.0
  0
XRECORD
  5
40F3
102
{ACAD_REACTORS
330
40E1
102
}
330
40E1
100
AcDbXrecord
 10
0.0
 20
0.0
 30
0.0
  0
XRECORD
  5
40F6
102
{ACAD_REACTORS
330
40E1
102
}
330
40E1
100
AcDbXrecord
 10
0.0
 20
0.0
 30
0.0
  0
XRECORD
  5
40F4
102
{ACAD_REACTORS
330
40E1
102
}
330
40E1
100
AcDbXrecord
 10
0.0
 20
0.0
 30
0.0
  0
XRECORD
  5
40F5
102
{ACAD_REACTORS
330
40E1
102
}
330
40E1
100
AcDbXrecord
 10
0.0
 20
0.0
 30
0.0
  0
XRECORD
  5
40F2
102
{ACAD_REACTORS
330
40E1
102
}
330
40E1
100
AcDbXrecord
 10
0.0
 20
0.0
 30
0.0
  0
XRECORD
  5
40EF
102
{ACAD_REACTORS
330
40E1
102
}
330
40E1
100
AcDbXrecord
340
0
  0
XRECORD
  5
40F0
102
{ACAD_REACTORS
330
40E1
102
}
330
40E1
100
AcDbXrecord
 70
     0
  0
XRECORD
  5
40E5
102
{ACAD_REACTORS
330
40E1
102
}
330
40E1
100
AcDbXrecord
  1

  0
XRECORD
  5
40E2
102
{ACAD_REACTORS
330
40E1
102
}
330
40E1
100
AcDbXrecord
 90
        1
  0
XRECORD
  5
40E3
102
{ACAD_REACTORS
330
40E1
102
}
330
40E1
100
AcDbXrecord
 90
       70
  0
XRECORD
  5
40FA
102
{ACAD_REACTORS
330
40E1
102
}
330
40E1
100
AcDbXrecord
340
0
  0
XRECORD
  5
4100
102
{ACAD_REACTORS
330
40E1
102
}
330
40E1
100
AcDbXrecord
 10
0.0
 20
0.0
 30
0.0
  0
XRECORD
  5
40FC
102
{ACAD_REACTORS
330
40E1
102
}
330
40E1
100
AcDbXrecord
 10
0.0
 20
0.0
 30
0.0
  0
XRECORD
  5
40FF
102
{ACAD_REACTORS
330
40E1
102
}
330
40E1
100
AcDbXrecord
 10
0.0
 20
0.0
 30
0.0
  0
XRECORD
  5
40FD
102
{ACAD_REACTORS
330
40E1
102
}
330
40E1
100
AcDbXrecord
 10
0.0
 20
0.0
 30
0.0
  0
XRECORD
  5
40FE
102
{ACAD_REACTORS
330
40E1
102
}
330
40E1
100
AcDbXrecord
 10
0.0
 20
0.0
 30
0.0
  0
XRECORD
  5
40FB
102
{ACAD_REACTORS
330
40E1
102
}
330
40E1
100
AcDbXrecord
 10
0.0
 20
0.0
 30
0.0
  0
XRECORD
  5
40F8
102
{ACAD_REACTORS
330
40E1
102
}
330
40E1
100
AcDbXrecord
340
0
  0
XRECORD
  5
40F9
102
{ACAD_REACTORS
330
40E1
102
}
330
40E1
100
AcDbXrecord
 70
     0
  0
XRECORD
  5
40ED
102
{ACAD_REACTORS
330
40E1
102
}
330
40E1
100
AcDbXrecord
  1
{BC9A46D2-8DB8-11D6-88E6-0090279574E7}
  0
DICTIONARYVAR
  5
40DF
102
{ACAD_REACTORS
330
40DE
102
}
330
40DE
100
DictionaryVariables
280
     0
  1
1
  0
ENDSEC
  0
EOF
