  0
SECTION
  2
HEADER
  9
$ACADVER
  1
AC1014
  9
$ACADMAINTVER
 70
     9
  9
$DWGCODEPAGE
  3
ANSI_1252
  9
$INSBASE
 10
6.278634984368551
 20
10.94838484889539
 30
0.0
  9
$EXTMIN
 10
-0.7928697836018842
 20
1.80110892393052
 30
0.0
  9
$EXTMAX
 10
2.692349538145244
 20
3.046903863598593
 30
0.0
  9
$LIMMIN
 10
0.0
 20
0.0
  9
$LIMMAX
 10
12.0
 20
9.0
  9
$ORTHOMODE
 70
     0
  9
$REGENMODE
 70
     1
  9
$FILLMODE
 70
     1
  9
$QTEXTMODE
 70
     0
  9
$MIRRTEXT
 70
     0
  9
$DRAGMODE
 70
     2
  9
$LTSCALE
 40
1.0
  9
$OSMODE
 70
    39
  9
$ATTMODE
 70
     1
  9
$TEXTSIZE
 40
0.125
  9
$TRACEWID
 40
0.05
  9
$TEXTSTYLE
  7
ROMANS
  9
$CLAYER
  8
0
  9
$CELTYPE
  6
BYLAYER
  9
$CECOLOR
 62
   256
  9
$CELTSCALE
 40
1.0
  9
$DELOBJ
 70
     1
  9
$DISPSILH
 70
     1
  9
$DIMSCALE
 40
1.0
  9
$DIMASZ
 40
0.125
  9
$DIMEXO
 40
0.125
  9
$DIMDLI
 40
0.38
  9
$DIMRND
 40
0.0
  9
$DIMDLE
 40
0.0
  9
$DIMEXE
 40
0.125
  9
$DIMTP
 40
0.0
  9
$DIMTM
 40
0.0
  9
$DIMTXT
 40
0.125
  9
$DIMCEN
 40
-0.125
  9
$DIMTSZ
 40
0.0
  9
$DIMTOL
 70
     0
  9
$DIMLIM
 70
     0
  9
$DIMTIH
 70
     1
  9
$DIMTOH
 70
     1
  9
$DIMSE1
 70
     0
  9
$DIMSE2
 70
     0
  9
$DIMTAD
 70
     0
  9
$DIMZIN
 70
     4
  9
$DIMBLK
  1

  9
$DIMASO
 70
     1
  9
$DIMSHO
 70
     1
  9
$DIMPOST
  1

  9
$DIMAPOST
  1

  9
$DIMALT
 70
     0
  9
$DIMALTD
 70
     2
  9
$DIMALTF
 40
25.4
  9
$DIMLFAC
 40
0.25
  9
$DIMTOFL
 70
     0
  9
$DIMTVP
 40
0.0
  9
$DIMTIX
 70
     1
  9
$DIMSOXD
 70
     0
  9
$DIMSAH
 70
     0
  9
$DIMBLK1
  1

  9
$DIMBLK2
  1

  9
$DIMSTYLE
  2
STANDARD
  9
$DIMCLRD
 70
     0
  9
$DIMCLRE
 70
     0
  9
$DIMCLRT
 70
     0
  9
$DIMTFAC
 40
1.0
  9
$DIMGAP
 40
0.09
  9
$DIMJUST
 70
     0
  9
$DIMSD1
 70
     0
  9
$DIMSD2
 70
     0
  9
$DIMTOLJ
 70
     1
  9
$DIMTZIN
 70
     4
  9
$DIMALTZ
 70
     0
  9
$DIMALTTZ
 70
     0
  9
$DIMFIT
 70
     3
  9
$DIMUPT
 70
     0
  9
$DIMUNIT
 70
     2
  9
$DIMDEC
 70
     3
  9
$DIMTDEC
 70
     3
  9
$DIMALTU
 70
     2
  9
$DIMALTTD
 70
     2
  9
$DIMTXSTY
  7
ROMANS
  9
$DIMAUNIT
 70
     0
  9
$LUNITS
 70
     2
  9
$LUPREC
 70
     4
  9
$SKETCHINC
 40
0.1
  9
$FILLETRAD
 40
0.0
  9
$AUNITS
 70
     0
  9
$AUPREC
 70
     0
  9
$MENU
  1
acad
  9
$ELEVATION
 40
0.0
  9
$PELEVATION
 40
0.0
  9
$THICKNESS
 40
0.0
  9
$LIMCHECK
 70
     0
  9
$BLIPMODE
 70
     0
  9
$CHAMFERA
 40
0.02
  9
$CHAMFERB
 40
0.02
  9
$CHAMFERC
 40
0.0
  9
$CHAMFERD
 40
0.0
  9
$SKPOLY
 70
     0
  9
$TDCREATE
 40
2450534.449066562
  9
$TDUPDATE
 40
2452458.318957106
  9
$TDINDWG
 40
2.2131428472
  9
$TDUSRTIMER
 40
2.2131428472
  9
$USRTIMER
 70
     1
  9
$ANGBASE
 50
0.0
  9
$ANGDIR
 70
     0
  9
$PDMODE
 70
     0
  9
$PDSIZE
 40
0.0
  9
$PLINEWID
 40
0.0
  9
$COORDS
 70
     2
  9
$SPLFRAME
 70
     0
  9
$SPLINETYPE
 70
     6
  9
$SPLINESEGS
 70
     8
  9
$ATTDIA
 70
     0
  9
$ATTREQ
 70
     1
  9
$HANDLING
 70
 22529
  9
$HANDSEED
  5
2AB
  9
$SURFTAB1
 70
     6
  9
$SURFTAB2
 70
     6
  9
$SURFTYPE
 70
     6
  9
$SURFU
 70
     6
  9
$SURFV
 70
     6
  9
$UCSNAME
  2

  9
$UCSORG
 10
0.0
 20
0.0
 30
0.0
  9
$UCSXDIR
 10
1.0
 20
0.0
 30
0.0
  9
$UCSYDIR
 10
0.0
 20
1.0
 30
0.0
  9
$PUCSNAME
  2

  9
$PUCSORG
 10
0.0
 20
0.0
 30
0.0
  9
$PUCSXDIR
 10
1.0
 20
0.0
 30
0.0
  9
$PUCSYDIR
 10
0.0
 20
1.0
 30
0.0
  9
$USERI1
 70
     0
  9
$USERI2
 70
     0
  9
$USERI3
 70
     0
  9
$USERI4
 70
     0
  9
$USERI5
 70
     0
  9
$USERR1
 40
0.0
  9
$USERR2
 40
0.0
  9
$USERR3
 40
0.0
  9
$USERR4
 40
0.0
  9
$USERR5
 40
0.0
  9
$WORLDVIEW
 70
     1
  9
$SHADEDGE
 70
     3
  9
$SHADEDIF
 70
    70
  9
$TILEMODE
 70
     1
  9
$MAXACTVP
 70
    16
  9
$PINSBASE
 10
0.0
 20
0.0
 30
0.0
  9
$PLIMCHECK
 70
     0
  9
$PEXTMIN
 10
1.000000000000000E+20
 20
1.000000000000000E+20
 30
1.000000000000000E+20
  9
$PEXTMAX
 10
-1.000000000000000E+20
 20
-1.000000000000000E+20
 30
-1.000000000000000E+20
  9
$PLIMMIN
 10
0.0
 20
0.0
  9
$PLIMMAX
 10
12.0
 20
9.0
  9
$UNITMODE
 70
     0
  9
$VISRETAIN
 70
     0
  9
$PLINEGEN
 70
     1
  9
$PSLTSCALE
 70
     1
  9
$TREEDEPTH
 70
  3020
  9
$PICKSTYLE
 70
     1
  9
$CMLSTYLE
  2
STANDARD
  9
$CMLJUST
 70
     0
  9
$CMLSCALE
 40
1.0
  9
$PROXYGRAPHICS
 70
     1
  9
$MEASUREMENT
 70
     0
  0
ENDSEC
  0
SECTION
  2
CLASSES
  0
CLASS
  1
LWPOLYLINE
  2
AcDbPolyline
  3
AutoCAD 2000
 90
        0
280
     0
281
     1
  0
CLASS
  1
ACDBDICTIONARYWDFLT
  2
AcDbDictionaryWithDefault
  3
AutoCAD 2000
 90
        0
280
     0
281
     0
  0
CLASS
  1
ACDBPLACEHOLDER
  2
AcDbPlaceHolder
  3
AutoCAD 2000
 90
        0
280
     0
281
     0
  0
CLASS
  1
LAYOUT
  2
AcDbLayout
  3
AutoCAD 2000
 90
        0
280
     0
281
     0
  0
CLASS
  1
DICTIONARYVAR
  2
AcDbDictionaryVar
  3
AutoCAD 2000
 90
        0
280
     0
281
     0
  0
CLASS
  1
LONG_TRANSACTION
  2
AcDbLongTransaction
  3
AutoCAD 2000
 90
        0
280
     0
281
     0
  0
CLASS
  1
LWPOLYLINE
  2
AcDbPolyline
  3
AutoCAD 2000
 90
        0
280
     0
281
     1
  0
CLASS
  1
HATCH
  2
AcDbHatch
  3
AutoCAD 2000
 90
        0
280
     0
281
     1
  0
CLASS
  1
XRECORD
  2
AcDbXrecord
  3
AutoCAD 2000
 90
        0
280
     0
281
     0
  0
ENDSEC
  0
SECTION
  2
TABLES
  0
TABLE
  2
VPORT
  5
12
330
0
100
AcDbSymbolTable
 70
     2
  0
VPORT
  5
286
330
12
100
AcDbSymbolTableRecord
100
AcDbViewportTableRecord
  2
*ACTIVE
 70
     0
 10
0.0
 20
0.0
 11
1.0
 21
1.0
 12
3.871595638348471
 22
2.423942281876156
 13
0.0
 23
0.0
 14
1.0
 24
1.0
 15
0.0
 25
0.0
 16
0.0
 26
0.0
 36
1.0
 17
0.0
 27
0.0
 37
0.0
 40
2.163375689722905
 41
4.320930232558139
 42
50.0
 43
0.0
 44
0.0
 50
0.0
 51
0.0
 71
     0
 72
  2000
 73
     1
 74
     1
 75
     0
 76
     0
 77
     0
 78
     0
  0
ENDTAB
  0
TABLE
  2
LTYPE
  5
D
330
0
100
AcDbSymbolTable
 70
     1
  0
LTYPE
  5
E
330
D
100
AcDbSymbolTableRecord
100
AcDbLinetypeTableRecord
  2
BYBLOCK
 70
     0
  3

 72
    65
 73
     0
 40
0.0
  0
LTYPE
  5
F
330
D
100
AcDbSymbolTableRecord
100
AcDbLinetypeTableRecord
  2
BYLAYER
 70
     0
  3

 72
    65
 73
     0
 40
0.0
  0
LTYPE
  5
5
330
D
100
AcDbSymbolTableRecord
100
AcDbLinetypeTableRecord
  2
CONTINUOUS
 70
     0
  3
Solid line
 72
    65
 73
     0
 40
0.0
  0
ENDTAB
  0
TABLE
  2
LAYER
  5
A
330
0
100
AcDbSymbolTable
 70
     2
  0
LAYER
  5
4
330
A
100
AcDbSymbolTableRecord
100
AcDbLayerTableRecord
  2
0
 70
     0
 62
     7
  6
CONTINUOUS
  0
LAYER
  5
25
330
A
100
AcDbSymbolTableRecord
100
AcDbLayerTableRecord
  2
TEXT
 70
     0
 62
     3
  6
CONTINUOUS
  0
ENDTAB
  0
TABLE
  2
STYLE
  5
B
330
0
100
AcDbSymbolTable
 70
     3
  0
STYLE
  5
C
330
B
100
AcDbSymbolTableRecord
100
AcDbTextStyleTableRecord
  2
STANDARD
 70
     0
 40
0.0
 41
1.0
 50
0.0
 71
     0
 42
0.25
  3
txt
  4

  0
STYLE
  5
1C
330
B
100
AcDbSymbolTableRecord
100
AcDbTextStyleTableRecord
  2
ROMANS
 70
     0
 40
0.0
 41
1.0
 50
0.0
 71
     0
 42
0.125
  3
romans.shx
  4

  0
STYLE
  5
174
330
B
100
AcDbSymbolTableRecord
100
AcDbTextStyleTableRecord
  2
ITALICC
 70
     0
 40
0.0
 41
1.0
 50
0.0
 71
     0
 42
0.125
  3
italicc
  4

  0
ENDTAB
  0
TABLE
  2
VIEW
  5
10
330
0
100
AcDbSymbolTable
 70
     0
  0
ENDTAB
  0
TABLE
  2
UCS
  5
11
330
0
100
AcDbSymbolTable
 70
     1
  0
UCS
  5
1F
330
11
100
AcDbSymbolTableRecord
100
AcDbUCSTableRecord
  2
APOL_UCS_SAVE
 70
     0
 10
0.0
 20
0.0
 30
0.0
 11
1.0
 21
0.0
 31
0.0
 12
0.0
 22
1.0
 32
0.0
  0
ENDTAB
  0
TABLE
  2
APPID
  5
14
330
0
100
AcDbSymbolTable
 70
     1
  0
APPID
  5
15
330
14
100
AcDbSymbolTableRecord
100
AcDbRegAppTableRecord
  2
ACAD
 70
     0
  0
ENDTAB
  0
TABLE
  2
DIMSTYLE
  5
16
330
0
100
AcDbSymbolTable
 70
     1
  0
DIMSTYLE
105
1E
330
16
100
AcDbSymbolTableRecord
100
AcDbDimStyleTableRecord
  2
STANDARD
 70
     0
  3

  4

  5

  6

  7

 40
1.0
 41
0.125
 42
0.125
 43
0.38
 44
0.125
 45
0.0
 46
0.0
 47
0.0
 48
0.0
140
0.125
141
-0.125
142
0.0
143
25.4
144
0.25
145
0.0
146
1.0
147
0.09
 71
     0
 72
     0
 73
     1
 74
     1
 75
     0
 76
     0
 77
     0
 78
     4
170
     0
171
     2
172
     0
173
     0
174
     1
175
     0
176
     0
177
     0
178
     0
270
     2
271
     3
272
     3
273
     2
274
     2
340
1C
275
     0
280
     0
281
     0
282
     0
283
     1
284
     4
285
     0
286
     0
287
     3
288
     0
  0
ENDTAB
  0
TABLE
  2
BLOCK_RECORD
  5
1
330
0
100
AcDbSymbolTable
 70
     0
  0
BLOCK_RECORD
  5
2
102
{ACAD_XDICTIONARY
360
2A7
102
}
330
1
100
AcDbSymbolTableRecord
100
AcDbBlockTableRecord
  2
*MODEL_SPACE
  0
BLOCK_RECORD
  5
7
102
{ACAD_XDICTIONARY
360
2A9
102
}
330
1
100
AcDbSymbolTableRecord
100
AcDbBlockTableRecord
  2
*PAPER_SPACE
  0
ENDTAB
  0
ENDSEC
  0
SECTION
  2
BLOCKS
  0
BLOCK
  5
3
330
2
100
AcDbEntity
  8
0
100
AcDbBlockBegin
  2
*MODEL_SPACE
 70
     0
 10
0.0
 20
0.0
 30
0.0
  3
*MODEL_SPACE
  1

  0
ENDBLK
  5
6
330
2
100
AcDbEntity
  8
0
100
AcDbBlockEnd
  0
BLOCK
  5
8
330
7
100
AcDbEntity
 67
     1
  8
0
100
AcDbBlockBegin
  2
*PAPER_SPACE
 70
     0
 10
0.0
 20
0.0
 30
0.0
  3
*PAPER_SPACE
  1

  0
ENDBLK
  5
9
330
7
100
AcDbEntity
 67
     1
  8
0
100
AcDbBlockEnd
  0
ENDSEC
  0
SECTION
  2
ENTITIES
  0
LWPOLYLINE
  5
67
330
2
100
AcDbEntity
  8
0
100
AcDbPolyline
 90
       14
 70
     1
 43
0.0
 10
1.249738342761254
 20
3.046903863598593
 10
1.224738342761234
 20
3.046903863598593
 10
1.204738342761238
 20
3.026903863598597
 10
1.204738342761235
 20
2.731903863598599
 42
-0.4142135623730863
 10
1.14473834276124
 20
2.6719038635986
 42
-0.4142135623731037
 10
1.084738342761234
 20
2.731903863598596
 10
1.084738342761234
 20
3.02690386359859
 10
1.064738342761238
 20
3.046903863598593
 10
0.8497383427612206
 20
3.046903863598593
 10
0.8047383427612189
 20
3.001903863598599
 10
0.8047383427612189
 20
2.581903863598576
 10
1.144738342761236
 20
2.581903863598583
 42
0.4142135623730951
 10
1.294738342761252
 20
2.731903863598596
 10
1.294738342761256
 20
3.001903863598599
  0
TEXT
  5
1F9
330
2
100
AcDbEntity
  8
TEXT
100
AcDbText
 10
0.1971356051490684
 20
2.259127528013102
 30
0.0
 40
0.125
  1
PART #110583
  7
ITALICC
 72
     1
 11
0.9501117956252587
 21
2.259127528013102
 31
0.0
100
AcDbText
  0
LINE
  5
1FA
330
2
100
AcDbEntity
  8
TEXT
100
AcDbLine
 10
0.9178452945773214
 20
2.014773841993268
 30
0.0
 11
0.9944932758698792
 21
2.014773841993268
 31
0.0
  0
LINE
  5
1FB
330
2
100
AcDbEntity
  8
TEXT
100
AcDbLine
 10
0.990013388543379
 20
2.079050536650034
 30
0.0
 11
0.9225136708938626
 21
2.079050536650034
 31
0.0
  0
LWPOLYLINE
  5
1FC
330
2
100
AcDbEntity
  8
TEXT
100
AcDbPolyline
 90
        5
 70
     0
 43
0.0001332181640625
 10
-0.7192667479573536
 20
1.955823734892221
 10
-0.7059449315511049
 20
1.955823734892221
 10
-0.7059449315511049
 20
1.992458730009411
 10
-0.669309936433915
 20
1.992458730009411
 10
-0.669309936433915
 20
2.005780546415658
  0
LWPOLYLINE
  5
1FD
330
2
100
AcDbEntity
  8
TEXT
100
AcDbPolyline
 90
        3
 70
     0
 43
0.0006660908203125
 10
-0.6793012987386056
 20
2.052406903837536
 10
-0.7658931053792304
 20
2.052406903837536
 10
-0.7658931053792304
 20
1.96581509719691
  0
LWPOLYLINE
  5
1FE
330
2
100
AcDbEntity
  8
TEXT
100
AcDbPolyline
 90
        3
 70
     0
 43
0.0006660908203125
 10
-0.6793012987386056
 20
2.079050536650037
 10
-0.7925367381917279
 20
2.079050536650037
 10
-0.7925367381917279
 20
1.96581509719691
  0
LWPOLYLINE
  5
1FF
330
2
100
AcDbEntity
  8
TEXT
100
AcDbPolyline
 90
        5
 70
     0
 43
0.0001332181640625
 10
-0.669309936433915
 20
1.88588419875941
 10
-0.669309936433915
 20
1.899206015165661
 10
-0.7059449315511031
 20
1.899206015165661
 10
-0.7059449315511031
 20
1.935841010282847
 10
-0.7192667479573536
 20
1.935841010282847
  0
LWPOLYLINE
  5
200
330
2
100
AcDbEntity
  8
TEXT
100
AcDbPolyline
 90
        3
 70
     0
 43
0.0006660908203125
 10
-0.7658931053792304
 20
1.925849647978162
 10
-0.7658931053792304
 20
1.839257841337535
 10
-0.6793012987386056
 20
1.839257841337535
  0
LWPOLYLINE
  5
201
330
2
100
AcDbEntity
  8
TEXT
100
AcDbPolyline
 90
        3
 70
     0
 43
0.0006660908203125
 10
-0.7925367381917279
 20
1.925849647978162
 10
-0.7925367381917279
 20
1.812614208525034
 10
-0.6793012987386056
 20
1.812614208525034
  0
LWPOLYLINE
  5
202
330
2
100
AcDbEntity
  8
TEXT
100
AcDbPolyline
 90
        2
 70
     0
 43
0.0001332181640625
 10
-0.7658931053792304
 20
1.925849647978162
 10
-0.7059449315511031
 20
1.935841010282847
  0
LWPOLYLINE
  5
203
330
2
100
AcDbEntity
  8
TEXT
100
AcDbPolyline
 90
        2
 70
     0
 43
0.0001332181640625
 10
-0.7192667479573536
 20
1.935841010282847
 10
-0.7925367381917279
 20
1.925849647978162
  0
LWPOLYLINE
  5
204
330
2
100
AcDbEntity
  8
TEXT
100
AcDbPolyline
 90
        2
 70
     0
 43
0.0006660908203125
 10
-0.7658931053792304
 20
1.925849647978162
 10
-0.7925367381917279
 20
1.925849647978162
  0
LWPOLYLINE
  5
205
330
2
100
AcDbEntity
  8
TEXT
100
AcDbPolyline
 90
        2
 70
     0
 43
0.0001332181640625
 10
-0.7658931053792304
 20
1.839257841337535
 10
-0.7059449315511031
 20
1.899206015165661
  0
LWPOLYLINE
  5
206
330
2
100
AcDbEntity
  8
TEXT
100
AcDbPolyline
 90
        2
 70
     0
 43
0.0006660908203125
 10
-0.7658931053792304
 20
1.96581509719691
 10
-0.7925367381917279
 20
1.96581509719691
  0
LWPOLYLINE
  5
207
330
2
100
AcDbEntity
  8
TEXT
100
AcDbPolyline
 90
        2
 70
     0
 43
0.0001332181640625
 10
-0.7925367381917279
 20
1.96581509719691
 10
-0.7192667479573536
 20
1.955823734892221
  0
LWPOLYLINE
  5
208
330
2
100
AcDbEntity
  8
TEXT
100
AcDbPolyline
 90
        2
 70
     0
 43
0.0001332181640625
 10
-0.7658931053792304
 20
1.96581509719691
 10
-0.7059449315511049
 20
1.955823734892221
  0
LWPOLYLINE
  5
209
330
2
100
AcDbEntity
  8
TEXT
100
AcDbPolyline
 90
        2
 70
     0
 43
0.0001332181640625
 10
-0.7658931053792304
 20
2.052406903837536
 10
-0.7059449315511049
 20
1.992458730009411
  0
LWPOLYLINE
  5
20A
330
2
100
AcDbEntity
  8
TEXT
100
AcDbPolyline
 90
        5
 70
     0
 43
0.0001332181640625
 10
-0.5993704003011043
 20
1.935841010282847
 10
-0.612692216707353
 20
1.935841010282847
 10
-0.612692216707353
 20
1.899206015165661
 10
-0.6493272118245428
 20
1.899206015165661
 10
-0.6493272118245428
 20
1.88588419875941
  0
LWPOLYLINE
  5
20B
330
2
100
AcDbEntity
  8
TEXT
100
AcDbPolyline
 90
        2
 70
     0
 43
0.0001332181640625
 10
-0.5527440428792292
 20
1.925849647978162
 10
-0.612692216707353
 20
1.935841010282847
  0
LWPOLYLINE
  5
20C
330
2
100
AcDbEntity
  8
TEXT
100
AcDbPolyline
 90
        2
 70
     0
 43
0.0001332181640625
 10
-0.5261004100667282
 20
1.925849647978162
 10
-0.5993704003011043
 20
1.935841010282847
  0
LWPOLYLINE
  5
20D
330
2
100
AcDbEntity
  8
TEXT
100
AcDbPolyline
 90
        3
 70
     0
 43
0.0006660908203125
 10
-0.639335849519854
 20
1.812614208525034
 10
-0.5261004100667282
 20
1.812614208525034
 10
-0.5261004100667282
 20
1.925849647978162
  0
LWPOLYLINE
  5
20E
330
2
100
AcDbEntity
  8
TEXT
100
AcDbPolyline
 90
        3
 70
     0
 43
0.0006660908203125
 10
-0.639335849519854
 20
1.839257841337535
 10
-0.5527440428792292
 20
1.839257841337535
 10
-0.5527440428792292
 20
1.925849647978162
  0
LWPOLYLINE
  5
20F
330
2
100
AcDbEntity
  8
TEXT
100
AcDbPolyline
 90
        2
 70
     0
 43
0.0001332181640625
 10
-0.5527440428792292
 20
1.839257841337535
 10
-0.612692216707353
 20
1.899206015165661
  0
LWPOLYLINE
  5
210
330
2
100
AcDbEntity
  8
TEXT
100
AcDbPolyline
 90
        2
 70
     0
 43
0.0006660908203125
 10
-0.639335849519854
 20
1.839257841337535
 10
-0.639335849519854
 20
1.812614208525034
  0
LWPOLYLINE
  5
211
330
2
100
AcDbEntity
  8
TEXT
100
AcDbPolyline
 90
        2
 70
     0
 43
0.0001332181640625
 10
-0.6493272118245428
 20
1.88588419875941
 10
-0.639335849519854
 20
1.812614208525034
  0
LWPOLYLINE
  5
212
330
2
100
AcDbEntity
  8
TEXT
100
AcDbPolyline
 90
        2
 70
     0
 43
0.0001332181640625
 10
-0.639335849519854
 20
1.839257841337535
 10
-0.6493272118245428
 20
1.899206015165661
  0
LWPOLYLINE
  5
213
330
2
100
AcDbEntity
  8
TEXT
100
AcDbPolyline
 90
        2
 70
     0
 43
0.0001332181640625
 10
-0.6793012987386056
 20
1.812614208525034
 10
-0.669309936433915
 20
1.88588419875941
  0
LWPOLYLINE
  5
214
330
2
100
AcDbEntity
  8
TEXT
100
AcDbPolyline
 90
        2
 70
     0
 43
0.0001332181640625
 10
-0.6793012987386056
 20
1.839257841337535
 10
-0.669309936433915
 20
1.899206015165661
  0
LWPOLYLINE
  5
215
330
2
100
AcDbEntity
  8
TEXT
100
AcDbPolyline
 90
        2
 70
     0
 43
0.0006660908203125
 10
-0.6793012987386056
 20
1.839257841337535
 10
-0.6793012987386056
 20
1.812614208525034
  0
LWPOLYLINE
  5
216
330
2
100
AcDbEntity
  8
TEXT
100
AcDbPolyline
 90
        2
 70
     0
 43
0.0006660908203125
 10
-0.5527440428792292
 20
1.925849647978162
 10
-0.5261004100667282
 20
1.925849647978162
  0
LWPOLYLINE
  5
217
330
2
100
AcDbEntity
  8
TEXT
100
AcDbPolyline
 90
        2
 70
     0
 43
0.0001332181640625
 10
-0.5527440428792292
 20
2.052406903837536
 10
-0.612692216707353
 20
1.992458730009411
  0
LWPOLYLINE
  5
218
330
2
100
AcDbEntity
  8
TEXT
100
AcDbPolyline
 90
        2
 70
     0
 43
0.0001332181640625
 10
-0.5527440428792292
 20
1.96581509719691
 10
-0.612692216707353
 20
1.955823734892221
  0
LWPOLYLINE
  5
219
330
2
100
AcDbEntity
  8
TEXT
100
AcDbPolyline
 90
        2
 70
     0
 43
0.0001332181640625
 10
-0.5993704003011043
 20
1.955823734892221
 10
-0.5261004100667282
 20
1.96581509719691
  0
LWPOLYLINE
  5
21A
330
2
100
AcDbEntity
  8
TEXT
100
AcDbPolyline
 90
        3
 70
     0
 43
0.0006660908203125
 10
-0.5527440428792292
 20
1.96581509719691
 10
-0.5527440428792292
 20
2.052406903837536
 10
-0.639335849519854
 20
2.052406903837536
  0
LWPOLYLINE
  5
21B
330
2
100
AcDbEntity
  8
TEXT
100
AcDbPolyline
 90
        3
 70
     0
 43
0.0006660908203125
 10
-0.5261004100667282
 20
1.96581509719691
 10
-0.5261004100667282
 20
2.079050536650037
 10
-0.639335849519854
 20
2.079050536650037
  0
LWPOLYLINE
  5
21C
330
2
100
AcDbEntity
  8
TEXT
100
AcDbPolyline
 90
        2
 70
     0
 43
0.0001332181640625
 10
-0.639335849519854
 20
2.079050536650037
 10
-0.6493272118245428
 20
2.005780546415658
  0
LWPOLYLINE
  5
21D
330
2
100
AcDbEntity
  8
TEXT
100
AcDbPolyline
 90
        2
 70
     0
 43
0.0001332181640625
 10
-0.639335849519854
 20
2.052406903837536
 10
-0.6493272118245428
 20
1.992458730009411
  0
LWPOLYLINE
  5
21E
330
2
100
AcDbEntity
  8
TEXT
100
AcDbPolyline
 90
        2
 70
     0
 43
0.0006660908203125
 10
-0.639335849519854
 20
2.052406903837536
 10
-0.639335849519854
 20
2.079050536650037
  0
LWPOLYLINE
  5
21F
330
2
100
AcDbEntity
  8
TEXT
100
AcDbPolyline
 90
        5
 70
     0
 43
0.0001332181640625
 10
-0.6493272118245428
 20
2.005780546415658
 10
-0.6493272118245428
 20
1.992458730009411
 10
-0.612692216707353
 20
1.992458730009411
 10
-0.612692216707353
 20
1.955823734892221
 10
-0.5993704003011043
 20
1.955823734892221
  0
LWPOLYLINE
  5
220
330
2
100
AcDbEntity
  8
TEXT
100
AcDbPolyline
 90
        2
 70
     0
 43
0.0001332181640625
 10
-0.6793012987386056
 20
2.052406903837536
 10
-0.669309936433915
 20
1.992458730009411
  0
LWPOLYLINE
  5
221
330
2
100
AcDbEntity
  8
TEXT
100
AcDbPolyline
 90
        2
 70
     0
 43
0.0001332181640625
 10
-0.669309936433915
 20
2.005780546415658
 10
-0.6793012987386056
 20
2.079050536650037
  0
LWPOLYLINE
  5
222
330
2
100
AcDbEntity
  8
TEXT
100
AcDbPolyline
 90
        2
 70
     0
 43
0.0006660908203125
 10
-0.6793012987386056
 20
2.052406903837536
 10
-0.6793012987386056
 20
2.079050536650037
  0
LWPOLYLINE
  5
223
330
2
100
AcDbEntity
  8
TEXT
100
AcDbPolyline
 90
        2
 70
     0
 43
0.0006660908203125
 10
-0.5527440428792292
 20
1.96581509719691
 10
-0.5261004100667282
 20
1.96581509719691
  0
LWPOLYLINE
  5
224
330
2
100
AcDbEntity
  8
TEXT
100
AcDbPolyline
 90
        2
 70
     0
 43
0.0
 10
0.1926795106819021
 20
1.864128845876451
 42
0.3318488747599744
 10
0.2617988032472152
 20
1.812577503661523
 42
-6.868794160588311
  0
LINE
  5
225
330
2
100
AcDbEntity
  8
TEXT
100
AcDbLine
 10
0.2606592297510195
 20
2.147062014388844
 30
0.0
 11
0.1938505171846545
 21
2.147062014388844
 31
0.0
  0
LINE
  5
226
330
2
100
AcDbEntity
  8
TEXT
100
AcDbLine
 10
-0.0854918504344395
 20
2.079050536650034
 30
0.0
 11
-0.2612236033329509
 21
2.079050536650034
 31
0.0
  0
ARC
  5
227
330
2
100
AcDbEntity
  8
TEXT
100
AcDbCircle
 10
-0.1903861369744013
 20
1.89577331202208
 30
0.0
 40
0.0831958083605586
100
AcDbArc
 50
270.0
 51
90.0
  0
LINE
  5
228
330
2
100
AcDbEntity
  8
TEXT
100
AcDbLine
 10
-0.2559862732187028
 20
2.014773841993268
 30
0.0
 11
-0.0890806191897324
 21
2.014773841993268
 31
0.0
  0
LINE
  5
229
330
2
100
AcDbEntity
  8
TEXT
100
AcDbLine
 10
-0.1854457630681221
 20
1.880934509994962
 30
0.0
 11
-0.3433110627794562
 21
1.880934509994962
 31
0.0
  0
LINE
  5
22A
330
2
100
AcDbEntity
  8
TEXT
100
AcDbLine
 10
-0.3433110627794544
 20
1.812577503661523
 30
0.0
 11
-0.1903861369744018
 21
1.812577503661523
 31
0.0
  0
ARC
  5
22B
330
2
100
AcDbEntity
  8
TEXT
100
AcDbCircle
 10
-0.2612236033329505
 20
1.996963077203532
 30
0.0
 40
0.0820874594465043
100
AcDbArc
 50
90.0
 51
270.0
  0
LINE
  5
22C
330
2
100
AcDbEntity
  8
TEXT
100
AcDbLine
 10
-0.3433110627794562
 20
1.880934509994962
 30
0.0
 11
-0.3433110627794544
 21
1.812577503661523
 31
0.0
  0
LINE
  5
22D
330
2
100
AcDbEntity
  8
TEXT
100
AcDbLine
 10
-0.2612236033329509
 20
1.914875617757027
 30
0.0
 11
-0.1854457630681221
 21
1.914875617757027
 31
0.0
  0
ARC
  5
22E
330
2
100
AcDbEntity
  8
TEXT
100
AcDbCircle
 10
-0.1854457630681217
 20
1.897905063875996
 30
0.0
 40
0.0169705538810321
100
AcDbArc
 50
270.0
 51
90.0
  0
LINE
  5
22F
330
2
100
AcDbEntity
  8
TEXT
100
AcDbLine
 10
-0.1903861369744018
 20
1.97896912038264
 30
0.0
 11
-0.2559862732187028
 21
1.97896912038264
 31
0.0
  0
ARC
  5
230
330
2
100
AcDbEntity
  8
TEXT
100
AcDbCircle
 10
-0.2559862732187024
 20
1.996871481187956
 30
0.0
 40
0.017902360805315
100
AcDbArc
 50
90.0
 51
270.0
  0
LINE
  5
231
330
2
100
AcDbEntity
  8
TEXT
100
AcDbLine
 10
0.1049800415854127
 20
1.978178540536913
 30
0.0
 11
0.0463497205534749
 21
2.079050536650034
 31
0.0
  0
LINE
  5
232
330
2
100
AcDbEntity
  8
TEXT
100
AcDbLine
 10
-0.0351940117096268
 20
1.812577503661523
 30
0.0
 11
0.0614462393653677
 21
1.812848142759805
 31
0.0
  0
LWPOLYLINE
  5
233
330
2
100
AcDbEntity
  8
TEXT
100
AcDbPolyline
 90
        6
 70
     1
 43
0.0
 10
0.0073297918655233
 20
2.014773841993268
 10
-0.0229868023546849
 20
2.014773841993268
 10
-0.0229868023546849
 20
1.891662843938374
 42
0.407328721240804
 10
-0.0114431511932085
 20
1.879843929261988
 10
0.0491785478515223
 20
1.879843929261988
 10
0.0666438882588403
 20
1.912656158305467
  0
LINE
  5
234
330
2
100
AcDbEntity
  8
TEXT
100
AcDbLine
 10
-0.0890806191897324
 20
2.014773841993268
 30
0.0
 11
-0.0890806191897324
 21
1.872369894999573
 31
0.0
  0
ARC
  5
235
330
2
100
AcDbEntity
  8
TEXT
100
AcDbCircle
 10
-0.0289646012159799
 20
1.872369894999573
 30
0.0
 40
0.0601160179737537
100
AcDbArc
 50
180.0000000000003
 51
264.0521544866073
  0
LINE
  5
236
330
2
100
AcDbEntity
  8
TEXT
100
AcDbLine
 10
-0.0254492455904325
 20
2.113438454244172
 30
0.0
 11
-0.0854918504344395
 21
2.113438454244172
 31
0.0
  0
LINE
  5
237
330
2
100
AcDbEntity
  8
TEXT
100
AcDbLine
 10
-0.0854918504344395
 20
2.113438454244172
 30
0.0
 11
-0.0854918504344395
 21
2.079050536650034
 31
0.0
  0
LINE
  5
238
330
2
100
AcDbEntity
  8
TEXT
100
AcDbLine
 10
-0.0254492455904325
 20
2.079050536650034
 30
0.0
 11
-0.0254492455904325
 21
2.113438454244172
 31
0.0
  0
LINE
  5
239
330
2
100
AcDbEntity
  8
TEXT
100
AcDbLine
 10
0.0463497205534749
 20
2.079050536650034
 30
0.0
 11
-0.0254492455904325
 21
2.079050536650034
 31
0.0
  0
LINE
  5
23A
330
2
100
AcDbEntity
  8
TEXT
100
AcDbLine
 10
0.0953798045884584
 20
1.832536009766536
 30
0.0
 11
0.192679510681903
 21
1.996886220701804
 31
0.0
  0
LINE
  5
23B
330
2
100
AcDbEntity
  8
TEXT
100
AcDbLine
 10
0.192679510681903
 20
1.996886220701804
 30
0.0
 11
0.192679510681903
 21
1.864128845876448
 31
0.0
  0
ARC
  5
23C
330
2
100
AcDbEntity
  8
TEXT
100
AcDbCircle
 10
0.0613362446762449
 20
1.852125225935218
 30
0.0
 40
0.0392772371940762
100
AcDbArc
 50
270.1604552698595
 51
330.0831797321295
  0
LINE
  5
23D
330
2
100
AcDbEntity
  8
TEXT
100
AcDbLine
 10
0.1637286043912782
 20
2.079050536650034
 30
0.0
 11
0.1049800415854127
 21
1.978178540536913
 31
0.0
  0
LINE
  5
23E
330
2
100
AcDbEntity
  8
TEXT
100
AcDbLine
 10
0.1938505171846545
 20
2.147062014388844
 30
0.0
 11
0.1938505171846545
 21
2.079050536650034
 31
0.0
  0
LINE
  5
23F
330
2
100
AcDbEntity
  8
TEXT
100
AcDbLine
 10
0.1938505171846545
 20
2.079050536650034
 30
0.0
 11
0.1637286043912782
 21
2.079050536650034
 31
0.0
  0
LWPOLYLINE
  5
240
330
2
100
AcDbEntity
  8
TEXT
100
AcDbPolyline
 90
        4
 70
     0
 43
0.0
 10
0.5459366388048128
 20
2.007220052827158
 10
0.5459366388048128
 20
1.812577503661523
 10
0.6144149220926707
 20
1.812577503661523
 10
0.6144149220926707
 20
1.856068448611961
 42
-1.714843617202739
  0
LWPOLYLINE
  5
241
330
2
100
AcDbEntity
  8
TEXT
100
AcDbPolyline
 90
        2
 70
     0
 43
0.0
 10
0.5810709893490227
 20
2.079050536650037
 42
-0.3277054968067132
 10
0.6168526800621877
 20
2.050727990880393
 42
6.667889725900311
  0
LWPOLYLINE
  5
242
330
2
100
AcDbEntity
  8
TEXT
100
AcDbPolyline
 90
        2
 70
     0
 43
0.0
 10
0.4096374167697956
 20
2.014773841993268
 42
-0.4142135623731017
 10
0.4171912059359091
 20
2.007220052827158
 42
-0.9999999999999998
  0
LINE
  5
243
330
2
100
AcDbEntity
  8
TEXT
100
AcDbLine
 10
0.426989139819816
 20
2.079050536650034
 30
0.0
 11
0.2929710838886796
 21
2.079050536650034
 31
0.0
  0
LINE
  5
244
330
2
100
AcDbEntity
  8
TEXT
100
AcDbLine
 10
0.3598021369466489
 20
1.812577503661523
 30
0.0
 11
0.3598021369466489
 21
2.014773841993268
 31
0.0
  0
LINE
  5
245
330
2
100
AcDbEntity
  8
TEXT
100
AcDbLine
 10
0.2929710838886796
 20
2.079050536650034
 30
0.0
 11
0.2929710838886796
 21
1.878186329917626
 31
0.0
  0
LINE
  5
246
330
2
100
AcDbEntity
  8
TEXT
100
AcDbLine
 10
0.2606592297510195
 20
1.894965341764522
 30
0.0
 11
0.2606592297510195
 21
2.147062014388844
 31
0.0
  0
LINE
  5
247
330
2
100
AcDbEntity
  8
TEXT
100
AcDbLine
 10
0.2617988032472143
 20
1.812577503661523
 30
0.0
 11
0.3598021369466489
 21
1.812577503661523
 31
0.0
  0
LINE
  5
248
330
2
100
AcDbEntity
  8
TEXT
100
AcDbLine
 10
0.2929710838886796
 20
1.878186329917626
 30
0.0
 11
0.2759774470040783
 21
1.878186329917626
 31
0.0
  0
ARC
  5
249
330
2
100
AcDbEntity
  8
TEXT
100
AcDbCircle
 10
0.2759774470040774
 20
1.893568136161051
 30
0.0
 40
0.0153818062434269
100
AcDbArc
 50
174.7883570302258
 51
270.0
  0
LINE
  5
24A
330
2
100
AcDbEntity
  8
TEXT
100
AcDbLine
 10
0.3598021369466489
 20
2.014773841993268
 30
0.0
 11
0.4096374167697965
 21
2.014773841993268
 31
0.0
  0
LINE
  5
24B
330
2
100
AcDbEntity
  8
TEXT
100
AcDbLine
 10
0.41719120593591
 20
2.007220052827158
 30
0.0
 11
0.41719120593591
 21
1.812577503661523
 31
0.0
  0
LINE
  5
24C
330
2
100
AcDbEntity
  8
TEXT
100
AcDbLine
 10
0.48424925271775
 20
1.812577503661523
 30
0.0
 11
0.48424925271775
 21
2.014773841993268
 31
0.0
  0
LINE
  5
24D
330
2
100
AcDbEntity
  8
TEXT
100
AcDbLine
 10
0.41719120593591
 20
1.812577503661523
 30
0.0
 11
0.48424925271775
 21
1.812577503661523
 31
0.0
  0
LWPOLYLINE
  5
24E
330
2
100
AcDbEntity
  8
TEXT
100
AcDbPolyline
 90
        3
 70
     0
 43
0.0
 10
0.5810709893490227
 20
2.079050536650037
 10
0.4627708305329783
 20
2.079050536650037
 10
0.4627708305329783
 20
2.051883039889141
 42
-1.960274751411753
  0
LINE
  5
24F
330
2
100
AcDbEntity
  8
TEXT
100
AcDbLine
 10
0.48424925271775
 20
2.014773841993268
 30
0.0
 11
0.5383828496387002
 21
2.014773841993268
 31
0.0
  0
LWPOLYLINE
  5
250
330
2
100
AcDbEntity
  8
TEXT
100
AcDbPolyline
 90
        2
 70
     0
 43
0.0
 10
0.4269891398198169
 20
2.079050536650037
 42
-0.3328679258950098
 10
0.4627708305329783
 20
2.051883039889141
 42
6.772930709997214
  0
LWPOLYLINE
  5
251
330
2
100
AcDbEntity
  8
TEXT
100
AcDbPolyline
 90
        2
 70
     0
 43
0.0
 10
0.5383828496386994
 20
2.014773841993268
 42
-0.4142135623731017
 10
0.5459366388048128
 20
2.007220052827158
 42
-0.9999999999999998
  0
ARC
  5
252
330
2
100
AcDbEntity
  8
TEXT
100
AcDbCircle
 10
0.7496576495021792
 20
2.037466969529131
 30
0.0
 40
0.0416329381542859
100
AcDbArc
 50
26.56974201007528
 51
87.20939649401342
  0
LWPOLYLINE
  5
253
330
2
100
AcDbEntity
  8
TEXT
100
AcDbPolyline
 90
        2
 70
     0
 43
0.0
 10
0.6574908549603063
 20
1.812577503661523
 10
0.7915082725916829
 20
1.812577503661523
 42
0.9999999999999998
  0
LWPOLYLINE
  5
254
330
2
100
AcDbEntity
  8
TEXT
100
AcDbPolyline
 90
        4
 70
     1
 43
0.0
 10
0.7713858075217904
 20
1.915541481645548
 10
0.6827254888619319
 20
1.915541481645548
 42
0.9999999999999998
 10
0.6827254888619319
 20
1.873142941141687
 10
0.7713858075217904
 20
1.873142941141687
 42
1.0
  0
LWPOLYLINE
  5
255
330
2
100
AcDbEntity
  8
TEXT
100
AcDbPolyline
 90
        2
 70
     0
 43
0.0
 10
0.6144149220926707
 20
1.856068448611961
 42
0.2901071551932823
 10
0.6574908549603063
 20
1.812577503661523
 42
5.328517124445801
  0
LINE
  5
256
330
2
100
AcDbEntity
  8
TEXT
100
AcDbLine
 10
0.7516845892792477
 20
2.079050536650034
 30
0.0
 11
0.6168526800621886
 21
2.079050536650034
 31
0.0
  0
LINE
  5
257
330
2
100
AcDbEntity
  8
TEXT
100
AcDbLine
 10
0.6761667764555073
 20
1.977498868531136
 30
0.0
 11
0.7584547662388906
 21
1.977498868531136
 31
0.0
  0
LINE
  5
258
330
2
100
AcDbEntity
  8
TEXT
100
AcDbLine
 10
0.7226536909347692
 20
2.014773841993268
 30
0.0
 11
0.6154474175474798
 21
2.014773841993268
 31
0.0
  0
LINE
  5
259
330
2
100
AcDbEntity
  8
TEXT
100
AcDbLine
 10
0.6168526800621886
 20
2.079050536650034
 30
0.0
 11
0.6168526800621886
 21
2.05072799088039
 31
0.0
  0
ARC
  5
25A
330
2
100
AcDbEntity
  8
TEXT
100
AcDbCircle
 10
0.6761667764555064
 20
1.909813287387017
 30
0.0
 40
0.0676855811441166
100
AcDbArc
 50
90.0
 51
153.7768192527749
  0
LINE
  5
25B
330
2
100
AcDbEntity
  8
TEXT
100
AcDbLine
 10
0.6154474175474798
 20
2.014773841993268
 30
0.0
 11
0.6154474175474798
 21
1.939721435919062
 31
0.0
  0
LINE
  5
25C
330
2
100
AcDbEntity
  8
TEXT
100
AcDbLine
 10
0.7584547662388906
 20
1.977498868531136
 30
0.0
 11
0.7481900058253262
 21
1.99874940810383
 31
0.0
  0
ARC
  5
25D
330
2
100
AcDbEntity
  8
TEXT
100
AcDbCircle
 10
0.7226536909347683
 20
1.986414466993271
 30
0.0
 40
0.028359375
100
AcDbArc
 50
25.78218179591245
 51
90.0
  0
LINE
  5
25E
330
2
100
AcDbEntity
  8
TEXT
100
AcDbLine
 10
0.8929394192946622
 20
1.812577503661523
 30
0.0
 11
0.8929394192946569
 21
1.989868009092991
 31
0.0
  0
LWPOLYLINE
  5
25F
330
2
100
AcDbEntity
  8
TEXT
100
AcDbPolyline
 90
        2
 70
     0
 43
0.0
 10
0.8345842054593273
 20
1.812577503661523
 10
0.8929394192946613
 20
1.812577503661523
  0
LWPOLYLINE
  5
260
330
2
100
AcDbEntity
  8
TEXT
100
AcDbPolyline
 90
        2
 70
     0
 43
0.0
 10
0.8345842054593273
 20
1.856068448611961
 42
-0.2901071551932486
 10
0.7915082725916829
 20
1.812577503661523
 42
-5.328517124445184
  0
LWPOLYLINE
  5
261
330
2
100
AcDbEntity
  8
TEXT
100
AcDbPolyline
 90
        2
 70
     0
 43
0.0
 10
0.8345842054593273
 20
1.856068448611961
 10
0.8345842054593273
 20
1.812577503661523
  0
LINE
  5
262
330
2
100
AcDbEntity
  8
TEXT
100
AcDbLine
 10
0.8945414344537896
 20
2.079050536650034
 30
0.0
 11
0.8306445281542886
 21
2.079050536650034
 31
0.0
  0
LINE
  5
263
330
2
100
AcDbEntity
  8
TEXT
100
AcDbLine
 10
0.8306445281542886
 20
2.079050536650034
 30
0.0
 11
0.8306445281542886
 21
1.973838558096606
 31
0.0
  0
LINE
  5
264
330
2
100
AcDbEntity
  8
TEXT
100
AcDbLine
 10
0.8306445281542886
 20
1.973838558096606
 30
0.0
 11
0.7868937569723871
 21
2.056088834092752
 31
0.0
  0
ARC
  5
265
330
2
100
AcDbEntity
  8
TEXT
100
AcDbCircle
 10
0.9178452945773205
 20
1.989867966710606
 30
0.0
 40
0.0249058752826653
100
AcDbArc
 50
89.99971217465335
 51
179.9999999999985
  0
ARC
  5
266
330
2
100
AcDbEntity
  8
TEXT
100
AcDbCircle
 10
0.9257342515168982
 20
2.047804809367769
 30
0.0
 40
0.0314112657011332
100
AcDbArc
 50
95.88484768694724
 51
173.2388340632136
  0
LINE
  5
267
330
2
100
AcDbEntity
  8
TEXT
100
AcDbLine
 10
0.8945414344537896
 20
2.051502886789159
 30
0.0
 11
0.8945414344537896
 21
2.079050536650034
 31
0.0
  0
TEXT
  5
268
330
2
100
AcDbEntity
  8
TEXT
100
AcDbText
 10
1.36341695387558
 20
1.905463312307019
 30
0.0
 40
0.0522247191011236
  1
Minneapolis, MN 55432-0008
 41
1.11444212721585
 72
     5
 11
2.692349538145244
 21
1.905463312307019
 31
0.0
100
AcDbText
  0
TEXT
  5
269
330
2
100
AcDbEntity
  8
TEXT
100
AcDbText
 10
1.36341695387558
 20
1.998721739273311
 30
0.0
 40
0.0522247191011236
  1
6536 Main St. N.E. * P.O. Box 32008
 41
0.8388932496075355
 72
     5
 11
2.692349538145244
 21
1.998721739273311
 31
0.0
100
AcDbText
  0
TEXT
  5
26A
330
2
100
AcDbEntity
  8
TEXT
100
AcDbText
 10
1.36341695387558
 20
2.091980166239603
 30
0.0
 40
0.0522247191011236
  1
Stylmark  Incorporated
 41
1.221428571428571
 72
     5
 11
2.692349538145244
 21
2.091980166239603
 31
0.0
100
AcDbText
  0
TEXT
  5
26B
330
2
100
AcDbEntity
  8
TEXT
100
AcDbText
 10
1.36341695387558
 20
1.812204885340727
 30
0.0
 40
0.0522247191011236
  1
Phone  1-800-328-2495
 41
1.272321428571429
 72
     5
 11
2.692349538145244
 21
1.812204885340727
 31
0.0
100
AcDbText
  0
LINE
  5
26C
330
2
100
AcDbEntity
  8
TEXT
100
AcDbLine
 10
1.115861142412565
 20
1.96915729370906
 30
0.0
 11
1.18041825837827
 21
2.079050536650034
 31
0.0
  0
LINE
  5
26D
330
2
100
AcDbEntity
  8
TEXT
100
AcDbLine
 10
1.18041825837827
 20
2.079050536650034
 30
0.0
 11
1.105426425648643
 21
2.079050536650034
 31
0.0
  0
LINE
  5
26E
330
2
100
AcDbEntity
  8
TEXT
100
AcDbLine
 10
1.134774993399969
 20
1.812577503661523
 30
0.0
 11
1.211353365776175
 21
1.812577503661523
 31
0.0
  0
LINE
  5
26F
330
2
100
AcDbEntity
  8
TEXT
100
AcDbLine
 10
1.211353365776175
 20
1.812577503661523
 30
0.0
 11
1.115861142412565
 21
1.96915729370906
 31
0.0
  0
LINE
  5
270
330
2
100
AcDbEntity
  8
TEXT
100
AcDbLine
 10
1.058871460188504
 20
1.812577503661523
 30
0.0
 11
1.058871460188504
 21
1.944157072137703
 31
0.0
  0
LINE
  5
271
330
2
100
AcDbEntity
  8
TEXT
100
AcDbLine
 10
1.058871460188504
 20
1.944157072137703
 30
0.0
 11
1.134774993399969
 21
1.812577503661523
 31
0.0
  0
LINE
  5
272
330
2
100
AcDbEntity
  8
TEXT
100
AcDbLine
 10
0.9944932758698792
 20
2.014773841993268
 30
0.0
 11
0.9944932758698845
 21
1.812577503661523
 31
0.0
  0
LINE
  5
273
330
2
100
AcDbEntity
  8
TEXT
100
AcDbLine
 10
0.9944932758698845
 20
1.812577503661523
 30
0.0
 11
1.058871460188504
 21
1.812577503661523
 31
0.0
  0
LINE
  5
274
330
2
100
AcDbEntity
  8
TEXT
100
AcDbLine
 10
1.058328267092657
 20
2.144514742417634
 30
0.0
 11
0.9900133885433843
 21
2.144514742417634
 31
0.0
  0
LINE
  5
275
330
2
100
AcDbEntity
  8
TEXT
100
AcDbLine
 10
0.9900133885433843
 20
2.144514742417634
 30
0.0
 11
0.990013388543379
 21
2.079050536650034
 31
0.0
  0
LINE
  5
276
330
2
100
AcDbEntity
  8
TEXT
100
AcDbLine
 10
1.105426425648642
 20
2.079050536650034
 30
0.0
 11
1.058328267092657
 21
2.003185210238496
 31
0.0
  0
LINE
  5
277
330
2
100
AcDbEntity
  8
TEXT
100
AcDbLine
 10
1.058328267092657
 20
2.003185210238496
 30
0.0
 11
1.058328267092657
 21
2.144514742417634
 31
0.0
  0
ENDSEC
  0
SECTION
  2
OBJECTS
  0
DICTIONARY
  5
1A
330
0
100
AcDbDictionary
  3
ACAD_GROUP
350
18
  3
ACAD_LAYOUT
350
27C
  3
ACAD_MLINESTYLE
350
19
  3
ACAD_PLOTSETTINGS
350
27D
  3
ACAD_PLOTSTYLENAME
350
27A
  3
ACDBHEADERROUNDTRIPXREC
350
287
  3
ACDBVARIABLEDICTIONARY
350
284
  0
DICTIONARY
  5
2A7
330
2
100
AcDbDictionary
280
     1
  3
ACAD_LAYOUTSELFREF
360
2A8
  0
DICTIONARY
  5
2A9
330
7
100
AcDbDictionary
280
     1
  3
ACAD_LAYOUTSELFREF
360
2AA
  0
DICTIONARY
  5
18
102
{ACAD_REACTORS
330
1A
102
}
330
1A
100
AcDbDictionary
  0
DICTIONARY
  5
27C
102
{ACAD_REACTORS
330
1A
102
}
330
1A
100
AcDbDictionary
  0
DICTIONARY
  5
19
102
{ACAD_REACTORS
330
1A
102
}
330
1A
100
AcDbDictionary
  3
STANDARD
350
1D
  0
DICTIONARY
  5
27D
102
{ACAD_REACTORS
330
1A
102
}
330
1A
100
AcDbDictionary
  0
ACDBDICTIONARYWDFLT
  5
27A
102
{ACAD_REACTORS
330
1A
102
}
330
1A
100
AcDbDictionary
281
     1
  3
Normal
350
27B
100
AcDbDictionaryWithDefault
340
27B
  0
DICTIONARY
  5
287
102
{ACAD_REACTORS
330
1A
102
}
330
1A
100
AcDbDictionary
  3
CEPSNTYPE
350
291
  3
FINGERPRINTGUID
350
292
  3
HYPERLINKBASE
350
28A
  3
INSUNITS
350
290
  3
LAYOUTDICT
350
28C
  3
LWETCUNION
350
28F
  3
PLOTSETDICT
350
28D
  3
PLOTSTYLNAMDICT
350
28E
  3
PSVPSCALE
350
294
  3
PUCSBASE
350
297
  3
PUCSORGBACK
350
29D
  3
PUCSORGBOTTOM
350
299
  3
PUCSORGFRONT
350
29C
  3
PUCSORGLEFT
350
29A
  3
PUCSORGRIGHT
350
29B
  3
PUCSORGTOP
350
298
  3
PUCSORTHOREF
350
295
  3
PUCSORTHOVIEW
350
296
  3
STYLESHEET
350
28B
  3
TSTACKALIGN
350
288
  3
TSTACKSIZE
350
289
  3
UCSBASE
350
2A0
  3
UCSORGBACK
350
2A6
  3
UCSORGBOTTOM
350
2A2
  3
UCSORGFRONT
350
2A5
  3
UCSORGLEFT
350
2A3
  3
UCSORGRIGHT
350
2A4
  3
UCSORGTOP
350
2A1
  3
UCSORTHOREF
350
29E
  3
UCSORTHOVIEW
350
29F
  3
VERSIONGUID
350
293
  0
DICTIONARY
  5
284
102
{ACAD_REACTORS
330
1A
102
}
330
1A
100
AcDbDictionary
  3
DIMASSOC
350
285
  0
XRECORD
  5
2A8
102
{ACAD_REACTORS
330
2A7
102
}
330
2A7
100
AcDbXrecord
340
2
  0
XRECORD
  5
2AA
102
{ACAD_REACTORS
330
2A9
102
}
330
2A9
100
AcDbXrecord
340
7
  0
MLINESTYLE
  5
1D
102
{ACAD_REACTORS
330
19
102
}
330
19
100
AcDbMlineStyle
  2
STANDARD
 70
     0
  3

 62
     0
 51
90.0
 52
90.0
 71
     2
 49
0.5
 62
   256
  6
BYLAYER
 49
-0.5
 62
   256
  6
BYLAYER
  0
ACDBPLACEHOLDER
  5
27B
102
{ACAD_REACTORS
330
27A
102
}
330
27A
100
AcDbPlaceHolder
280
     0
  0
XRECORD
  5
291
102
{ACAD_REACTORS
330
287
102
}
330
287
100
AcDbXrecord
 90
        0
  0
XRECORD
  5
292
102
{ACAD_REACTORS
330
287
102
}
330
287
100
AcDbXrecord
  1
{B7C488F0-8DB8-11D6-88E6-0090279574E7}
  0
XRECORD
  5
28A
102
{ACAD_REACTORS
330
287
102
}
330
287
100
AcDbXrecord
  1

  0
XRECORD
  5
290
102
{ACAD_REACTORS
330
287
102
}
330
287
100
AcDbXrecord
 90
        0
  0
XRECORD
  5
28C
102
{ACAD_REACTORS
330
287
102
}
330
287
100
AcDbXrecord
340
27C
  0
XRECORD
  5
28F
102
{ACAD_REACTORS
330
287
102
}
330
287
100
AcDbXrecord
 90
    14877
  0
XRECORD
  5
28D
102
{ACAD_REACTORS
330
287
102
}
330
287
100
AcDbXrecord
340
27D
  0
XRECORD
  5
28E
102
{ACAD_REACTORS
330
287
102
}
330
287
100
AcDbXrecord
340
27A
  0
XRECORD
  5
294
102
{ACAD_REACTORS
330
287
102
}
330
287
100
AcDbXrecord
 40
0.0
  0
XRECORD
  5
297
102
{ACAD_REACTORS
330
287
102
}
330
287
100
AcDbXrecord
340
0
  0
XRECORD
  5
29D
102
{ACAD_REACTORS
330
287
102
}
330
287
100
AcDbXrecord
 10
0.0
 20
0.0
 30
0.0
  0
XRECORD
  5
299
102
{ACAD_REACTORS
330
287
102
}
330
287
100
AcDbXrecord
 10
0.0
 20
0.0
 30
0.0
  0
XRECORD
  5
29C
102
{ACAD_REACTORS
330
287
102
}
330
287
100
AcDbXrecord
 10
0.0
 20
0.0
 30
0.0
  0
XRECORD
  5
29A
102
{ACAD_REACTORS
330
287
102
}
330
287
100
AcDbXrecord
 10
0.0
 20
0.0
 30
0.0
  0
XRECORD
  5
29B
102
{ACAD_REACTORS
330
287
102
}
330
287
100
AcDbXrecord
 10
0.0
 20
0.0
 30
0.0
  0
XRECORD
  5
298
102
{ACAD_REACTORS
330
287
102
}
330
287
100
AcDbXrecord
 10
0.0
 20
0.0
 30
0.0
  0
XRECORD
  5
295
102
{ACAD_REACTORS
330
287
102
}
330
287
100
AcDbXrecord
340
0
  0
XRECORD
  5
296
102
{ACAD_REACTORS
330
287
102
}
330
287
100
AcDbXrecord
 70
     0
  0
XRECORD
  5
28B
102
{ACAD_REACTORS
330
287
102
}
330
287
100
AcDbXrecord
  1

  0
XRECORD
  5
288
102
{ACAD_REACTORS
330
287
102
}
330
287
100
AcDbXrecord
 90
        1
  0
XRECORD
  5
289
102
{ACAD_REACTORS
330
287
102
}
330
287
100
AcDbXrecord
 90
       70
  0
XRECORD
  5
2A0
102
{ACAD_REACTORS
330
287
102
}
330
287
100
AcDbXrecord
340
0
  0
XRECORD
  5
2A6
102
{ACAD_REACTORS
330
287
102
}
330
287
100
AcDbXrecord
 10
0.0
 20
0.0
 30
0.0
  0
XRECORD
  5
2A2
102
{ACAD_REACTORS
330
287
102
}
330
287
100
AcDbXrecord
 10
0.0
 20
0.0
 30
0.0
  0
XRECORD
  5
2A5
102
{ACAD_REACTORS
330
287
102
}
330
287
100
AcDbXrecord
 10
0.0
 20
0.0
 30
0.0
  0
XRECORD
  5
2A3
102
{ACAD_REACTORS
330
287
102
}
330
287
100
AcDbXrecord
 10
0.0
 20
0.0
 30
0.0
  0
XRECORD
  5
2A4
102
{ACAD_REACTORS
330
287
102
}
330
287
100
AcDbXrecord
 10
0.0
 20
0.0
 30
0.0
  0
XRECORD
  5
2A1
102
{ACAD_REACTORS
330
287
102
}
330
287
100
AcDbXrecord
 10
0.0
 20
0.0
 30
0.0
  0
XRECORD
  5
29E
102
{ACAD_REACTORS
330
287
102
}
330
287
100
AcDbXrecord
340
0
  0
XRECORD
  5
29F
102
{ACAD_REACTORS
330
287
102
}
330
287
100
AcDbXrecord
 70
     0
  0
XRECORD
  5
293
102
{ACAD_REACTORS
330
287
102
}
330
287
100
AcDbXrecord
  1
{B7C488F2-8DB8-11D6-88E6-0090279574E7}
  0
DICTIONARYVAR
  5
285
102
{ACAD_REACTORS
330
284
102
}
330
284
100
DictionaryVariables
280
     0
  1
1
  0
ENDSEC
  0
EOF
