  0
SECTION
  2
HEADER
  9
$ACADVER
  1
AC1014
  9
$ACADMAINTVER
 70
     9
  9
$DWGCODEPAGE
  3
ANSI_1252
  9
$INSBASE
 10
0.0
 20
11.46675811471707
 30
0.0
  9
$EXTMIN
 10
-1.195632706785329
 20
12.84889389106961
 30
0.0
  9
$EXTMAX
 10
2.289586614961798
 20
15.00289834023645
 30
0.0
  9
$LIMMIN
 10
0.0
 20
0.0
  9
$LIMMAX
 10
12.0
 20
9.0
  9
$ORTHOMODE
 70
     0
  9
$REGENMODE
 70
     1
  9
$FILLMODE
 70
     1
  9
$QTEXTMODE
 70
     0
  9
$MIRRTEXT
 70
     0
  9
$DRAGMODE
 70
     2
  9
$LTSCALE
 40
1.0
  9
$OSMODE
 70
    39
  9
$ATTMODE
 70
     1
  9
$TEXTSIZE
 40
0.125
  9
$TRACEWID
 40
0.05
  9
$TEXTSTYLE
  7
ROMANS
  9
$CLAYER
  8
DIMENSIONS
  9
$CELTYPE
  6
BYLAYER
  9
$CECOLOR
 62
   256
  9
$CELTSCALE
 40
1.0
  9
$DELOBJ
 70
     1
  9
$DISPSILH
 70
     1
  9
$DIMSCALE
 40
1.0
  9
$DIMASZ
 40
0.125
  9
$DIMEXO
 40
0.125
  9
$DIMDLI
 40
0.38
  9
$DIMRND
 40
0.0
  9
$DIMDLE
 40
0.0
  9
$DIMEXE
 40
0.125
  9
$DIMTP
 40
0.0
  9
$DIMTM
 40
0.0
  9
$DIMTXT
 40
0.125
  9
$DIMCEN
 40
-0.125
  9
$DIMTSZ
 40
0.0
  9
$DIMTOL
 70
     0
  9
$DIMLIM
 70
     0
  9
$DIMTIH
 70
     1
  9
$DIMTOH
 70
     1
  9
$DIMSE1
 70
     0
  9
$DIMSE2
 70
     0
  9
$DIMTAD
 70
     0
  9
$DIMZIN
 70
     4
  9
$DIMBLK
  1

  9
$DIMASO
 70
     1
  9
$DIMSHO
 70
     1
  9
$DIMPOST
  1

  9
$DIMAPOST
  1

  9
$DIMALT
 70
     0
  9
$DIMALTD
 70
     2
  9
$DIMALTF
 40
25.4
  9
$DIMLFAC
 40
0.5
  9
$DIMTOFL
 70
     0
  9
$DIMTVP
 40
0.0
  9
$DIMTIX
 70
     0
  9
$DIMSOXD
 70
     0
  9
$DIMSAH
 70
     0
  9
$DIMBLK1
  1

  9
$DIMBLK2
  1

  9
$DIMSTYLE
  2
STANDARD
  9
$DIMCLRD
 70
     0
  9
$DIMCLRE
 70
     0
  9
$DIMCLRT
 70
     0
  9
$DIMTFAC
 40
1.0
  9
$DIMGAP
 40
0.09
  9
$DIMJUST
 70
     0
  9
$DIMSD1
 70
     0
  9
$DIMSD2
 70
     0
  9
$DIMTOLJ
 70
     1
  9
$DIMTZIN
 70
     4
  9
$DIMALTZ
 70
     0
  9
$DIMALTTZ
 70
     0
  9
$DIMFIT
 70
     3
  9
$DIMUPT
 70
     1
  9
$DIMUNIT
 70
     2
  9
$DIMDEC
 70
     3
  9
$DIMTDEC
 70
     3
  9
$DIMALTU
 70
     2
  9
$DIMALTTD
 70
     2
  9
$DIMTXSTY
  7
ROMANS
  9
$DIMAUNIT
 70
     0
  9
$LUNITS
 70
     2
  9
$LUPREC
 70
     3
  9
$SKETCHINC
 40
0.1
  9
$FILLETRAD
 40
0.5
  9
$AUNITS
 70
     0
  9
$AUPREC
 70
     0
  9
$MENU
  1
acad
  9
$ELEVATION
 40
0.0
  9
$PELEVATION
 40
0.0
  9
$THICKNESS
 40
0.0
  9
$LIMCHECK
 70
     0
  9
$BLIPMODE
 70
     0
  9
$CHAMFERA
 40
0.0
  9
$CHAMFERB
 40
0.0
  9
$CHAMFERC
 40
0.0
  9
$CHAMFERD
 40
0.0
  9
$SKPOLY
 70
     0
  9
$TDCREATE
 40
2450655.339456099
  9
$TDUPDATE
 40
2452458.318866817
  9
$TDINDWG
 40
0.7656117361
  9
$TDUSRTIMER
 40
0.7656117361
  9
$USRTIMER
 70
     1
  9
$ANGBASE
 50
0.0
  9
$ANGDIR
 70
     0
  9
$PDMODE
 70
     0
  9
$PDSIZE
 40
0.0
  9
$PLINEWID
 40
0.0
  9
$COORDS
 70
     2
  9
$SPLFRAME
 70
     0
  9
$SPLINETYPE
 70
     6
  9
$SPLINESEGS
 70
     8
  9
$ATTDIA
 70
     0
  9
$ATTREQ
 70
     1
  9
$HANDLING
 70
 22529
  9
$HANDSEED
  5
803
  9
$SURFTAB1
 70
     6
  9
$SURFTAB2
 70
     6
  9
$SURFTYPE
 70
     6
  9
$SURFU
 70
     6
  9
$SURFV
 70
     6
  9
$UCSNAME
  2

  9
$UCSORG
 10
0.0
 20
0.0
 30
0.0
  9
$UCSXDIR
 10
1.0
 20
0.0
 30
0.0
  9
$UCSYDIR
 10
0.0
 20
1.0
 30
0.0
  9
$PUCSNAME
  2

  9
$PUCSORG
 10
0.0
 20
0.0
 30
0.0
  9
$PUCSXDIR
 10
1.0
 20
0.0
 30
0.0
  9
$PUCSYDIR
 10
0.0
 20
1.0
 30
0.0
  9
$USERI1
 70
     0
  9
$USERI2
 70
     0
  9
$USERI3
 70
     0
  9
$USERI4
 70
     0
  9
$USERI5
 70
     0
  9
$USERR1
 40
0.0
  9
$USERR2
 40
0.0
  9
$USERR3
 40
0.0
  9
$USERR4
 40
0.0
  9
$USERR5
 40
0.0
  9
$WORLDVIEW
 70
     1
  9
$SHADEDGE
 70
     3
  9
$SHADEDIF
 70
    70
  9
$TILEMODE
 70
     1
  9
$MAXACTVP
 70
    16
  9
$PINSBASE
 10
0.0
 20
0.0
 30
0.0
  9
$PLIMCHECK
 70
     0
  9
$PEXTMIN
 10
1.000000000000000E+20
 20
1.000000000000000E+20
 30
1.000000000000000E+20
  9
$PEXTMAX
 10
-1.000000000000000E+20
 20
-1.000000000000000E+20
 30
-1.000000000000000E+20
  9
$PLIMMIN
 10
0.0
 20
0.0
  9
$PLIMMAX
 10
12.0
 20
9.0
  9
$UNITMODE
 70
     0
  9
$VISRETAIN
 70
     0
  9
$PLINEGEN
 70
     1
  9
$PSLTSCALE
 70
     1
  9
$TREEDEPTH
 70
  3020
  9
$PICKSTYLE
 70
     1
  9
$CMLSTYLE
  2
STANDARD
  9
$CMLJUST
 70
     0
  9
$CMLSCALE
 40
1.0
  9
$PROXYGRAPHICS
 70
     1
  9
$MEASUREMENT
 70
     0
  0
ENDSEC
  0
SECTION
  2
CLASSES
  0
CLASS
  1
ACMESCOPE
  2
AcMeScope
  3
ACME_MODULE_NAME
 90
        0
280
     0
281
     0
  0
CLASS
  1
ACMECOMMANDHISTORY
  2
AcMeCommandHistory
  3
ACME_MODULE_NAME
 90
        0
280
     0
281
     0
  0
CLASS
  1
AcRfInsAdjusterMgr
  2
AcRfInsAdjusterMgr
  3
ACME_MODULE_NAME
 90
        0
280
     0
281
     0
  0
CLASS
  1
ACGREFMASTER
  2
AcGrefMaster
  3
"AcadRfServer"
 90
        0
280
     0
281
     0
  0
CLASS
  1
AmiMaster
  2
AmiMaster
  3
"AmiServices"
 90
        0
280
     0
281
     0
  0
CLASS
  1
ACASGREFMASTER
  2
AcAsGrefMaster
  3
"AutoSurfResolver"
 90
        0
280
     0
281
     0
  0
CLASS
  1
ADAPPL
  2
AcAdAppl
  3
DesignerServices
 90
        0
280
     0
281
     0
  0
CLASS
  1
DEPMGR
  2
AcAdDepMgr
  3
DesignerServices
 90
        0
280
     0
281
     0
  0
CLASS
  1
PARAMMGR
  2
AcAdParamMgr
  3
DesignerServices
 90
        0
280
     0
281
     0
  0
CLASS
  1
PARAMSCOPE
  2
AcAdParamScope
  3
DesignerServices
 90
        0
280
     0
281
     0
  0
CLASS
  1
"IM_SYSVAR_MAN"
  2
AcImSysVarManager
  3
"ADAM"
 90
        0
280
     0
281
     0
  0
CLASS
  1
SYSTEM_VAR_INT
  2
AcImIntSysVar
  3
"ADAM"
 90
        0
280
     0
281
     0
  0
CLASS
  1
SYSTEM_VAR_REAL
  2
AcImRealSysVar
  3
"ADAM"
 90
        0
280
     0
281
     0
  0
CLASS
  1
SYSTEM_VAR_STR
  2
AcImStrSysVar
  3
"ADAM"
 90
        0
280
     0
281
     0
  0
CLASS
  1
NAMEDAPPL
  2
AcAdNamedAppl
  3
DesignerServices
 90
        0
280
     0
281
     0
  0
CLASS
  1
ADPART
  2
AcAdPart
  3
DesignerServices
 90
        0
280
     0
281
     1
  0
CLASS
  1
ADBASE
  2
AcAdBase
  3
DesignerServices
 90
        0
280
     0
281
     0
  0
CLASS
  1
BODYID
  2
AcAdBodyId
  3
DesignerServices
 90
        0
280
     0
281
     0
  0
CLASS
  1
WORKPLANEDISPLAYMGR
  2
AcAdDisplayMgr
  3
DesignerServices
 90
        0
280
     0
281
     0
  0
CLASS
  1
ADHNTMPLT
  2
AdHoleNoteTemplateMgr
  3
DesignerServices
 90
        0
280
     0
281
     0
  0
CLASS
  1
AM_HNTEMPLATE_MGR_NAME
  2
AdHoleNoteTemplateMgrName
  3
DesignerServices
 90
        0
280
     0
281
     0
  0
CLASS
  1
AcAdGrefModule
  2
AcAdGrefModule
  3
AD_GREF_SERVICES_NSTR
 90
        0
280
     0
281
     0
  0
CLASS
  1
AM_DRAWING_MGR
  2
AcDmDwgMgr
  3
AcMechDwgViewMgmt
 90
        0
280
     0
281
     0
  0
CLASS
  1
AM_DWG_DOCUMENT
  2
AcDmDwgDocument
  3
AcMechDwgViewMgmt
 90
        0
280
     0
281
     0
  0
CLASS
  1
AM_DWG_SHEET
  2
AcDmSheet
  3
AcMechDwgViewMgmt
 90
        0
280
     0
281
     0
  0
CLASS
  1
AM_VIEWDIMPARMAP
  2
AcDmViewDimParMap
  3
AcMechDwgViewMgmt
 90
        0
280
     0
281
     0
  0
CLASS
  1
AM_DWGMGR_NAME
  2
AcDmDwgMgrName
  3
AcMechDwgViewMgmt
 90
        0
280
     0
281
     0
  0
CLASS
  1
ACAMPROJECT
  2
AcAmProject
  3
DesignerAssemblies
 90
        0
280
     0
281
     0
  0
CLASS
  1
ACAMGRCOMPSET
  2
AcAmGrCompSet
  3
DesignerAssemblies
 90
        0
280
     0
281
     0
  0
CLASS
  1
ACAMGRCOMPDEFSET
  2
AcAmGrCompDefSet
  3
DesignerAssemblies
 90
        0
280
     0
281
     0
  0
CLASS
  1
ACAMGRCOMPDEF
  2
AcAmGrCompDef
  3
DesignerAssemblies
 90
        0
280
     0
281
     0
  0
CLASS
  1
ACAMCOMPDEF
  2
AcAmCompDef
  3
DesignerAssemblies
 90
        0
280
     0
281
     0
  0
CLASS
  1
ACAMCOMPDEFMGR
  2
AcAmCompDefMgr
  3
DesignerAssemblies
 90
        0
280
     0
281
     0
  0
CLASS
  1
AMCONTEXTMGR
  2
AcAmContextMgr
  3
DesignerAssemblies
 90
        0
280
     0
281
     0
  0
CLASS
  1
ACAMCONTEXTMODELER
  2
AcAmContextModeler
  3
DesignerAssemblies
 90
        0
280
     0
281
     0
  0
CLASS
  1
ACAMDRAWINGMAN
  2
AcAmDrawingMan
  3
DesignerAssemblies
 90
        0
280
     0
281
     0
  0
CLASS
  1
ACDMVIEWGEOM
  2
AcDmViewGeometry
  3
AcMechDwgViewMgmt
 90
        0
280
     0
281
     1
  0
CLASS
  1
ASSYSVARS
  2
AcAsSysVars
  3
"AutoSurf"
 90
        0
280
     0
281
     0
  0
CLASS
  1
ASSTATICVARS
  2
AcAsStaticVars
  3
"AutoSurf"
 90
        0
280
     0
281
     0
  0
CLASS
  1
ASAPP
  2
AcAsAppObject
  3
"AutoSurf"
 90
        0
280
     0
281
     0
  0
CLASS
  1
AGDICTIONARY
  2
AgDictionary
  3
"AccelView"
 90
        0
280
     0
281
     0
  0
CLASS
  1
ACRFATTGENMGR
  2
AcRfAttGeneralMgr
  3
"AcadRfServer"
 90
        0
280
     0
281
     0
  0
CLASS
  1
LWPOLYLINE
  2
AcDbPolyline
  3
AutoCAD 2000
 90
        0
280
     0
281
     1
  0
CLASS
  1
ACDBDICTIONARYWDFLT
  2
AcDbDictionaryWithDefault
  3
AutoCAD 2000
 90
        0
280
     0
281
     0
  0
CLASS
  1
ACDBPLACEHOLDER
  2
AcDbPlaceHolder
  3
AutoCAD 2000
 90
        0
280
     0
281
     0
  0
CLASS
  1
LAYOUT
  2
AcDbLayout
  3
AutoCAD 2000
 90
        0
280
     0
281
     0
  0
CLASS
  1
DICTIONARYVAR
  2
AcDbDictionaryVar
  3
AutoCAD 2000
 90
        0
280
     0
281
     0
  0
CLASS
  1
LONG_TRANSACTION
  2
AcDbLongTransaction
  3
AutoCAD 2000
 90
        0
280
     0
281
     0
  0
CLASS
  1
LWPOLYLINE
  2
AcDbPolyline
  3
AutoCAD 2000
 90
        0
280
     0
281
     1
  0
CLASS
  1
HATCH
  2
AcDbHatch
  3
AutoCAD 2000
 90
        0
280
     0
281
     1
  0
CLASS
  1
XRECORD
  2
AcDbXrecord
  3
AutoCAD 2000
 90
        0
280
     0
281
     0
  0
ENDSEC
  0
SECTION
  2
TABLES
  0
TABLE
  2
VPORT
  5
12
330
0
100
AcDbSymbolTable
 70
     2
  0
VPORT
  5
7DE
330
12
100
AcDbSymbolTableRecord
100
AcDbViewportTableRecord
  2
*ACTIVE
 70
     0
 10
0.0
 20
0.0
 11
1.0
 21
1.0
 12
3.483953266717539
 22
13.92570421477484
 13
0.0
 23
0.0
 14
1.0
 24
1.0
 15
0.0
 25
0.0
 16
0.0
 26
0.0
 36
1.0
 17
0.0
 27
0.0
 37
0.0
 40
2.174532257703198
 41
4.320930232558139
 42
50.0
 43
0.0
 44
0.0
 50
0.0
 51
0.0
 71
     0
 72
  2000
 73
     1
 74
     1
 75
     0
 76
     0
 77
     0
 78
     0
  0
ENDTAB
  0
TABLE
  2
LTYPE
  5
E
330
0
100
AcDbSymbolTable
 70
     1
  0
LTYPE
  5
F
330
E
100
AcDbSymbolTableRecord
100
AcDbLinetypeTableRecord
  2
BYBLOCK
 70
     0
  3

 72
    65
 73
     0
 40
0.0
  0
LTYPE
  5
6
330
E
100
AcDbSymbolTableRecord
100
AcDbLinetypeTableRecord
  2
BYLAYER
 70
     0
  3

 72
    65
 73
     0
 40
0.0
  0
LTYPE
  5
5
330
E
100
AcDbSymbolTableRecord
100
AcDbLinetypeTableRecord
  2
CONTINUOUS
 70
     0
  3
Solid line
 72
    65
 73
     0
 40
0.0
  0
ENDTAB
  0
TABLE
  2
LAYER
  5
B
330
0
100
AcDbSymbolTable
 70
     3
  0
LAYER
  5
4
330
B
100
AcDbSymbolTableRecord
100
AcDbLayerTableRecord
  2
0
 70
     0
 62
     7
  6
CONTINUOUS
  0
LAYER
  5
30
330
B
100
AcDbSymbolTableRecord
100
AcDbLayerTableRecord
  2
TEXT
 70
     0
 62
     3
  6
CONTINUOUS
  0
LAYER
  5
1B
330
B
100
AcDbSymbolTableRecord
100
AcDbLayerTableRecord
  2
DIMENSIONS
 70
     0
 62
     4
  6
CONTINUOUS
  0
ENDTAB
  0
TABLE
  2
STYLE
  5
C
330
0
100
AcDbSymbolTable
 70
     3
  0
STYLE
  5
D
330
C
100
AcDbSymbolTableRecord
100
AcDbTextStyleTableRecord
  2
STANDARD
 70
     0
 40
0.0
 41
1.0
 50
0.0
 71
     0
 42
0.125
  3
txt
  4

  0
STYLE
  5
1C
330
C
100
AcDbSymbolTableRecord
100
AcDbTextStyleTableRecord
  2
ROMANS
 70
     0
 40
0.0
 41
1.0
 50
0.0
 71
     0
 42
0.125
  3
romans.shx
  4

  0
STYLE
  5
6CC
330
C
100
AcDbSymbolTableRecord
100
AcDbTextStyleTableRecord
  2
ITALICC
 70
     0
 40
0.0
 41
1.0
 50
0.0
 71
     0
 42
0.125
  3
italicc
  4

  0
ENDTAB
  0
TABLE
  2
VIEW
  5
10
330
0
100
AcDbSymbolTable
 70
     0
  0
ENDTAB
  0
TABLE
  2
UCS
  5
11
330
0
100
AcDbSymbolTable
 70
     0
  0
ENDTAB
  0
TABLE
  2
APPID
  5
14
330
0
100
AcDbSymbolTable
 70
     5
  0
APPID
  5
15
330
14
100
AcDbSymbolTableRecord
100
AcDbRegAppTableRecord
  2
ACAD
 70
     0
  0
APPID
  5
2BC
330
14
100
AcDbSymbolTableRecord
100
AcDbRegAppTableRecord
  2
AD_DRAW
 70
     0
  0
APPID
  5
2D6
330
14
100
AcDbSymbolTableRecord
100
AcDbRegAppTableRecord
  2
DESIGNERASSEMBLIES
 70
     0
  0
APPID
  5
2D8
330
14
100
AcDbSymbolTableRecord
100
AcDbRegAppTableRecord
  2
MCAD_NO_VIS
 70
     0
  0
APPID
  5
2DE
330
14
100
AcDbSymbolTableRecord
100
AcDbRegAppTableRecord
  2
ASURF_PCURVE_APPNAME
 70
     0
  0
ENDTAB
  0
TABLE
  2
DIMSTYLE
  5
16
330
0
100
AcDbSymbolTable
 70
     1
  0
DIMSTYLE
105
1E
330
16
100
AcDbSymbolTableRecord
100
AcDbDimStyleTableRecord
  2
STANDARD
 70
     0
  3

  4

  5

  6

  7

 40
1.0
 41
0.125
 42
0.125
 43
0.38
 44
0.125
 45
0.0
 46
0.0
 47
0.0
 48
0.0
140
0.125
141
-0.125
142
0.0
143
25.4
144
0.5
145
0.0
146
1.0
147
0.09
 71
     0
 72
     0
 73
     1
 74
     1
 75
     0
 76
     0
 77
     0
 78
     4
170
     0
171
     2
172
     0
173
     0
174
     0
175
     0
176
     0
177
     0
178
     0
270
     2
271
     3
272
     3
273
     2
274
     2
340
1C
275
     0
280
     0
281
     0
282
     0
283
     1
284
     4
285
     0
286
     0
287
     3
288
     1
  0
ENDTAB
  0
TABLE
  2
BLOCK_RECORD
  5
1
330
0
100
AcDbSymbolTable
 70
     1
  0
BLOCK_RECORD
  5
2
102
{ACAD_XDICTIONARY
360
7FF
102
}
330
1
100
AcDbSymbolTableRecord
100
AcDbBlockTableRecord
  2
*MODEL_SPACE
  0
BLOCK_RECORD
  5
8
102
{ACAD_XDICTIONARY
360
801
102
}
330
1
100
AcDbSymbolTableRecord
100
AcDbBlockTableRecord
  2
*PAPER_SPACE
  0
BLOCK_RECORD
  5
2CA
330
1
100
AcDbSymbolTableRecord
100
AcDbBlockTableRecord
  2
*U0
  0
ENDTAB
  0
ENDSEC
  0
SECTION
  2
BLOCKS
  0
BLOCK
  5
3
330
2
100
AcDbEntity
  8
0
100
AcDbBlockBegin
  2
*MODEL_SPACE
 70
     0
 10
0.0
 20
0.0
 30
0.0
  3
*MODEL_SPACE
  1

  0
ENDBLK
  5
7
330
2
100
AcDbEntity
  8
0
100
AcDbBlockEnd
  0
BLOCK
  5
9
330
8
100
AcDbEntity
 67
     1
  8
0
100
AcDbBlockBegin
  2
*PAPER_SPACE
 70
     0
 10
0.0
 20
0.0
 30
0.0
  3
*PAPER_SPACE
  1

  0
ENDBLK
  5
A
330
8
100
AcDbEntity
 67
     1
  8
0
100
AcDbBlockEnd
  0
BLOCK
  5
2CB
330
2CA
100
AcDbEntity
  8
0
100
AcDbBlockBegin
  2
*U0
 70
     1
 10
0.0
 20
0.0
 30
0.0
  3
*U0
  1

  0
ENDBLK
  5
2CC
330
2CA
100
AcDbEntity
  8
0
100
AcDbBlockEnd
  0
ENDSEC
  0
SECTION
  2
ENTITIES
  0
LWPOLYLINE
  5
AD
330
2
100
AcDbEntity
  8
0
100
AcDbPolyline
 90
        8
 70
     1
 43
0.0
 10
0.3274042391268352
 20
14.48518986525285
 42
0.4142135623730951
 10
0.3474042391268353
 20
14.46518986525285
 10
0.4324042391268357
 20
14.46518986525285
 42
0.4142135623730951
 10
0.4524042391268357
 20
14.48518986525285
 10
0.4524042391268357
 20
14.91418986525285
 42
0.4142135623730951
 10
0.4324042391268357
 20
14.93418986525285
 10
0.3474042391268353
 20
14.93418986525285
 42
0.4142135623730951
 10
0.3274042391268352
 20
14.91418986525285
  0
ACAD_PROXY_ENTITY
  5
29A
330
2
100
AcDbEntity
  8
DIMENSIONS
100
AcDbProxyEntity
 90
      498
 91
      515
 92
        8
310
0800000000000000
 93
       97
310
D28000000020290400007802E6
330
29B
330
29C
330
29D
330
29E
330
29B
 94
        0
  0
LWPOLYLINE
  5
2FF
330
2
100
AcDbEntity
  8
0
100
AcDbPolyline
 90
       26
 70
     0
 43
0.0
 10
0.8898853409754437
 20
14.93418986525285
 42
0.4140905911833054
 10
0.8462271483356262
 20
14.98047443881077
 10
0.294891614069094
 20
14.99668959957427
 42
0.414090307946982
 10
0.2649042391268353
 20
14.9666896022308
 10
0.2649042391268352
 20
13.67268986525285
 42
0.4142135623730982
 10
0.2849042391268353
 20
13.65268986525285
 10
0.3074042391268357
 20
13.65268986525285
 42
0.4142135623730951
 10
0.3274042391268352
 20
13.67268986525285
 10
0.3274042391268352
 20
14.38268986525285
 42
-0.4142135623730983
 10
0.3474042391268353
 20
14.40268986525285
 10
0.7449042391268355
 20
14.40268986525285
 42
-0.4142135623730983
 10
0.7649042391268353
 20
14.38268986525285
 10
0.7649042391268355
 20
13.67268986525285
 42
0.4142135623731439
 10
0.7849042391268386
 20
13.65268986525285
 10
0.8074042391268367
 20
13.65268986525285
 42
0.4142135623730821
 10
0.8274042391268354
 20
13.67268986525285
 10
0.8274042391268354
 20
14.32018986525285
 42
-0.4142135623730983
 10
0.8474042391268355
 20
14.34018986525285
 10
1.389904239126835
 20
14.34018986525285
 10
1.389904239126836
 20
14.43393986525285
 42
0.4142135623730951
 10
1.358654239126836
 20
14.46518986525285
 10
0.5349042391268353
 20
14.46518986525285
 42
-0.4142135623730982
 10
0.5149042391268355
 20
14.48518986525285
 10
0.5149042391268357
 20
14.91418986525285
 42
-0.4142135623730983
 10
0.5349042391268358
 20
14.93418986525285
 10
0.8899042391268356
 20
14.93418986525285
  0
TEXT
  5
751
330
2
100
AcDbEntity
  8
TEXT
100
AcDbText
 10
-0.2056273180343769
 20
13.30691249515219
 30
0.0
 40
0.125
  1
PART #110582
  7
ITALICC
 72
     1
 11
0.5473488724418134
 21
13.30691249515219
 31
0.0
100
AcDbText
  0
LINE
  5
752
330
2
100
AcDbEntity
  8
TEXT
100
AcDbLine
 10
0.5150823713938762
 20
13.06255880913236
 30
0.0
 11
0.591730352686434
 21
13.06255880913236
 31
0.0
  0
LINE
  5
753
330
2
100
AcDbEntity
  8
TEXT
100
AcDbLine
 10
0.5872504653599338
 20
13.12683550378912
 30
0.0
 11
0.5197507477104173
 21
13.12683550378912
 31
0.0
  0
LWPOLYLINE
  5
754
330
2
100
AcDbEntity
  8
TEXT
100
AcDbPolyline
 90
        5
 70
     0
 43
0.0001332181640625
 10
-1.122029671140798
 20
13.00360870203131
 10
-1.10870785473455
 20
13.00360870203131
 10
-1.10870785473455
 20
13.0402436971485
 10
-1.07207285961736
 20
13.0402436971485
 10
-1.07207285961736
 20
13.05356551355475
  0
LWPOLYLINE
  5
755
330
2
100
AcDbEntity
  8
TEXT
100
AcDbPolyline
 90
        3
 70
     0
 43
0.0006660908203125
 10
-1.08206422192205
 20
13.10019187097663
 10
-1.168656028562675
 20
13.10019187097663
 10
-1.168656028562675
 20
13.013600064336
  0
LWPOLYLINE
  5
756
330
2
100
AcDbEntity
  8
TEXT
100
AcDbPolyline
 90
        3
 70
     0
 43
0.0006660908203125
 10
-1.08206422192205
 20
13.12683550378913
 10
-1.195299661375173
 20
13.12683550378913
 10
-1.195299661375173
 20
13.013600064336
  0
LWPOLYLINE
  5
757
330
2
100
AcDbEntity
  8
TEXT
100
AcDbPolyline
 90
        5
 70
     0
 43
0.0001332181640625
 10
-1.07207285961736
 20
12.9336691658985
 10
-1.07207285961736
 20
12.94699098230475
 10
-1.108707854734548
 20
12.94699098230475
 10
-1.108707854734548
 20
12.98362597742194
 10
-1.122029671140798
 20
12.98362597742194
  0
LWPOLYLINE
  5
758
330
2
100
AcDbEntity
  8
TEXT
100
AcDbPolyline
 90
        3
 70
     0
 43
0.0006660908203125
 10
-1.168656028562675
 20
12.97363461511725
 10
-1.168656028562675
 20
12.88704280847662
 10
-1.08206422192205
 20
12.88704280847662
  0
LWPOLYLINE
  5
759
330
2
100
AcDbEntity
  8
TEXT
100
AcDbPolyline
 90
        3
 70
     0
 43
0.0006660908203125
 10
-1.195299661375173
 20
12.97363461511725
 10
-1.195299661375173
 20
12.86039917566412
 10
-1.08206422192205
 20
12.86039917566412
  0
LWPOLYLINE
  5
75A
330
2
100
AcDbEntity
  8
TEXT
100
AcDbPolyline
 90
        2
 70
     0
 43
0.0001332181640625
 10
-1.168656028562675
 20
12.97363461511725
 10
-1.108707854734548
 20
12.98362597742194
  0
LWPOLYLINE
  5
75B
330
2
100
AcDbEntity
  8
TEXT
100
AcDbPolyline
 90
        2
 70
     0
 43
0.0001332181640625
 10
-1.122029671140798
 20
12.98362597742194
 10
-1.195299661375173
 20
12.97363461511725
  0
LWPOLYLINE
  5
75C
330
2
100
AcDbEntity
  8
TEXT
100
AcDbPolyline
 90
        2
 70
     0
 43
0.0006660908203125
 10
-1.168656028562675
 20
12.97363461511725
 10
-1.195299661375173
 20
12.97363461511725
  0
LWPOLYLINE
  5
75D
330
2
100
AcDbEntity
  8
TEXT
100
AcDbPolyline
 90
        2
 70
     0
 43
0.0001332181640625
 10
-1.168656028562675
 20
12.88704280847662
 10
-1.108707854734548
 20
12.94699098230475
  0
LWPOLYLINE
  5
75E
330
2
100
AcDbEntity
  8
TEXT
100
AcDbPolyline
 90
        2
 70
     0
 43
0.0006660908203125
 10
-1.168656028562675
 20
13.013600064336
 10
-1.195299661375173
 20
13.013600064336
  0
LWPOLYLINE
  5
75F
330
2
100
AcDbEntity
  8
TEXT
100
AcDbPolyline
 90
        2
 70
     0
 43
0.0001332181640625
 10
-1.195299661375173
 20
13.013600064336
 10
-1.122029671140798
 20
13.00360870203131
  0
LWPOLYLINE
  5
760
330
2
100
AcDbEntity
  8
TEXT
100
AcDbPolyline
 90
        2
 70
     0
 43
0.0001332181640625
 10
-1.168656028562675
 20
13.013600064336
 10
-1.10870785473455
 20
13.00360870203131
  0
LWPOLYLINE
  5
761
330
2
100
AcDbEntity
  8
TEXT
100
AcDbPolyline
 90
        2
 70
     0
 43
0.0001332181640625
 10
-1.168656028562675
 20
13.10019187097663
 10
-1.10870785473455
 20
13.0402436971485
  0
LWPOLYLINE
  5
762
330
2
100
AcDbEntity
  8
TEXT
100
AcDbPolyline
 90
        5
 70
     0
 43
0.0001332181640625
 10
-1.002133323484549
 20
12.98362597742194
 10
-1.015455139890798
 20
12.98362597742194
 10
-1.015455139890798
 20
12.94699098230475
 10
-1.052090135007988
 20
12.94699098230475
 10
-1.052090135007988
 20
12.9336691658985
  0
LWPOLYLINE
  5
763
330
2
100
AcDbEntity
  8
TEXT
100
AcDbPolyline
 90
        2
 70
     0
 43
0.0001332181640625
 10
-0.9555069660626745
 20
12.97363461511725
 10
-1.015455139890798
 20
12.98362597742194
  0
LWPOLYLINE
  5
764
330
2
100
AcDbEntity
  8
TEXT
100
AcDbPolyline
 90
        2
 70
     0
 43
0.0001332181640625
 10
-0.9288633332501735
 20
12.97363461511725
 10
-1.002133323484549
 20
12.98362597742194
  0
LWPOLYLINE
  5
765
330
2
100
AcDbEntity
  8
TEXT
100
AcDbPolyline
 90
        3
 70
     0
 43
0.0006660908203125
 10
-1.042098772703299
 20
12.86039917566412
 10
-0.9288633332501735
 20
12.86039917566412
 10
-0.9288633332501735
 20
12.97363461511725
  0
LWPOLYLINE
  5
766
330
2
100
AcDbEntity
  8
TEXT
100
AcDbPolyline
 90
        3
 70
     0
 43
0.0006660908203125
 10
-1.042098772703299
 20
12.88704280847662
 10
-0.9555069660626745
 20
12.88704280847662
 10
-0.9555069660626745
 20
12.97363461511725
  0
LWPOLYLINE
  5
767
330
2
100
AcDbEntity
  8
TEXT
100
AcDbPolyline
 90
        2
 70
     0
 43
0.0001332181640625
 10
-0.9555069660626745
 20
12.88704280847662
 10
-1.015455139890798
 20
12.94699098230475
  0
LWPOLYLINE
  5
768
330
2
100
AcDbEntity
  8
TEXT
100
AcDbPolyline
 90
        2
 70
     0
 43
0.0006660908203125
 10
-1.042098772703299
 20
12.88704280847662
 10
-1.042098772703299
 20
12.86039917566412
  0
LWPOLYLINE
  5
769
330
2
100
AcDbEntity
  8
TEXT
100
AcDbPolyline
 90
        2
 70
     0
 43
0.0001332181640625
 10
-1.052090135007988
 20
12.9336691658985
 10
-1.042098772703299
 20
12.86039917566412
  0
LWPOLYLINE
  5
76A
330
2
100
AcDbEntity
  8
TEXT
100
AcDbPolyline
 90
        2
 70
     0
 43
0.0001332181640625
 10
-1.042098772703299
 20
12.88704280847662
 10
-1.052090135007988
 20
12.94699098230475
  0
LWPOLYLINE
  5
76B
330
2
100
AcDbEntity
  8
TEXT
100
AcDbPolyline
 90
        2
 70
     0
 43
0.0001332181640625
 10
-1.08206422192205
 20
12.86039917566412
 10
-1.07207285961736
 20
12.9336691658985
  0
LWPOLYLINE
  5
76C
330
2
100
AcDbEntity
  8
TEXT
100
AcDbPolyline
 90
        2
 70
     0
 43
0.0001332181640625
 10
-1.08206422192205
 20
12.88704280847662
 10
-1.07207285961736
 20
12.94699098230475
  0
LWPOLYLINE
  5
76D
330
2
100
AcDbEntity
  8
TEXT
100
AcDbPolyline
 90
        2
 70
     0
 43
0.0006660908203125
 10
-1.08206422192205
 20
12.88704280847662
 10
-1.08206422192205
 20
12.86039917566412
  0
LWPOLYLINE
  5
76E
330
2
100
AcDbEntity
  8
TEXT
100
AcDbPolyline
 90
        2
 70
     0
 43
0.0006660908203125
 10
-0.9555069660626745
 20
12.97363461511725
 10
-0.9288633332501735
 20
12.97363461511725
  0
LWPOLYLINE
  5
76F
330
2
100
AcDbEntity
  8
TEXT
100
AcDbPolyline
 90
        2
 70
     0
 43
0.0001332181640625
 10
-0.9555069660626745
 20
13.10019187097663
 10
-1.015455139890798
 20
13.0402436971485
  0
LWPOLYLINE
  5
770
330
2
100
AcDbEntity
  8
TEXT
100
AcDbPolyline
 90
        2
 70
     0
 43
0.0001332181640625
 10
-0.9555069660626745
 20
13.013600064336
 10
-1.015455139890798
 20
13.00360870203131
  0
LWPOLYLINE
  5
771
330
2
100
AcDbEntity
  8
TEXT
100
AcDbPolyline
 90
        2
 70
     0
 43
0.0001332181640625
 10
-1.002133323484549
 20
13.00360870203131
 10
-0.9288633332501735
 20
13.013600064336
  0
LWPOLYLINE
  5
772
330
2
100
AcDbEntity
  8
TEXT
100
AcDbPolyline
 90
        3
 70
     0
 43
0.0006660908203125
 10
-0.9555069660626745
 20
13.013600064336
 10
-0.9555069660626745
 20
13.10019187097663
 10
-1.042098772703299
 20
13.10019187097663
  0
LWPOLYLINE
  5
773
330
2
100
AcDbEntity
  8
TEXT
100
AcDbPolyline
 90
        3
 70
     0
 43
0.0006660908203125
 10
-0.9288633332501735
 20
13.013600064336
 10
-0.9288633332501735
 20
13.12683550378913
 10
-1.042098772703299
 20
13.12683550378913
  0
LWPOLYLINE
  5
774
330
2
100
AcDbEntity
  8
TEXT
100
AcDbPolyline
 90
        2
 70
     0
 43
0.0001332181640625
 10
-1.042098772703299
 20
13.12683550378913
 10
-1.052090135007988
 20
13.05356551355475
  0
LWPOLYLINE
  5
775
330
2
100
AcDbEntity
  8
TEXT
100
AcDbPolyline
 90
        2
 70
     0
 43
0.0001332181640625
 10
-1.042098772703299
 20
13.10019187097663
 10
-1.052090135007988
 20
13.0402436971485
  0
LWPOLYLINE
  5
776
330
2
100
AcDbEntity
  8
TEXT
100
AcDbPolyline
 90
        2
 70
     0
 43
0.0006660908203125
 10
-1.042098772703299
 20
13.10019187097663
 10
-1.042098772703299
 20
13.12683550378913
  0
LWPOLYLINE
  5
777
330
2
100
AcDbEntity
  8
TEXT
100
AcDbPolyline
 90
        5
 70
     0
 43
0.0001332181640625
 10
-1.052090135007988
 20
13.05356551355475
 10
-1.052090135007988
 20
13.0402436971485
 10
-1.015455139890798
 20
13.0402436971485
 10
-1.015455139890798
 20
13.00360870203131
 10
-1.002133323484549
 20
13.00360870203131
  0
LWPOLYLINE
  5
778
330
2
100
AcDbEntity
  8
TEXT
100
AcDbPolyline
 90
        2
 70
     0
 43
0.0001332181640625
 10
-1.08206422192205
 20
13.10019187097663
 10
-1.07207285961736
 20
13.0402436971485
  0
LWPOLYLINE
  5
779
330
2
100
AcDbEntity
  8
TEXT
100
AcDbPolyline
 90
        2
 70
     0
 43
0.0001332181640625
 10
-1.07207285961736
 20
13.05356551355475
 10
-1.08206422192205
 20
13.12683550378913
  0
LWPOLYLINE
  5
77A
330
2
100
AcDbEntity
  8
TEXT
100
AcDbPolyline
 90
        2
 70
     0
 43
0.0006660908203125
 10
-1.08206422192205
 20
13.10019187097663
 10
-1.08206422192205
 20
13.12683550378913
  0
LWPOLYLINE
  5
77B
330
2
100
AcDbEntity
  8
TEXT
100
AcDbPolyline
 90
        2
 70
     0
 43
0.0006660908203125
 10
-0.9555069660626745
 20
13.013600064336
 10
-0.9288633332501735
 20
13.013600064336
  0
LWPOLYLINE
  5
77C
330
2
100
AcDbEntity
  8
TEXT
100
AcDbPolyline
 90
        2
 70
     0
 43
0.0
 10
-0.2100834125015432
 20
12.91191381301554
 42
0.3318488747599744
 10
-0.1409641199362301
 20
12.86036247080061
 42
-6.868794160588311
  0
LINE
  5
77D
330
2
100
AcDbEntity
  8
TEXT
100
AcDbLine
 10
-0.1421036934324258
 20
13.19484698152793
 30
0.0
 11
-0.2089124059987908
 21
13.19484698152793
 31
0.0
  0
LINE
  5
77E
330
2
100
AcDbEntity
  8
TEXT
100
AcDbLine
 10
-0.4882547736178849
 20
13.12683550378912
 30
0.0
 11
-0.6639865265163963
 21
13.12683550378912
 31
0.0
  0
ARC
  5
77F
330
2
100
AcDbEntity
  8
TEXT
100
AcDbCircle
 10
-0.5931490601578467
 20
12.94355827916117
 30
0.0
 40
0.0831958083605586
100
AcDbArc
 50
270.0
 51
90.0
  0
LINE
  5
780
330
2
100
AcDbEntity
  8
TEXT
100
AcDbLine
 10
-0.6587491964021482
 20
13.06255880913236
 30
0.0
 11
-0.4918435423731778
 21
13.06255880913236
 31
0.0
  0
LINE
  5
781
330
2
100
AcDbEntity
  8
TEXT
100
AcDbLine
 10
-0.5882086862515675
 20
12.92871947713405
 30
0.0
 11
-0.7460739859629016
 21
12.92871947713405
 31
0.0
  0
LINE
  5
782
330
2
100
AcDbEntity
  8
TEXT
100
AcDbLine
 10
-0.7460739859628998
 20
12.86036247080061
 30
0.0
 11
-0.5931490601578471
 21
12.86036247080061
 31
0.0
  0
ARC
  5
783
330
2
100
AcDbEntity
  8
TEXT
100
AcDbCircle
 10
-0.6639865265163958
 20
13.04474804434262
 30
0.0
 40
0.0820874594465043
100
AcDbArc
 50
90.0
 51
270.0
  0
LINE
  5
784
330
2
100
AcDbEntity
  8
TEXT
100
AcDbLine
 10
-0.7460739859629016
 20
12.92871947713405
 30
0.0
 11
-0.7460739859628998
 21
12.86036247080061
 31
0.0
  0
LINE
  5
785
330
2
100
AcDbEntity
  8
TEXT
100
AcDbLine
 10
-0.6639865265163963
 20
12.96266058489612
 30
0.0
 11
-0.5882086862515675
 21
12.96266058489612
 31
0.0
  0
ARC
  5
786
330
2
100
AcDbEntity
  8
TEXT
100
AcDbCircle
 10
-0.588208686251567
 20
12.94569003101509
 30
0.0
 40
0.0169705538810321
100
AcDbArc
 50
270.0
 51
90.0
  0
LINE
  5
787
330
2
100
AcDbEntity
  8
TEXT
100
AcDbLine
 10
-0.5931490601578471
 20
13.02675408752173
 30
0.0
 11
-0.6587491964021482
 21
13.02675408752173
 31
0.0
  0
ARC
  5
788
330
2
100
AcDbEntity
  8
TEXT
100
AcDbCircle
 10
-0.6587491964021477
 20
13.04465644832704
 30
0.0
 40
0.017902360805315
100
AcDbArc
 50
90.0
 51
270.0
  0
LINE
  5
789
330
2
100
AcDbEntity
  8
TEXT
100
AcDbLine
 10
-0.2977828815980326
 20
13.025963507676
 30
0.0
 11
-0.3564132026299704
 21
13.12683550378912
 31
0.0
  0
LINE
  5
78A
330
2
100
AcDbEntity
  8
TEXT
100
AcDbLine
 10
-0.4379569348930721
 20
12.86036247080061
 30
0.0
 11
-0.3413166838180777
 21
12.8606331098989
 31
0.0
  0
LWPOLYLINE
  5
78B
330
2
100
AcDbEntity
  8
TEXT
100
AcDbPolyline
 90
        6
 70
     1
 43
0.0
 10
-0.395433131317922
 20
13.06255880913236
 10
-0.4257497255381302
 20
13.06255880913236
 10
-0.4257497255381302
 20
12.93944781107746
 42
0.407328721240804
 10
-0.4142060743766538
 20
12.92762889640108
 10
-0.353584375331923
 20
12.92762889640108
 10
-0.336119034924605
 20
12.96044112544456
  0
LINE
  5
78C
330
2
100
AcDbEntity
  8
TEXT
100
AcDbLine
 10
-0.4918435423731778
 20
13.06255880913236
 30
0.0
 11
-0.4918435423731778
 21
12.92015486213866
 31
0.0
  0
ARC
  5
78D
330
2
100
AcDbEntity
  8
TEXT
100
AcDbCircle
 10
-0.4317275243994252
 20
12.92015486213866
 30
0.0
 40
0.0601160179737537
100
AcDbArc
 50
180.0000000000003
 51
264.0521544866073
  0
LINE
  5
78E
330
2
100
AcDbEntity
  8
TEXT
100
AcDbLine
 10
-0.4282121687738778
 20
13.16122342138326
 30
0.0
 11
-0.4882547736178849
 21
13.16122342138326
 31
0.0
  0
LINE
  5
78F
330
2
100
AcDbEntity
  8
TEXT
100
AcDbLine
 10
-0.4882547736178849
 20
13.16122342138326
 30
0.0
 11
-0.4882547736178849
 21
13.12683550378912
 31
0.0
  0
LINE
  5
790
330
2
100
AcDbEntity
  8
TEXT
100
AcDbLine
 10
-0.4282121687738778
 20
13.12683550378912
 30
0.0
 11
-0.4282121687738778
 21
13.16122342138326
 31
0.0
  0
LINE
  5
791
330
2
100
AcDbEntity
  8
TEXT
100
AcDbLine
 10
-0.3564132026299704
 20
13.12683550378912
 30
0.0
 11
-0.4282121687738778
 21
13.12683550378912
 31
0.0
  0
LINE
  5
792
330
2
100
AcDbEntity
  8
TEXT
100
AcDbLine
 10
-0.3073831185949869
 20
12.88032097690563
 30
0.0
 11
-0.2100834125015423
 21
13.04467118784089
 31
0.0
  0
LINE
  5
793
330
2
100
AcDbEntity
  8
TEXT
100
AcDbLine
 10
-0.2100834125015423
 20
13.04467118784089
 30
0.0
 11
-0.2100834125015423
 21
12.91191381301554
 31
0.0
  0
ARC
  5
794
330
2
100
AcDbEntity
  8
TEXT
100
AcDbCircle
 10
-0.3414266785072004
 20
12.89991019307431
 30
0.0
 40
0.0392772371940762
100
AcDbArc
 50
270.1604552698595
 51
330.0831797321295
  0
LINE
  5
795
330
2
100
AcDbEntity
  8
TEXT
100
AcDbLine
 10
-0.2390343187921671
 20
13.12683550378912
 30
0.0
 11
-0.2977828815980326
 21
13.025963507676
 31
0.0
  0
LINE
  5
796
330
2
100
AcDbEntity
  8
TEXT
100
AcDbLine
 10
-0.2089124059987908
 20
13.19484698152793
 30
0.0
 11
-0.2089124059987908
 21
13.12683550378912
 31
0.0
  0
LINE
  5
797
330
2
100
AcDbEntity
  8
TEXT
100
AcDbLine
 10
-0.2089124059987908
 20
13.12683550378912
 30
0.0
 11
-0.2390343187921671
 21
13.12683550378912
 31
0.0
  0
LWPOLYLINE
  5
798
330
2
100
AcDbEntity
  8
TEXT
100
AcDbPolyline
 90
        4
 70
     0
 43
0.0
 10
0.1431737156213675
 20
13.05500501996625
 10
0.1431737156213675
 20
12.86036247080061
 10
0.2116519989092254
 20
12.86036247080061
 10
0.2116519989092254
 20
12.90385341575105
 42
-1.714843617202739
  0
LWPOLYLINE
  5
799
330
2
100
AcDbEntity
  8
TEXT
100
AcDbPolyline
 90
        2
 70
     0
 43
0.0
 10
0.1783080661655774
 20
13.12683550378913
 42
-0.3277054968067132
 10
0.2140897568787423
 20
13.09851295801948
 42
6.667889725900311
  0
LWPOLYLINE
  5
79A
330
2
100
AcDbEntity
  8
TEXT
100
AcDbPolyline
 90
        2
 70
     0
 43
0.0
 10
0.0068744935863503
 20
13.06255880913236
 42
-0.4142135623731017
 10
0.0144282827524638
 20
13.05500501996625
 42
-0.9999999999999998
  0
LINE
  5
79B
330
2
100
AcDbEntity
  8
TEXT
100
AcDbLine
 10
0.0242262166363707
 20
13.12683550378912
 30
0.0
 11
-0.1097918392947657
 21
13.12683550378912
 31
0.0
  0
LINE
  5
79C
330
2
100
AcDbEntity
  8
TEXT
100
AcDbLine
 10
-0.0429607862367965
 20
12.86036247080061
 30
0.0
 11
-0.0429607862367965
 21
13.06255880913236
 31
0.0
  0
LINE
  5
79D
330
2
100
AcDbEntity
  8
TEXT
100
AcDbLine
 10
-0.1097918392947657
 20
13.12683550378912
 30
0.0
 11
-0.1097918392947657
 21
12.92597129705671
 31
0.0
  0
LINE
  5
79E
330
2
100
AcDbEntity
  8
TEXT
100
AcDbLine
 10
-0.1421036934324258
 20
12.94275030890361
 30
0.0
 11
-0.1421036934324258
 21
13.19484698152793
 31
0.0
  0
LINE
  5
79F
330
2
100
AcDbEntity
  8
TEXT
100
AcDbLine
 10
-0.140964119936231
 20
12.86036247080061
 30
0.0
 11
-0.0429607862367965
 21
12.86036247080061
 31
0.0
  0
LINE
  5
7A0
330
2
100
AcDbEntity
  8
TEXT
100
AcDbLine
 10
-0.1097918392947657
 20
12.92597129705671
 30
0.0
 11
-0.126785476179367
 21
12.92597129705671
 31
0.0
  0
ARC
  5
7A1
330
2
100
AcDbEntity
  8
TEXT
100
AcDbCircle
 10
-0.1267854761793679
 20
12.94135310330014
 30
0.0
 40
0.0153818062434269
100
AcDbArc
 50
174.7883570302258
 51
270.0
  0
LINE
  5
7A2
330
2
100
AcDbEntity
  8
TEXT
100
AcDbLine
 10
-0.0429607862367965
 20
13.06255880913236
 30
0.0
 11
0.0068744935863512
 21
13.06255880913236
 31
0.0
  0
LINE
  5
7A3
330
2
100
AcDbEntity
  8
TEXT
100
AcDbLine
 10
0.0144282827524647
 20
13.05500501996625
 30
0.0
 11
0.0144282827524647
 21
12.86036247080061
 31
0.0
  0
LINE
  5
7A4
330
2
100
AcDbEntity
  8
TEXT
100
AcDbLine
 10
0.0814863295343047
 20
12.86036247080061
 30
0.0
 11
0.0814863295343047
 21
13.06255880913236
 31
0.0
  0
LINE
  5
7A5
330
2
100
AcDbEntity
  8
TEXT
100
AcDbLine
 10
0.0144282827524647
 20
12.86036247080061
 30
0.0
 11
0.0814863295343047
 21
12.86036247080061
 31
0.0
  0
LWPOLYLINE
  5
7A6
330
2
100
AcDbEntity
  8
TEXT
100
AcDbPolyline
 90
        3
 70
     0
 43
0.0
 10
0.1783080661655774
 20
13.12683550378913
 10
0.060007907349533
 20
13.12683550378913
 10
0.060007907349533
 20
13.09966800702823
 42
-1.960274751411753
  0
LINE
  5
7A7
330
2
100
AcDbEntity
  8
TEXT
100
AcDbLine
 10
0.0814863295343047
 20
13.06255880913236
 30
0.0
 11
0.1356199264552549
 21
13.06255880913236
 31
0.0
  0
LWPOLYLINE
  5
7A8
330
2
100
AcDbEntity
  8
TEXT
100
AcDbPolyline
 90
        2
 70
     0
 43
0.0
 10
0.0242262166363716
 20
13.12683550378913
 42
-0.3328679258950098
 10
0.060007907349533
 20
13.09966800702823
 42
6.772930709997214
  0
LWPOLYLINE
  5
7A9
330
2
100
AcDbEntity
  8
TEXT
100
AcDbPolyline
 90
        2
 70
     0
 43
0.0
 10
0.135619926455254
 20
13.06255880913236
 42
-0.4142135623731017
 10
0.1431737156213675
 20
13.05500501996625
 42
-0.9999999999999998
  0
ARC
  5
7AA
330
2
100
AcDbEntity
  8
TEXT
100
AcDbCircle
 10
0.3468947263187339
 20
13.08525193666822
 30
0.0
 40
0.0416329381542859
100
AcDbArc
 50
26.56974201007528
 51
87.20939649401342
  0
LWPOLYLINE
  5
7AB
330
2
100
AcDbEntity
  8
TEXT
100
AcDbPolyline
 90
        2
 70
     0
 43
0.0
 10
0.2547279317768609
 20
12.86036247080061
 10
0.3887453494082376
 20
12.86036247080061
 42
0.9999999999999998
  0
LWPOLYLINE
  5
7AC
330
2
100
AcDbEntity
  8
TEXT
100
AcDbPolyline
 90
        4
 70
     1
 43
0.0
 10
0.368622884338345
 20
12.96332644878464
 10
0.2799625656784865
 20
12.96332644878464
 42
0.9999999999999998
 10
0.2799625656784865
 20
12.92092790828078
 10
0.368622884338345
 20
12.92092790828078
 42
1.0
  0
LWPOLYLINE
  5
7AD
330
2
100
AcDbEntity
  8
TEXT
100
AcDbPolyline
 90
        2
 70
     0
 43
0.0
 10
0.2116519989092254
 20
12.90385341575105
 42
0.2901071551932823
 10
0.2547279317768609
 20
12.86036247080061
 42
5.328517124445801
  0
LINE
  5
7AE
330
2
100
AcDbEntity
  8
TEXT
100
AcDbLine
 10
0.3489216660958023
 20
13.12683550378912
 30
0.0
 11
0.2140897568787432
 21
13.12683550378912
 31
0.0
  0
LINE
  5
7AF
330
2
100
AcDbEntity
  8
TEXT
100
AcDbLine
 10
0.273403853272062
 20
13.02528383567023
 30
0.0
 11
0.3556918430554452
 21
13.02528383567023
 31
0.0
  0
LINE
  5
7B0
330
2
100
AcDbEntity
  8
TEXT
100
AcDbLine
 10
0.3198907677513239
 20
13.06255880913236
 30
0.0
 11
0.2126844943640345
 21
13.06255880913236
 31
0.0
  0
LINE
  5
7B1
330
2
100
AcDbEntity
  8
TEXT
100
AcDbLine
 10
0.2140897568787432
 20
13.12683550378912
 30
0.0
 11
0.2140897568787432
 21
13.09851295801948
 31
0.0
  0
ARC
  5
7B2
330
2
100
AcDbEntity
  8
TEXT
100
AcDbCircle
 10
0.2734038532720611
 20
12.95759825452611
 30
0.0
 40
0.0676855811441166
100
AcDbArc
 50
90.0
 51
153.7768192527749
  0
LINE
  5
7B3
330
2
100
AcDbEntity
  8
TEXT
100
AcDbLine
 10
0.2126844943640345
 20
13.06255880913236
 30
0.0
 11
0.2126844943640345
 21
12.98750640305815
 31
0.0
  0
LINE
  5
7B4
330
2
100
AcDbEntity
  8
TEXT
100
AcDbLine
 10
0.3556918430554452
 20
13.02528383567023
 30
0.0
 11
0.3454270826418808
 21
13.04653437524292
 31
0.0
  0
ARC
  5
7B5
330
2
100
AcDbEntity
  8
TEXT
100
AcDbCircle
 10
0.319890767751323
 20
13.03419943413236
 30
0.0
 40
0.028359375
100
AcDbArc
 50
25.78218179591245
 51
90.0
  0
LINE
  5
7B6
330
2
100
AcDbEntity
  8
TEXT
100
AcDbLine
 10
0.490176496111217
 20
12.86036247080061
 30
0.0
 11
0.4901764961112117
 21
13.03765297623208
 31
0.0
  0
LWPOLYLINE
  5
7B7
330
2
100
AcDbEntity
  8
TEXT
100
AcDbPolyline
 90
        2
 70
     0
 43
0.0
 10
0.4318212822758821
 20
12.86036247080061
 10
0.4901764961112161
 20
12.86036247080061
  0
LWPOLYLINE
  5
7B8
330
2
100
AcDbEntity
  8
TEXT
100
AcDbPolyline
 90
        2
 70
     0
 43
0.0
 10
0.4318212822758821
 20
12.90385341575105
 42
-0.2901071551932486
 10
0.3887453494082376
 20
12.86036247080061
 42
-5.328517124445184
  0
LWPOLYLINE
  5
7B9
330
2
100
AcDbEntity
  8
TEXT
100
AcDbPolyline
 90
        2
 70
     0
 43
0.0
 10
0.4318212822758821
 20
12.90385341575105
 10
0.4318212822758821
 20
12.86036247080061
  0
LINE
  5
7BA
330
2
100
AcDbEntity
  8
TEXT
100
AcDbLine
 10
0.4917785112703444
 20
13.12683550378912
 30
0.0
 11
0.4278816049708434
 21
13.12683550378912
 31
0.0
  0
LINE
  5
7BB
330
2
100
AcDbEntity
  8
TEXT
100
AcDbLine
 10
0.4278816049708434
 20
13.12683550378912
 30
0.0
 11
0.4278816049708434
 21
13.0216235252357
 31
0.0
  0
LINE
  5
7BC
330
2
100
AcDbEntity
  8
TEXT
100
AcDbLine
 10
0.4278816049708434
 20
13.0216235252357
 30
0.0
 11
0.3841308337889417
 21
13.10387380123184
 31
0.0
  0
ARC
  5
7BD
330
2
100
AcDbEntity
  8
TEXT
100
AcDbCircle
 10
0.5150823713938753
 20
13.03765293384969
 30
0.0
 40
0.0249058752826653
100
AcDbArc
 50
89.99971217465335
 51
179.9999999999985
  0
ARC
  5
7BE
330
2
100
AcDbEntity
  8
TEXT
100
AcDbCircle
 10
0.522971328333453
 20
13.09558977650686
 30
0.0
 40
0.0314112657011332
100
AcDbArc
 50
95.88484768694724
 51
173.2388340632136
  0
LINE
  5
7BF
330
2
100
AcDbEntity
  8
TEXT
100
AcDbLine
 10
0.4917785112703444
 20
13.09928785392825
 30
0.0
 11
0.4917785112703444
 21
13.12683550378912
 31
0.0
  0
TEXT
  5
7C0
330
2
100
AcDbEntity
  8
TEXT
100
AcDbText
 10
0.9606540306921349
 20
12.95324827944611
 30
0.0
 40
0.0522247191011236
  1
Minneapolis, MN 55432-0008
 41
1.11444212721585
 72
     5
 11
2.289586614961798
 21
12.95324827944611
 31
0.0
100
AcDbText
  0
TEXT
  5
7C1
330
2
100
AcDbEntity
  8
TEXT
100
AcDbText
 10
0.9606540306921349
 20
13.0465067064124
 30
0.0
 40
0.0522247191011236
  1
6536 Main St. N.E. * P.O. Box 32008
 41
0.8388932496075355
 72
     5
 11
2.289586614961798
 21
13.0465067064124
 31
0.0
100
AcDbText
  0
TEXT
  5
7C2
330
2
100
AcDbEntity
  8
TEXT
100
AcDbText
 10
0.9606540306921349
 20
13.13976513337869
 30
0.0
 40
0.0522247191011236
  1
Stylmark  Incorporated
 41
1.221428571428571
 72
     5
 11
2.289586614961798
 21
13.13976513337869
 31
0.0
100
AcDbText
  0
TEXT
  5
7C3
330
2
100
AcDbEntity
  8
TEXT
100
AcDbText
 10
0.9606540306921349
 20
12.85998985247982
 30
0.0
 40
0.0522247191011236
  1
Phone  1-800-328-2495
 41
1.272321428571429
 72
     5
 11
2.289586614961798
 21
12.85998985247982
 31
0.0
100
AcDbText
  0
LINE
  5
7C4
330
2
100
AcDbEntity
  8
TEXT
100
AcDbLine
 10
0.7130982192291198
 20
13.01694226084815
 30
0.0
 11
0.777655335194825
 21
13.12683550378912
 31
0.0
  0
LINE
  5
7C5
330
2
100
AcDbEntity
  8
TEXT
100
AcDbLine
 10
0.777655335194825
 20
13.12683550378912
 30
0.0
 11
0.7026635024651986
 21
13.12683550378912
 31
0.0
  0
LINE
  5
7C6
330
2
100
AcDbEntity
  8
TEXT
100
AcDbLine
 10
0.7320120702165243
 20
12.86036247080061
 30
0.0
 11
0.8085904425927301
 21
12.86036247080061
 31
0.0
  0
LINE
  5
7C7
330
2
100
AcDbEntity
  8
TEXT
100
AcDbLine
 10
0.8085904425927301
 20
12.86036247080061
 30
0.0
 11
0.7130982192291198
 21
13.01694226084815
 31
0.0
  0
LINE
  5
7C8
330
2
100
AcDbEntity
  8
TEXT
100
AcDbLine
 10
0.6561085370050597
 20
12.86036247080061
 30
0.0
 11
0.6561085370050597
 21
12.99194203927679
 31
0.0
  0
LINE
  5
7C9
330
2
100
AcDbEntity
  8
TEXT
100
AcDbLine
 10
0.6561085370050597
 20
12.99194203927679
 30
0.0
 11
0.7320120702165243
 21
12.86036247080061
 31
0.0
  0
LINE
  5
7CA
330
2
100
AcDbEntity
  8
TEXT
100
AcDbLine
 10
0.591730352686434
 20
13.06255880913236
 30
0.0
 11
0.5917303526864393
 21
12.86036247080061
 31
0.0
  0
LINE
  5
7CB
330
2
100
AcDbEntity
  8
TEXT
100
AcDbLine
 10
0.5917303526864393
 20
12.86036247080061
 30
0.0
 11
0.6561085370050597
 21
12.86036247080061
 31
0.0
  0
LINE
  5
7CC
330
2
100
AcDbEntity
  8
TEXT
100
AcDbLine
 10
0.6555653439092124
 20
13.19229970955672
 30
0.0
 11
0.5872504653599391
 21
13.19229970955672
 31
0.0
  0
LINE
  5
7CD
330
2
100
AcDbEntity
  8
TEXT
100
AcDbLine
 10
0.5872504653599391
 20
13.19229970955672
 30
0.0
 11
0.5872504653599338
 21
13.12683550378912
 31
0.0
  0
LINE
  5
7CE
330
2
100
AcDbEntity
  8
TEXT
100
AcDbLine
 10
0.7026635024651969
 20
13.12683550378912
 30
0.0
 11
0.6555653439092124
 21
13.05097017737758
 31
0.0
  0
LINE
  5
7CF
330
2
100
AcDbEntity
  8
TEXT
100
AcDbLine
 10
0.6555653439092124
 20
13.05097017737758
 30
0.0
 11
0.6555653439092124
 21
13.19229970955672
 31
0.0
  0
ACAD_PROXY_ENTITY
  5
2D7
330
8
100
AcDbEntity
 67
     1
  8
DIMENSIONS
100
AcDbProxyEntity
 90
      498
 91
      536
 92
        8
310
0800000000000000
 93
        0
 94
        0
  0
ENDSEC
  0
SECTION
  2
OBJECTS
  0
DICTIONARY
  5
1A
330
0
100
AcDbDictionary
  3
ACAD_GROUP
350
18
  3
ACAD_LAYOUT
350
7D4
  3
ACAD_MLINESTYLE
350
19
  3
ACAD_PLOTSETTINGS
350
7D5
  3
ACAD_PLOTSTYLENAME
350
7D2
  3
ACASAPPOBJECT
350
2DB
  3
ACASGREF_MASTER
350
28A
  3
ACCELVIEW
350
31B
  3
ACDBHEADERROUNDTRIPXREC
350
7DF
  3
ACDBVARIABLEDICTIONARY
350
7DC
  3
ACDMSYSVARMGR
350
2A6
  3
ACGREF_MASTER
350
288
  3
ACME_COMMAND_HISTORY
350
286
  3
ACME_SCOPE_NAME
350
285
  3
AD_APPL
350
299
  3
AD_DRAWMGR_NAME
350
2BB
  3
AD_GREF_MODULE
350
2A1
  3
AD_HOLENOTE_REPOSITORY
350
2A0
  3
ADSYSVARMGR
350
28F
  3
AMI_MASTER
350
289
  3
AUTOCAD_ASSEMBLIES_PROJECT
350
2C7
  3
DESIGNER_ASSEMBLIES_SYSVARS
350
2C2
  0
DICTIONARY
  5
7FF
330
2
100
AcDbDictionary
280
     1
  3
ACAD_LAYOUTSELFREF
360
800
  0
DICTIONARY
  5
801
330
8
100
AcDbDictionary
280
     1
  3
ACAD_LAYOUTSELFREF
360
802
  0
DICTIONARY
  5
18
102
{ACAD_REACTORS
330
1A
102
}
330
1A
100
AcDbDictionary
  3
*A1
350
34F
  3
*A2
350
6B8
  0
DICTIONARY
  5
7D4
102
{ACAD_REACTORS
330
1A
102
}
330
1A
100
AcDbDictionary
  0
DICTIONARY
  5
19
102
{ACAD_REACTORS
330
1A
102
}
330
1A
100
AcDbDictionary
  3
STANDARD
350
1D
  0
DICTIONARY
  5
7D5
102
{ACAD_REACTORS
330
1A
102
}
330
1A
100
AcDbDictionary
  0
ACDBDICTIONARYWDFLT
  5
7D2
102
{ACAD_REACTORS
330
1A
102
}
330
1A
100
AcDbDictionary
281
     1
  3
Normal
350
7D3
100
AcDbDictionaryWithDefault
340
7D3
  0
ACAD_PROXY_OBJECT
  5
2DB
102
{ACAD_REACTORS
330
1A
102
}
330
1A
100
AcDbProxyObject
 90
      499
 91
      539
 93
        2
310
8A
360
2D9
 94
        0
  0
ACAD_PROXY_OBJECT
  5
28A
102
{ACAD_REACTORS
330
1A
102
}
330
1A
100
AcDbProxyObject
 90
      499
 91
      505
 93
       34
310
0100004058
 94
        0
  0
ACAD_PROXY_OBJECT
  5
31B
102
{ACAD_REACTORS
330
1A
102
}
330
1A
100
AcDbProxyObject
 90
      499
 91
      540
 93
       12
310
9172
330
29A
330
2FF
330
0
330
0
330
0
330
0
330
0
330
0
330
0
330
0
330
0
330
0
330
0
330
0
330
0
330
0
330
0
330
0
330
0
330
0
330
0
330
0
330
0
 94
        0
  0
DICTIONARY
  5
7DF
102
{ACAD_REACTORS
330
1A
102
}
330
1A
100
AcDbDictionary
  3
CEPSNTYPE
350
7E9
  3
FINGERPRINTGUID
350
7EA
  3
HYPERLINKBASE
350
7E2
  3
INSUNITS
350
7E8
  3
LAYOUTDICT
350
7E4
  3
LWETCUNION
350
7E7
  3
PLOTSETDICT
350
7E5
  3
PLOTSTYLNAMDICT
350
7E6
  3
PSVPSCALE
350
7EC
  3
PUCSBASE
350
7EF
  3
PUCSORGBACK
350
7F5
  3
PUCSORGBOTTOM
350
7F1
  3
PUCSORGFRONT
350
7F4
  3
PUCSORGLEFT
350
7F2
  3
PUCSORGRIGHT
350
7F3
  3
PUCSORGTOP
350
7F0
  3
PUCSORTHOREF
350
7ED
  3
PUCSORTHOVIEW
350
7EE
  3
STYLESHEET
350
7E3
  3
TSTACKALIGN
350
7E0
  3
TSTACKSIZE
350
7E1
  3
UCSBASE
350
7F8
  3
UCSORGBACK
350
7FE
  3
UCSORGBOTTOM
350
7FA
  3
UCSORGFRONT
350
7FD
  3
UCSORGLEFT
350
7FB
  3
UCSORGRIGHT
350
7FC
  3
UCSORGTOP
350
7F9
  3
UCSORTHOREF
350
7F6
  3
UCSORTHOVIEW
350
7F7
  3
VERSIONGUID
350
7EB
  0
DICTIONARY
  5
7DC
102
{ACAD_REACTORS
330
1A
102
}
330
1A
100
AcDbDictionary
  3
DIMASSOC
350
7DD
  0
ACAD_PROXY_OBJECT
  5
2A6
102
{ACAD_REACTORS
330
1A
102
}
330
1A
100
AcDbProxyObject
 90
      499
 91
      510
 93
      184
310
4C5124810100000000000000000000000000000000000000
330
2A7
330
2A8
330
2A9
330
2AA
330
2AB
330
2AC
330
2AD
330
2AF
330
2B0
330
2B1
330
2B2
330
2B3
330
2B4
330
2B5
330
2B6
330
2B7
330
2B8
330
2BA
 94
        0
  0
ACAD_PROXY_OBJECT
  5
288
102
{ACAD_REACTORS
330
1A
102
}
330
1A
100
AcDbProxyObject
 90
      499
 91
      503
 93
      114
310
010100410000000000000000000000
 94
        0
  0
ACAD_PROXY_OBJECT
  5
286
102
{ACAD_REACTORS
330
1A
102
}
330
1A
100
AcDbProxyObject
 90
      499
 91
      501
 93
     2126
310
47805045A4F4F4D805045A4F4F4D805045A4F4F4D805045A4F4F4D805054552415345805045A4F4F4D8050644444544495440405184D5347202D20436F6D6D616E642043414E43454C4C45442E01411353D59150101461354D1C80B4810DBDB5B585B990810D05390D1531311510B805054552415345805054552415345805
310
015580505455241534580505455241534580506494E53455254805045A4F4F4D805074558504C4F4445805045A4F4F4D805045A4F4F4D805044D4F5645805054552415345805045A4F4F4D805044D4F5645805044D4F564580506444445444954805054552415345805045A4F4F4D805045A4F4F4D80505515341564580504
310
504C4F54805055153415645B
 94
        0
  0
ACAD_PROXY_OBJECT
  5
285
102
{ACAD_REACTORS
330
1A
102
}
330
1A
100
AcDbProxyObject
 90
      499
 91
      500
 93
      464
310
01010040932000000000000000000000000000000000000000000000000000000000000000000000000000000000000000000000000000090100D1
360
28B
360
28C
360
28D
360
28E
360
290
360
291
360
292
360
293
360
294
360
295
360
296
360
297
360
298
360
29B
360
29C
360
29D
360
29E
360
29F
360
2A2
360
2A3
360
2A4
360
2A5
360
2A7
360
2A8
360
2A9
360
2AA
360
2AB
360
2AC
360
2AD
360
2AF
360
2B0
360
2B1
360
2B2
360
2B3
360
2B4
360
2B5
360
2B6
360
2B7
360
2B8
360
2BA
360
2C3
360
2C4
360
2C5
360
2C6
360
2CD
360
2CE
360
2CF
360
2D0
360
2D1
360
2D5
330
29A
 94
        0
  0
ACAD_PROXY_OBJECT
  5
299
102
{ACAD_REACTORS
330
1A
102
}
330
1A
100
AcDbProxyObject
 90
      499
 91
      514
 93
       42
310
000102004501
330
28B
 94
        0
  0
ACAD_PROXY_OBJECT
  5
2BB
102
{ACAD_REACTORS
330
1A
102
}
330
1A
100
AcDbProxyObject
 90
      499
 91
      526
 93
       42
310
000100004501
330
2A2
 94
        0
  0
ACAD_PROXY_OBJECT
  5
2A1
102
{ACAD_REACTORS
330
1A
102
}
330
1A
100
AcDbProxyObject
 90
      499
 91
      521
 93
      114
310
000000428000000000000000000009
 94
        0
  0
ACAD_PROXY_OBJECT
  5
2A0
102
{ACAD_REACTORS
330
1A
102
}
330
1A
100
AcDbProxyObject
 90
      499
 91
      520
 93
        8
310
0000
330
29F
 94
        0
  0
ACAD_PROXY_OBJECT
  5
28F
102
{ACAD_REACTORS
330
1A
102
}
330
1A
100
AcDbProxyObject
 90
      499
 91
      510
 93
      104
310
9094410100000000000000000000
330
290
330
291
330
292
330
293
330
294
330
295
330
296
330
297
330
298
 94
        0
  0
ACAD_PROXY_OBJECT
  5
289
102
{ACAD_REACTORS
330
1A
102
}
330
1A
100
AcDbProxyObject
 90
      499
 91
      504
 93
       34
310
0100004058
 94
        0
  0
ACAD_PROXY_OBJECT
  5
2C7
102
{ACAD_REACTORS
330
1A
102
}
330
1A
100
AcDbProxyObject
 90
      499
 91
      527
 93
       58
310
0102004200000013
330
2CF
330
2D5
330
2D0
 94
        0
  0
ACAD_PROXY_OBJECT
  5
2C2
102
{ACAD_REACTORS
330
1A
102
}
330
1A
100
AcDbProxyObject
 90
      499
 91
      510
 93
       64
310
904441010000000000
330
2C3
330
2C4
330
2C5
330
2C6
 94
        0
  0
XRECORD
  5
800
102
{ACAD_REACTORS
330
7FF
102
}
330
7FF
100
AcDbXrecord
340
2
  0
XRECORD
  5
802
102
{ACAD_REACTORS
330
801
102
}
330
801
100
AcDbXrecord
340
8
  0
GROUP
  5
34F
102
{ACAD_REACTORS
330
18
102
}
330
18
100
AcDbGroup
300
BORDER FRAME 10-1-95
 70
     3
 71
     1
  0
GROUP
  5
6B8
102
{ACAD_REACTORS
330
18
102
}
330
18
100
AcDbGroup
300

 70
     1
 71
     1
  0
MLINESTYLE
  5
1D
102
{ACAD_REACTORS
330
19
102
}
330
19
100
AcDbMlineStyle
  2
STANDARD
 70
     0
  3

 62
     0
 51
90.0
 52
90.0
 71
     2
 49
0.5
 62
   256
  6
BYLAYER
 49
-0.5
 62
   256
  6
BYLAYER
  0
ACDBPLACEHOLDER
  5
7D3
102
{ACAD_REACTORS
330
7D2
102
}
330
7D2
100
AcDbPlaceHolder
280
     0
  0
ACAD_PROXY_OBJECT
  5
2D9
330
0
100
AcDbProxyObject
 90
      499
 91
      537
 93
      736
310
9084D2E312E3232336407014B7269BC41100000000000000E03F1EC52B91F85EA10FE1EC52B91F85EA10FD034153471EC52B91F85EA10FC000000FC83D797414650540C000000000000E03F3F2A7C749358940FC000000FC83D7974100
 94
        0
  0
XRECORD
  5
7E9
102
{ACAD_REACTORS
330
7DF
102
}
330
7DF
100
AcDbXrecord
 90
        0
  0
XRECORD
  5
7EA
102
{ACAD_REACTORS
330
7DF
102
}
330
7DF
100
AcDbXrecord
  1
{B3180D20-8DB8-11D6-88E6-0090279574E7}
  0
XRECORD
  5
7E2
102
{ACAD_REACTORS
330
7DF
102
}
330
7DF
100
AcDbXrecord
  1

  0
XRECORD
  5
7E8
102
{ACAD_REACTORS
330
7DF
102
}
330
7DF
100
AcDbXrecord
 90
        0
  0
XRECORD
  5
7E4
102
{ACAD_REACTORS
330
7DF
102
}
330
7DF
100
AcDbXrecord
340
7D4
  0
XRECORD
  5
7E7
102
{ACAD_REACTORS
330
7DF
102
}
330
7DF
100
AcDbXrecord
 90
    14877
  0
XRECORD
  5
7E5
102
{ACAD_REACTORS
330
7DF
102
}
330
7DF
100
AcDbXrecord
340
7D5
  0
XRECORD
  5
7E6
102
{ACAD_REACTORS
330
7DF
102
}
330
7DF
100
AcDbXrecord
340
7D2
  0
XRECORD
  5
7EC
102
{ACAD_REACTORS
330
7DF
102
}
330
7DF
100
AcDbXrecord
 40
0.0
  0
XRECORD
  5
7EF
102
{ACAD_REACTORS
330
7DF
102
}
330
7DF
100
AcDbXrecord
340
0
  0
XRECORD
  5
7F5
102
{ACAD_REACTORS
330
7DF
102
}
330
7DF
100
AcDbXrecord
 10
0.0
 20
0.0
 30
0.0
  0
XRECORD
  5
7F1
102
{ACAD_REACTORS
330
7DF
102
}
330
7DF
100
AcDbXrecord
 10
0.0
 20
0.0
 30
0.0
  0
XRECORD
  5
7F4
102
{ACAD_REACTORS
330
7DF
102
}
330
7DF
100
AcDbXrecord
 10
0.0
 20
0.0
 30
0.0
  0
XRECORD
  5
7F2
102
{ACAD_REACTORS
330
7DF
102
}
330
7DF
100
AcDbXrecord
 10
0.0
 20
0.0
 30
0.0
  0
XRECORD
  5
7F3
102
{ACAD_REACTORS
330
7DF
102
}
330
7DF
100
AcDbXrecord
 10
0.0
 20
0.0
 30
0.0
  0
XRECORD
  5
7F0
102
{ACAD_REACTORS
330
7DF
102
}
330
7DF
100
AcDbXrecord
 10
0.0
 20
0.0
 30
0.0
  0
XRECORD
  5
7ED
102
{ACAD_REACTORS
330
7DF
102
}
330
7DF
100
AcDbXrecord
340
0
  0
XRECORD
  5
7EE
102
{ACAD_REACTORS
330
7DF
102
}
330
7DF
100
AcDbXrecord
 70
     0
  0
XRECORD
  5
7E3
102
{ACAD_REACTORS
330
7DF
102
}
330
7DF
100
AcDbXrecord
  1

  0
XRECORD
  5
7E0
102
{ACAD_REACTORS
330
7DF
102
}
330
7DF
100
AcDbXrecord
 90
        1
  0
XRECORD
  5
7E1
102
{ACAD_REACTORS
330
7DF
102
}
330
7DF
100
AcDbXrecord
 90
       70
  0
XRECORD
  5
7F8
102
{ACAD_REACTORS
330
7DF
102
}
330
7DF
100
AcDbXrecord
340
0
  0
XRECORD
  5
7FE
102
{ACAD_REACTORS
330
7DF
102
}
330
7DF
100
AcDbXrecord
 10
0.0
 20
0.0
 30
0.0
  0
XRECORD
  5
7FA
102
{ACAD_REACTORS
330
7DF
102
}
330
7DF
100
AcDbXrecord
 10
0.0
 20
0.0
 30
0.0
  0
XRECORD
  5
7FD
102
{ACAD_REACTORS
330
7DF
102
}
330
7DF
100
AcDbXrecord
 10
0.0
 20
0.0
 30
0.0
  0
XRECORD
  5
7FB
102
{ACAD_REACTORS
330
7DF
102
}
330
7DF
100
AcDbXrecord
 10
0.0
 20
0.0
 30
0.0
  0
XRECORD
  5
7FC
102
{ACAD_REACTORS
330
7DF
102
}
330
7DF
100
AcDbXrecord
 10
0.0
 20
0.0
 30
0.0
  0
XRECORD
  5
7F9
102
{ACAD_REACTORS
330
7DF
102
}
330
7DF
100
AcDbXrecord
 10
0.0
 20
0.0
 30
0.0
  0
XRECORD
  5
7F6
102
{ACAD_REACTORS
330
7DF
102
}
330
7DF
100
AcDbXrecord
340
0
  0
XRECORD
  5
7F7
102
{ACAD_REACTORS
330
7DF
102
}
330
7DF
100
AcDbXrecord
 70
     0
  0
XRECORD
  5
7EB
102
{ACAD_REACTORS
330
7DF
102
}
330
7DF
100
AcDbXrecord
  1
{B3180D22-8DB8-11D6-88E6-0090279574E7}
  0
DICTIONARYVAR
  5
7DD
102
{ACAD_REACTORS
330
7DC
102
}
330
7DC
100
DictionaryVariables
280
     0
  1
1
  0
ACAD_PROXY_OBJECT
  5
28B
330
0
100
AcDbProxyObject
 90
      499
 91
      506
 93
      354
310
000000000000405AA6A9AA40504646174650142118B8C4B8C8C8CD9C0504646174650142118B8C4B8C8C8CD9C4
330
285
330
28C
330
28D
330
28F
330
29A
330
29A
 94
        0
  0
ACAD_PROXY_OBJECT
  5
28C
330
0
100
AcDbProxyObject
 90
      499
 91
      507
 93
      120
310
00009024410100000092080002A6A643
330
285
330
29C
330
29B
330
0
 94
        0
  0
ACAD_PROXY_OBJECT
  5
28D
330
0
100
AcDbProxyObject
 90
      499
 91
      508
 93
       46
310
000000009209
330
285
330
0
330
28E
 94
        0
  0
ACAD_PROXY_OBJECT
  5
28E
330
0
100
AcDbProxyObject
 90
      499
 91
      509
 93
       22
310
0000A8
330
285
 94
        0
  0
ACAD_PROXY_OBJECT
  5
290
330
0
100
AcDbProxyObject
 90
      499
 91
      511
 93
      124
310
00000142905350D3D39114D414D69057
330
285
 94
        0
  0
ACAD_PROXY_OBJECT
  5
291
330
0
100
AcDbProxyObject
 90
      499
 91
      511
 93
      124
310
000001429053549553115353D1115017
330
285
 94
        0
  0
ACAD_PROXY_OBJECT
  5
292
330
0
100
AcDbProxyObject
 90
      499
 91
      511
 93
      108
310
00000142105354D2D353D1115011
330
285
 94
        0
  0
ACAD_PROXY_OBJECT
  5
293
330
0
100
AcDbProxyObject
 90
      499
 91
      511
 93
      140
310
000001435053511253511254D41353D11160
330
285
 94
        0
  0
ACAD_PROXY_OBJECT
  5
294
330
0
100
AcDbProxyObject
 90
      499
 91
      512
 93
      180
310
00000142905354D2D05391D513D3000000000000010404
330
285
 94
        0
  0
ACAD_PROXY_OBJECT
  5
295
330
0
100
AcDbProxyObject
 90
      499
 91
      513
 93
      164
310
00000142505354D2D4D516531140505434F4E542A1
330
285
 94
        0
  0
ACAD_PROXY_OBJECT
  5
296
330
0
100
AcDbProxyObject
 90
      499
 91
      511
 93
      108
310
00000142105350D3511112535010
330
285
 94
        0
  0
ACAD_PROXY_OBJECT
  5
297
330
0
100
AcDbProxyObject
 90
      499
 91
      513
 93
      116
310
000001425053541054919253114060
330
285
 94
        0
  0
ACAD_PROXY_OBJECT
  5
298
330
0
100
AcDbProxyObject
 90
      499
 91
      511
 93
      100
310
00000142105350D3D35414D5A1
330
285
 94
        0
  0
ACAD_PROXY_OBJECT
  5
29B
330
0
100
AcDbProxyObject
 90
      499
 91
      516
 93
      164
310
000092090148200A00000440000FFFFFFFF0000001
330
285
330
29C
330
28C
330
29A
 94
        0
  0
ACAD_PROXY_OBJECT
  5
29C
330
0
100
AcDbProxyObject
 90
      499
 91
      517
 93
       82
310
000040520802482A800004
330
285
330
29B
330
28C
330
29A
 94
        0
  0
ACAD_PROXY_OBJECT
  5
29D
330
0
100
AcDbProxyObject
 90
      499
 91
      509
 93
       22
310
0000A8
330
285
 94
        0
  0
ACAD_PROXY_OBJECT
  5
29E
330
0
100
AcDbProxyObject
 90
      499
 91
      518
 93
       38
310
0000009208
330
285
330
0
 94
        0
  0
ACAD_PROXY_OBJECT
  5
29F
330
0
100
AcDbProxyObject
 90
      499
 91
      519
 93
     3196
310
0000419208050A544852555F4452494C4C0142D09312539117D1149253130050A544852555F43424F52450142D09312539117D0D093D4914050A544852555F4353494E4B0142D09312539117D0D4D25392D0648201459EC94958C8094950535112504815121493D551D20B9F4051C7B252563202525414D444941205820252
310
5414D44455020444545507D014F5EC94958C8094950535112504815121493D551D20B9F57141ED0D093D49148094958C80949505350D112504816080949505350D091115408111151541F405437B252563202525414D4449412058202525414D44455020444545507D5C507B43424F524520252563202525414D4344494120
310
58202525414D434244455020444545507D014EDEC94958C8094950535112504815121493D551D20B9F57141ED0D4D25392C8094958C80949505350D112504816080949505350D4D05391C949591F405417B252563202525414D4449412058202525414D44455020444545507D5C507B4353494E4B20252563202525414D434
310
449412058202525414D4353414E472525647D0
330
285
 94
        0
  0
ACAD_PROXY_OBJECT
  5
2A2
330
0
100
AcDbProxyObject
 90
      499
 91
      522
 93
      332
310
0000014119185D1940508442E312E32323362014119185D1940508442E312E3232336240501000000004
330
285
330
2A3
330
2A5
330
2A6
330
2D7
 94
        0
  0
ACAD_PROXY_OBJECT
  5
2A3
330
0
100
AcDbProxyObject
 90
      499
 91
      523
 93
       56
310
0000901441010000
330
285
330
2A4
 94
        0
  0
ACAD_PROXY_OBJECT
  5
2A4
330
0
100
AcDbProxyObject
 90
      499
 91
      524
 93
       40
310
0000A4410100
330
285
 94
        0
  0
ACAD_PROXY_OBJECT
  5
2A5
330
0
100
AcDbProxyObject
 90
      499
 91
      525
 93
       68
310
0000A44101920A4820
330
285
 94
        0
  0
ACAD_PROXY_OBJECT
  5
2A7
330
0
100
AcDbProxyObject
 90
      499
 91
      511
 93
      108
310
000001421053521310D05310D010
330
285
 94
        0
  0
ACAD_PROXY_OBJECT
  5
2A8
330
0
100
AcDbProxyObject
 90
      499
 91
      511
 93
      124
310
000001429053541493D2951654115010
330
285
 94
        0
  0
ACAD_PROXY_OBJECT
  5
2A9
330
0
100
AcDbProxyObject
 90
      499
 91
      511
 93
      124
310
00000142905354915554D15112535010
330
285
 94
        0
  0
ACAD_PROXY_OBJECT
  5
2AA
330
0
100
AcDbProxyObject
 90
      499
 91
      511
 93
      132
310
00000143105354D150D51253D391125360
330
285
 94
        0
  0
ACAD_PROXY_OBJECT
  5
2AB
330
0
100
AcDbProxyObject
 90
      499
 91
      511
 93
      124
310
00000142905355941093D49111549013
330
285
 94
        0
  0
ACAD_PROXY_OBJECT
  5
2AC
330
0
100
AcDbProxyObject
 90
      499
 91
      511
 93
      116
310
0000014290535115D1D0D3D313D4A0
330
285
 94
        0
  0
ACAD_PROXY_OBJECT
  5
2AD
330
0
100
AcDbProxyObject
 90
      499
 91
      513
 93
      180
310
00000142905352125113151654114050648494444454E0
330
285
 94
        0
  0
ACAD_PROXY_OBJECT
  5
2AF
330
0
100
AcDbProxyObject
 90
      499
 91
      513
 93
      196
310
00000142905354D150D315165411405085048414E544F4D324
330
285
 94
        0
  0
ACAD_PROXY_OBJECT
  5
2B0
330
0
100
AcDbProxyObject
 90
      499
 91
      511
 93
      108
310
00000142105354D51114D0D51021
330
285
 94
        0
  0
ACAD_PROXY_OBJECT
  5
2B1
330
0
100
AcDbProxyObject
 90
      499
 91
      511
 93
      108
310
00000142105354D5111510541021
330
285
 94
        0
  0
ACAD_PROXY_OBJECT
  5
2B2
330
0
100
AcDbProxyObject
 90
      499
 91
      511
 93
      108
310
00000142105354D5111115131021
330
285
 94
        0
  0
ACAD_PROXY_OBJECT
  5
2B3
330
0
100
AcDbProxyObject
 90
      499
 91
      512
 93
      148
310
00000141905350D310D34295C8FC2F528BC3F4
330
285
 94
        0
  0
ACAD_PROXY_OBJECT
  5
2B4
330
0
100
AcDbProxyObject
 90
      499
 91
      512
 93
      156
310
00000141D05350D311D05402B8716D9CEF7C33F4
330
285
 94
        0
  0
ACAD_PROXY_OBJECT
  5
2B5
330
0
100
AcDbProxyObject
 90
      499
 91
      512
 93
      164
310
00000142105350D313D4D2150295C8FC2F528BC3F5
330
285
 94
        0
  0
ACAD_PROXY_OBJECT
  5
2B6
330
0
100
AcDbProxyObject
 90
      499
 91
      511
 93
      100
310
00000141D05350D31410549012
330
285
 94
        0
  0
ACAD_PROXY_OBJECT
  5
2B7
330
0
100
AcDbProxyObject
 90
      499
 91
      511
 93
      100
310
0000014210535590539254D222
330
285
 94
        0
  0
ACAD_PROXY_OBJECT
  5
2B8
330
0
100
AcDbProxyObject
 90
      499
 91
      512
 93
      188
310
00000142D0535312539155121250D2C295C8FC2F5289C3F3
330
285
 94
        0
  0
ACAD_PROXY_OBJECT
  5
2BA
330
0
100
AcDbProxyObject
 90
      499
 91
      513
 93
      164
310
00000142105350D3151654114050643454E5445522
330
285
 94
        0
  0
ACAD_PROXY_OBJECT
  5
2C3
330
0
100
AcDbProxyObject
 90
      499
 91
      511
 93
      132
310
00000142D05050555513D4D3D315915014
330
285
 94
        0
  0
ACAD_PROXY_OBJECT
  5
2C4
330
0
100
AcDbProxyObject
 90
      499
 91
      511
 93
      156
310
00000143905050555513D054D4D1535093115015
330
285
 94
        0
  0
ACAD_PROXY_OBJECT
  5
2C5
330
0
100
AcDbProxyObject
 90
      499
 91
      511
 93
      148
310
00000143505055925155D49154D513D4915010
330
285
 94
        0
  0
ACAD_PROXY_OBJECT
  5
2C6
330
0
100
AcDbProxyObject
 90
      499
 91
      511
 93
      124
310
00000142D050525394D15495105094E4
330
285
 94
        0
  0
ACAD_PROXY_OBJECT
  5
2CD
330
0
100
AcDbProxyObject
 90
      499
 91
      530
 93
       32
310
0000000000
330
285
340
2CA
330
2CE
330
2CA
 94
        0
  0
ACAD_PROXY_OBJECT
  5
2CE
330
0
100
AcDbProxyObject
 90
      499
 91
      531
 93
      127
310
000001418C4C4C0D4E0C90400522080C
330
285
330
2CD
 94
        0
  0
ACAD_PROXY_OBJECT
  5
2CF
330
0
100
AcDbProxyObject
 90
      499
 91
      532
 93
       72
310
000000A44101A4410100
330
285
330
2CE
 94
        0
  0
ACAD_PROXY_OBJECT
  5
2D0
330
0
100
AcDbProxyObject
 90
      499
 91
      533
 93
       80
310
0000901441010000000000
330
285
330
2D1
330
2D1
330
2D1
330
2D1
 94
        0
  0
ACAD_PROXY_OBJECT
  5
2D1
330
0
100
AcDbProxyObject
 90
      499
 91
      534
 93
      173
310
00000000406AAAAAAAAAAAAAAAAA806A44101A441011
330
285
330
2D0
330
2CE
 94
        0
  0
ACAD_PROXY_OBJECT
  5
2D5
330
0
100
AcDbProxyObject
 90
      499
 91
      535
 93
       26
310
00008030
330
285
330
0
 94
        0
  0
ENDSEC
  0
EOF
