  0
SECTION
  2
HEADER
  9
$ACADVER
  1
AC1014
  9
$ACADMAINTVER
 70
     9
  9
$DWGCODEPAGE
  3
ANSI_1252
  9
$INSBASE
 10
0.0
 20
11.64319770497795
 30
0.0
  9
$EXTMIN
 10
-0.8319200751578364
 20
1.779103511290497
 30
0.0
  9
$EXTMAX
 10
2.653299246589291
 20
3.05878433788164
 30
0.0
  9
$LIMMIN
 10
0.0
 20
0.0
  9
$LIMMAX
 10
12.0
 20
9.0
  9
$ORTHOMODE
 70
     1
  9
$REGENMODE
 70
     1
  9
$FILLMODE
 70
     1
  9
$QTEXTMODE
 70
     0
  9
$MIRRTEXT
 70
     0
  9
$DRAGMODE
 70
     2
  9
$LTSCALE
 40
1.0
  9
$OSMODE
 70
    39
  9
$ATTMODE
 70
     1
  9
$TEXTSIZE
 40
0.125
  9
$TRACEWID
 40
0.05
  9
$TEXTSTYLE
  7
ROMANS
  9
$CLAYER
  8
TEXT
  9
$CELTYPE
  6
BYLAYER
  9
$CECOLOR
 62
   256
  9
$CELTSCALE
 40
1.0
  9
$DELOBJ
 70
     1
  9
$DISPSILH
 70
     1
  9
$DIMSCALE
 40
1.0
  9
$DIMASZ
 40
0.125
  9
$DIMEXO
 40
0.125
  9
$DIMDLI
 40
0.38
  9
$DIMRND
 40
0.0
  9
$DIMDLE
 40
0.0
  9
$DIMEXE
 40
0.125
  9
$DIMTP
 40
0.0
  9
$DIMTM
 40
0.0
  9
$DIMTXT
 40
0.125
  9
$DIMCEN
 40
-0.125
  9
$DIMTSZ
 40
0.0
  9
$DIMTOL
 70
     0
  9
$DIMLIM
 70
     0
  9
$DIMTIH
 70
     1
  9
$DIMTOH
 70
     1
  9
$DIMSE1
 70
     0
  9
$DIMSE2
 70
     0
  9
$DIMTAD
 70
     0
  9
$DIMZIN
 70
     4
  9
$DIMBLK
  1

  9
$DIMASO
 70
     1
  9
$DIMSHO
 70
     1
  9
$DIMPOST
  1

  9
$DIMAPOST
  1

  9
$DIMALT
 70
     0
  9
$DIMALTD
 70
     2
  9
$DIMALTF
 40
25.4
  9
$DIMLFAC
 40
0.25
  9
$DIMTOFL
 70
     0
  9
$DIMTVP
 40
0.0
  9
$DIMTIX
 70
     1
  9
$DIMSOXD
 70
     0
  9
$DIMSAH
 70
     0
  9
$DIMBLK1
  1

  9
$DIMBLK2
  1

  9
$DIMSTYLE
  2
STANDARD
  9
$DIMCLRD
 70
     0
  9
$DIMCLRE
 70
     0
  9
$DIMCLRT
 70
     0
  9
$DIMTFAC
 40
1.0
  9
$DIMGAP
 40
0.09
  9
$DIMJUST
 70
     0
  9
$DIMSD1
 70
     0
  9
$DIMSD2
 70
     0
  9
$DIMTOLJ
 70
     1
  9
$DIMTZIN
 70
     4
  9
$DIMALTZ
 70
     0
  9
$DIMALTTZ
 70
     0
  9
$DIMFIT
 70
     3
  9
$DIMUPT
 70
     0
  9
$DIMUNIT
 70
     2
  9
$DIMDEC
 70
     3
  9
$DIMTDEC
 70
     3
  9
$DIMALTU
 70
     2
  9
$DIMALTTD
 70
     2
  9
$DIMTXSTY
  7
ROMANS
  9
$DIMAUNIT
 70
     0
  9
$LUNITS
 70
     2
  9
$LUPREC
 70
     4
  9
$SKETCHINC
 40
0.1
  9
$FILLETRAD
 40
0.06
  9
$AUNITS
 70
     0
  9
$AUPREC
 70
     0
  9
$MENU
  1
C:\R13\WIN\acad
  9
$ELEVATION
 40
0.0
  9
$PELEVATION
 40
0.0
  9
$THICKNESS
 40
0.0
  9
$LIMCHECK
 70
     0
  9
$BLIPMODE
 70
     0
  9
$CHAMFERA
 40
0.02
  9
$CHAMFERB
 40
0.02
  9
$CHAMFERC
 40
0.0
  9
$CHAMFERD
 40
0.0
  9
$SKPOLY
 70
     0
  9
$TDCREATE
 40
2450534.449066562
  9
$TDUPDATE
 40
2452458.318770844
  9
$TDINDWG
 40
1.1850956134
  9
$TDUSRTIMER
 40
1.1850956134
  9
$USRTIMER
 70
     1
  9
$ANGBASE
 50
0.0
  9
$ANGDIR
 70
     0
  9
$PDMODE
 70
     0
  9
$PDSIZE
 40
0.0
  9
$PLINEWID
 40
0.0
  9
$COORDS
 70
     2
  9
$SPLFRAME
 70
     0
  9
$SPLINETYPE
 70
     6
  9
$SPLINESEGS
 70
     8
  9
$ATTDIA
 70
     0
  9
$ATTREQ
 70
     1
  9
$HANDLING
 70
 22529
  9
$HANDSEED
  5
380
  9
$SURFTAB1
 70
     6
  9
$SURFTAB2
 70
     6
  9
$SURFTYPE
 70
     6
  9
$SURFU
 70
     6
  9
$SURFV
 70
     6
  9
$UCSNAME
  2

  9
$UCSORG
 10
0.0
 20
0.0
 30
0.0
  9
$UCSXDIR
 10
1.0
 20
0.0
 30
0.0
  9
$UCSYDIR
 10
0.0
 20
1.0
 30
0.0
  9
$PUCSNAME
  2

  9
$PUCSORG
 10
0.0
 20
0.0
 30
0.0
  9
$PUCSXDIR
 10
1.0
 20
0.0
 30
0.0
  9
$PUCSYDIR
 10
0.0
 20
1.0
 30
0.0
  9
$USERI1
 70
     0
  9
$USERI2
 70
     0
  9
$USERI3
 70
     0
  9
$USERI4
 70
     0
  9
$USERI5
 70
     0
  9
$USERR1
 40
0.0
  9
$USERR2
 40
0.0
  9
$USERR3
 40
0.0
  9
$USERR4
 40
0.0
  9
$USERR5
 40
0.0
  9
$WORLDVIEW
 70
     1
  9
$SHADEDGE
 70
     3
  9
$SHADEDIF
 70
    70
  9
$TILEMODE
 70
     1
  9
$MAXACTVP
 70
    16
  9
$PINSBASE
 10
0.0
 20
0.0
 30
0.0
  9
$PLIMCHECK
 70
     0
  9
$PEXTMIN
 10
1.000000000000000E+20
 20
1.000000000000000E+20
 30
1.000000000000000E+20
  9
$PEXTMAX
 10
-1.000000000000000E+20
 20
-1.000000000000000E+20
 30
-1.000000000000000E+20
  9
$PLIMMIN
 10
0.0
 20
0.0
  9
$PLIMMAX
 10
12.0
 20
9.0
  9
$UNITMODE
 70
     0
  9
$VISRETAIN
 70
     0
  9
$PLINEGEN
 70
     1
  9
$PSLTSCALE
 70
     1
  9
$TREEDEPTH
 70
  3020
  9
$PICKSTYLE
 70
     1
  9
$CMLSTYLE
  2
STANDARD
  9
$CMLJUST
 70
     0
  9
$CMLSCALE
 40
1.0
  9
$PROXYGRAPHICS
 70
     1
  9
$MEASUREMENT
 70
     0
  0
ENDSEC
  0
SECTION
  2
CLASSES
  0
CLASS
  1
LWPOLYLINE
  2
AcDbPolyline
  3
AutoCAD 2000
 90
        0
280
     0
281
     1
  0
CLASS
  1
DICTIONARYVAR
  2
AcDbDictionaryVar
  3
AutoCAD 2000
 90
        0
280
     0
281
     0
  0
CLASS
  1
ACDBDICTIONARYWDFLT
  2
AcDbDictionaryWithDefault
  3
AutoCAD 2000
 90
        0
280
     0
281
     0
  0
CLASS
  1
ACDBPLACEHOLDER
  2
AcDbPlaceHolder
  3
AutoCAD 2000
 90
        0
280
     0
281
     0
  0
CLASS
  1
LAYOUT
  2
AcDbLayout
  3
AutoCAD 2000
 90
        0
280
     0
281
     0
  0
CLASS
  1
LONG_TRANSACTION
  2
AcDbLongTransaction
  3
AutoCAD 2000
 90
        0
280
     0
281
     0
  0
CLASS
  1
LWPOLYLINE
  2
AcDbPolyline
  3
AutoCAD 2000
 90
        0
280
     0
281
     1
  0
CLASS
  1
HATCH
  2
AcDbHatch
  3
AutoCAD 2000
 90
        0
280
     0
281
     1
  0
CLASS
  1
XRECORD
  2
AcDbXrecord
  3
AutoCAD 2000
 90
        0
280
     0
281
     0
  0
ENDSEC
  0
SECTION
  2
TABLES
  0
TABLE
  2
VPORT
  5
12
330
0
100
AcDbSymbolTable
 70
     2
  0
VPORT
  5
35B
330
12
100
AcDbSymbolTableRecord
100
AcDbViewportTableRecord
  2
*ACTIVE
 70
     0
 10
0.0
 20
0.0
 11
1.0
 21
1.0
 12
3.833172153368293
 22
2.418973382010682
 13
0.0
 23
0.0
 14
1.0
 24
1.0
 15
0.0
 25
0.0
 16
0.0
 26
0.0
 36
1.0
 17
0.0
 27
0.0
 37
0.0
 40
2.164010433778377
 41
4.320930232558139
 42
50.0
 43
0.0
 44
0.0
 50
0.0
 51
0.0
 71
     0
 72
  2000
 73
     1
 74
     1
 75
     0
 76
     0
 77
     0
 78
     0
  0
ENDTAB
  0
TABLE
  2
LTYPE
  5
E
330
0
100
AcDbSymbolTable
 70
     1
  0
LTYPE
  5
F
330
E
100
AcDbSymbolTableRecord
100
AcDbLinetypeTableRecord
  2
BYBLOCK
 70
     0
  3

 72
    65
 73
     0
 40
0.0
  0
LTYPE
  5
6
330
E
100
AcDbSymbolTableRecord
100
AcDbLinetypeTableRecord
  2
BYLAYER
 70
     0
  3

 72
    65
 73
     0
 40
0.0
  0
LTYPE
  5
5
330
E
100
AcDbSymbolTableRecord
100
AcDbLinetypeTableRecord
  2
CONTINUOUS
 70
     0
  3
Solid line
 72
    65
 73
     0
 40
0.0
  0
ENDTAB
  0
TABLE
  2
LAYER
  5
B
330
0
100
AcDbSymbolTable
 70
     2
  0
LAYER
  5
4
330
B
100
AcDbSymbolTableRecord
100
AcDbLayerTableRecord
  2
0
 70
     0
 62
     7
  6
CONTINUOUS
  0
LAYER
  5
1B
330
B
100
AcDbSymbolTableRecord
100
AcDbLayerTableRecord
  2
TEXT
 70
     0
 62
     3
  6
CONTINUOUS
  0
ENDTAB
  0
TABLE
  2
STYLE
  5
C
330
0
100
AcDbSymbolTable
 70
     3
  0
STYLE
  5
D
330
C
100
AcDbSymbolTableRecord
100
AcDbTextStyleTableRecord
  2
STANDARD
 70
     0
 40
0.0
 41
1.0
 50
0.0
 71
     0
 42
0.25
  3
txt
  4

  0
STYLE
  5
1C
330
C
100
AcDbSymbolTableRecord
100
AcDbTextStyleTableRecord
  2
ROMANS
 70
     0
 40
0.0
 41
1.0
 50
0.0
 71
     0
 42
0.125
  3
romans.shx
  4

  0
STYLE
  5
24A
330
C
100
AcDbSymbolTableRecord
100
AcDbTextStyleTableRecord
  2
ITALICC
 70
     0
 40
0.0
 41
1.0
 50
0.0
 71
     0
 42
0.125
  3
italicc
  4

  0
ENDTAB
  0
TABLE
  2
VIEW
  5
10
330
0
100
AcDbSymbolTable
 70
     0
  0
ENDTAB
  0
TABLE
  2
UCS
  5
11
330
0
100
AcDbSymbolTable
 70
     1
  0
UCS
  5
1F
330
11
100
AcDbSymbolTableRecord
100
AcDbUCSTableRecord
  2
APOL_UCS_SAVE
 70
     0
 10
0.0
 20
0.0
 30
0.0
 11
1.0
 21
0.0
 31
0.0
 12
0.0
 22
1.0
 32
0.0
  0
ENDTAB
  0
TABLE
  2
APPID
  5
14
330
0
100
AcDbSymbolTable
 70
     1
  0
APPID
  5
15
330
14
100
AcDbSymbolTableRecord
100
AcDbRegAppTableRecord
  2
ACAD
 70
     0
  0
ENDTAB
  0
TABLE
  2
DIMSTYLE
  5
16
330
0
100
AcDbSymbolTable
 70
     1
  0
DIMSTYLE
105
1E
330
16
100
AcDbSymbolTableRecord
100
AcDbDimStyleTableRecord
  2
STANDARD
 70
     0
  3

  4

  5

  6

  7

 40
1.0
 41
0.125
 42
0.125
 43
0.38
 44
0.125
 45
0.0
 46
0.0
 47
0.0
 48
0.0
140
0.125
141
-0.125
142
0.0
143
25.4
144
0.25
145
0.0
146
1.0
147
0.09
 71
     0
 72
     0
 73
     1
 74
     1
 75
     0
 76
     0
 77
     0
 78
     4
170
     0
171
     2
172
     0
173
     0
174
     1
175
     0
176
     0
177
     0
178
     0
270
     2
271
     3
272
     3
273
     2
274
     2
340
1C
275
     0
280
     0
281
     0
282
     0
283
     1
284
     4
285
     0
286
     0
287
     3
288
     0
  0
ENDTAB
  0
TABLE
  2
BLOCK_RECORD
  5
1
330
0
100
AcDbSymbolTable
 70
     0
  0
BLOCK_RECORD
  5
2
102
{ACAD_XDICTIONARY
360
37C
102
}
330
1
100
AcDbSymbolTableRecord
100
AcDbBlockTableRecord
  2
*MODEL_SPACE
  0
BLOCK_RECORD
  5
8
102
{ACAD_XDICTIONARY
360
37E
102
}
330
1
100
AcDbSymbolTableRecord
100
AcDbBlockTableRecord
  2
*PAPER_SPACE
  0
ENDTAB
  0
ENDSEC
  0
SECTION
  2
BLOCKS
  0
BLOCK
  5
3
330
2
100
AcDbEntity
  8
0
100
AcDbBlockBegin
  2
*MODEL_SPACE
 70
     0
 10
0.0
 20
0.0
 30
0.0
  3
*MODEL_SPACE
  1

  0
ENDBLK
  5
7
330
2
100
AcDbEntity
  8
0
100
AcDbBlockEnd
  0
BLOCK
  5
9
330
8
100
AcDbEntity
 67
     1
  8
0
100
AcDbBlockBegin
  2
*PAPER_SPACE
 70
     0
 10
0.0
 20
0.0
 30
0.0
  3
*PAPER_SPACE
  1

  0
ENDBLK
  5
A
330
8
100
AcDbEntity
 67
     1
  8
0
100
AcDbBlockEnd
  0
ENDSEC
  0
SECTION
  2
ENTITIES
  0
LWPOLYLINE
  5
5C
330
2
100
AcDbEntity
  8
0
100
AcDbPolyline
 90
       13
 70
     1
 43
0.0
 10
0.9685024019045098
 20
3.058784337881636
 10
0.9885024019045099
 20
3.038784337881635
 10
0.9885024019045099
 20
2.74378433788164
 42
0.4142135623730951
 10
1.048502401904511
 20
2.68378433788164
 42
0.4142135623730951
 10
1.108502401904511
 20
2.74378433788164
 10
1.108502401904511
 20
3.03878433788164
 10
1.128502401904511
 20
3.05878433788164
 10
1.153502401904525
 20
3.05878433788164
 10
1.198502401904525
 20
3.013784337881642
 10
1.198502401904525
 20
2.55878433788164
 10
0.8985024019044924
 20
2.55878433788164
 10
0.8985024019044924
 20
3.01378433788164
 10
0.9435024019044924
 20
3.05878433788164
  0
TEXT
  5
2CF
330
2
100
AcDbEntity
  8
TEXT
100
AcDbText
 10
0.1699900754978778
 20
2.237122115373078
 30
0.0
 40
0.125
  1
PART #110581
  7
ITALICC
 72
     1
 11
0.9110615040693064
 21
2.237122115373078
 31
0.0
100
AcDbText
  0
LINE
  5
2D0
330
2
100
AcDbEntity
  8
TEXT
100
AcDbLine
 10
0.8787950030213691
 20
1.992768429353245
 30
0.0
 11
0.9554429843139269
 21
1.992768429353245
 31
0.0
  0
LINE
  5
2D1
330
2
100
AcDbEntity
  8
TEXT
100
AcDbLine
 10
0.9509630969874267
 20
2.05704512401001
 30
0.0
 11
0.8834633793379103
 21
2.05704512401001
 31
0.0
  0
LWPOLYLINE
  5
2D2
330
2
100
AcDbEntity
  8
TEXT
100
AcDbPolyline
 90
        5
 70
     0
 43
0.0001332181640625
 10
-0.7583170395133059
 20
1.933818322252197
 10
-0.7449952231070572
 20
1.933818322252197
 10
-0.7449952231070572
 20
1.970453317369387
 10
-0.7083602279898673
 20
1.970453317369387
 10
-0.7083602279898673
 20
1.983775133775634
  0
LWPOLYLINE
  5
2D3
330
2
100
AcDbEntity
  8
TEXT
100
AcDbPolyline
 90
        3
 70
     0
 43
0.0006660908203125
 10
-0.7183515902945579
 20
2.030401491197513
 10
-0.8049433969351827
 20
2.030401491197513
 10
-0.8049433969351827
 20
1.943809684556886
  0
LWPOLYLINE
  5
2D4
330
2
100
AcDbEntity
  8
TEXT
100
AcDbPolyline
 90
        3
 70
     0
 43
0.0006660908203125
 10
-0.7183515902945579
 20
2.057045124010014
 10
-0.8315870297476802
 20
2.057045124010014
 10
-0.8315870297476802
 20
1.943809684556886
  0
LWPOLYLINE
  5
2D5
330
2
100
AcDbEntity
  8
TEXT
100
AcDbPolyline
 90
        5
 70
     0
 43
0.0001332181640625
 10
-0.7083602279898673
 20
1.863878786119387
 10
-0.7083602279898673
 20
1.877200602525637
 10
-0.7449952231070554
 20
1.877200602525637
 10
-0.7449952231070554
 20
1.913835597642823
 10
-0.7583170395133059
 20
1.913835597642823
  0
LWPOLYLINE
  5
2D6
330
2
100
AcDbEntity
  8
TEXT
100
AcDbPolyline
 90
        3
 70
     0
 43
0.0006660908203125
 10
-0.8049433969351827
 20
1.903844235338138
 10
-0.8049433969351827
 20
1.817252428697512
 10
-0.7183515902945579
 20
1.817252428697512
  0
LWPOLYLINE
  5
2D7
330
2
100
AcDbEntity
  8
TEXT
100
AcDbPolyline
 90
        3
 70
     0
 43
0.0006660908203125
 10
-0.8315870297476802
 20
1.903844235338138
 10
-0.8315870297476802
 20
1.79060879588501
 10
-0.7183515902945579
 20
1.79060879588501
  0
LWPOLYLINE
  5
2D8
330
2
100
AcDbEntity
  8
TEXT
100
AcDbPolyline
 90
        2
 70
     0
 43
0.0001332181640625
 10
-0.8049433969351827
 20
1.903844235338138
 10
-0.7449952231070554
 20
1.913835597642823
  0
LWPOLYLINE
  5
2D9
330
2
100
AcDbEntity
  8
TEXT
100
AcDbPolyline
 90
        2
 70
     0
 43
0.0001332181640625
 10
-0.7583170395133059
 20
1.913835597642823
 10
-0.8315870297476802
 20
1.903844235338138
  0
LWPOLYLINE
  5
2DA
330
2
100
AcDbEntity
  8
TEXT
100
AcDbPolyline
 90
        2
 70
     0
 43
0.0006660908203125
 10
-0.8049433969351827
 20
1.903844235338138
 10
-0.8315870297476802
 20
1.903844235338138
  0
LWPOLYLINE
  5
2DB
330
2
100
AcDbEntity
  8
TEXT
100
AcDbPolyline
 90
        2
 70
     0
 43
0.0001332181640625
 10
-0.8049433969351827
 20
1.817252428697512
 10
-0.7449952231070554
 20
1.877200602525637
  0
LWPOLYLINE
  5
2DC
330
2
100
AcDbEntity
  8
TEXT
100
AcDbPolyline
 90
        2
 70
     0
 43
0.0006660908203125
 10
-0.8049433969351827
 20
1.943809684556886
 10
-0.8315870297476802
 20
1.943809684556886
  0
LWPOLYLINE
  5
2DD
330
2
100
AcDbEntity
  8
TEXT
100
AcDbPolyline
 90
        2
 70
     0
 43
0.0001332181640625
 10
-0.8315870297476802
 20
1.943809684556886
 10
-0.7583170395133059
 20
1.933818322252197
  0
LWPOLYLINE
  5
2DE
330
2
100
AcDbEntity
  8
TEXT
100
AcDbPolyline
 90
        2
 70
     0
 43
0.0001332181640625
 10
-0.8049433969351827
 20
1.943809684556886
 10
-0.7449952231070572
 20
1.933818322252197
  0
LWPOLYLINE
  5
2DF
330
2
100
AcDbEntity
  8
TEXT
100
AcDbPolyline
 90
        2
 70
     0
 43
0.0001332181640625
 10
-0.8049433969351827
 20
2.030401491197513
 10
-0.7449952231070572
 20
1.970453317369387
  0
LWPOLYLINE
  5
2E0
330
2
100
AcDbEntity
  8
TEXT
100
AcDbPolyline
 90
        5
 70
     0
 43
0.0001332181640625
 10
-0.6384206918570566
 20
1.913835597642823
 10
-0.6517425082633053
 20
1.913835597642823
 10
-0.6517425082633053
 20
1.877200602525637
 10
-0.6883775033804951
 20
1.877200602525637
 10
-0.6883775033804951
 20
1.863878786119387
  0
LWPOLYLINE
  5
2E1
330
2
100
AcDbEntity
  8
TEXT
100
AcDbPolyline
 90
        2
 70
     0
 43
0.0001332181640625
 10
-0.5917943344351815
 20
1.903844235338138
 10
-0.6517425082633053
 20
1.913835597642823
  0
LWPOLYLINE
  5
2E2
330
2
100
AcDbEntity
  8
TEXT
100
AcDbPolyline
 90
        2
 70
     0
 43
0.0001332181640625
 10
-0.5651507016226805
 20
1.903844235338138
 10
-0.6384206918570566
 20
1.913835597642823
  0
LWPOLYLINE
  5
2E3
330
2
100
AcDbEntity
  8
TEXT
100
AcDbPolyline
 90
        3
 70
     0
 43
0.0006660908203125
 10
-0.6783861410758063
 20
1.79060879588501
 10
-0.5651507016226805
 20
1.79060879588501
 10
-0.5651507016226805
 20
1.903844235338138
  0
LWPOLYLINE
  5
2E4
330
2
100
AcDbEntity
  8
TEXT
100
AcDbPolyline
 90
        3
 70
     0
 43
0.0006660908203125
 10
-0.6783861410758063
 20
1.817252428697512
 10
-0.5917943344351815
 20
1.817252428697512
 10
-0.5917943344351815
 20
1.903844235338138
  0
LWPOLYLINE
  5
2E5
330
2
100
AcDbEntity
  8
TEXT
100
AcDbPolyline
 90
        2
 70
     0
 43
0.0001332181640625
 10
-0.5917943344351815
 20
1.817252428697512
 10
-0.6517425082633053
 20
1.877200602525637
  0
LWPOLYLINE
  5
2E6
330
2
100
AcDbEntity
  8
TEXT
100
AcDbPolyline
 90
        2
 70
     0
 43
0.0006660908203125
 10
-0.6783861410758063
 20
1.817252428697512
 10
-0.6783861410758063
 20
1.79060879588501
  0
LWPOLYLINE
  5
2E7
330
2
100
AcDbEntity
  8
TEXT
100
AcDbPolyline
 90
        2
 70
     0
 43
0.0001332181640625
 10
-0.6883775033804951
 20
1.863878786119387
 10
-0.6783861410758063
 20
1.79060879588501
  0
LWPOLYLINE
  5
2E8
330
2
100
AcDbEntity
  8
TEXT
100
AcDbPolyline
 90
        2
 70
     0
 43
0.0001332181640625
 10
-0.6783861410758063
 20
1.817252428697512
 10
-0.6883775033804951
 20
1.877200602525637
  0
LWPOLYLINE
  5
2E9
330
2
100
AcDbEntity
  8
TEXT
100
AcDbPolyline
 90
        2
 70
     0
 43
0.0001332181640625
 10
-0.7183515902945579
 20
1.79060879588501
 10
-0.7083602279898673
 20
1.863878786119387
  0
LWPOLYLINE
  5
2EA
330
2
100
AcDbEntity
  8
TEXT
100
AcDbPolyline
 90
        2
 70
     0
 43
0.0001332181640625
 10
-0.7183515902945579
 20
1.817252428697512
 10
-0.7083602279898673
 20
1.877200602525637
  0
LWPOLYLINE
  5
2EB
330
2
100
AcDbEntity
  8
TEXT
100
AcDbPolyline
 90
        2
 70
     0
 43
0.0006660908203125
 10
-0.7183515902945579
 20
1.817252428697512
 10
-0.7183515902945579
 20
1.79060879588501
  0
LWPOLYLINE
  5
2EC
330
2
100
AcDbEntity
  8
TEXT
100
AcDbPolyline
 90
        2
 70
     0
 43
0.0006660908203125
 10
-0.5917943344351815
 20
1.903844235338138
 10
-0.5651507016226805
 20
1.903844235338138
  0
LWPOLYLINE
  5
2ED
330
2
100
AcDbEntity
  8
TEXT
100
AcDbPolyline
 90
        2
 70
     0
 43
0.0001332181640625
 10
-0.5917943344351815
 20
2.030401491197513
 10
-0.6517425082633053
 20
1.970453317369387
  0
LWPOLYLINE
  5
2EE
330
2
100
AcDbEntity
  8
TEXT
100
AcDbPolyline
 90
        2
 70
     0
 43
0.0001332181640625
 10
-0.5917943344351815
 20
1.943809684556886
 10
-0.6517425082633053
 20
1.933818322252197
  0
LWPOLYLINE
  5
2EF
330
2
100
AcDbEntity
  8
TEXT
100
AcDbPolyline
 90
        2
 70
     0
 43
0.0001332181640625
 10
-0.6384206918570566
 20
1.933818322252197
 10
-0.5651507016226805
 20
1.943809684556886
  0
LWPOLYLINE
  5
2F0
330
2
100
AcDbEntity
  8
TEXT
100
AcDbPolyline
 90
        3
 70
     0
 43
0.0006660908203125
 10
-0.5917943344351815
 20
1.943809684556886
 10
-0.5917943344351815
 20
2.030401491197513
 10
-0.6783861410758063
 20
2.030401491197513
  0
LWPOLYLINE
  5
2F1
330
2
100
AcDbEntity
  8
TEXT
100
AcDbPolyline
 90
        3
 70
     0
 43
0.0006660908203125
 10
-0.5651507016226805
 20
1.943809684556886
 10
-0.5651507016226805
 20
2.057045124010014
 10
-0.6783861410758063
 20
2.057045124010014
  0
LWPOLYLINE
  5
2F2
330
2
100
AcDbEntity
  8
TEXT
100
AcDbPolyline
 90
        2
 70
     0
 43
0.0001332181640625
 10
-0.6783861410758063
 20
2.057045124010014
 10
-0.6883775033804951
 20
1.983775133775634
  0
LWPOLYLINE
  5
2F3
330
2
100
AcDbEntity
  8
TEXT
100
AcDbPolyline
 90
        2
 70
     0
 43
0.0001332181640625
 10
-0.6783861410758063
 20
2.030401491197513
 10
-0.6883775033804951
 20
1.970453317369387
  0
LWPOLYLINE
  5
2F4
330
2
100
AcDbEntity
  8
TEXT
100
AcDbPolyline
 90
        2
 70
     0
 43
0.0006660908203125
 10
-0.6783861410758063
 20
2.030401491197513
 10
-0.6783861410758063
 20
2.057045124010014
  0
LWPOLYLINE
  5
2F5
330
2
100
AcDbEntity
  8
TEXT
100
AcDbPolyline
 90
        5
 70
     0
 43
0.0001332181640625
 10
-0.6883775033804951
 20
1.983775133775634
 10
-0.6883775033804951
 20
1.970453317369387
 10
-0.6517425082633053
 20
1.970453317369387
 10
-0.6517425082633053
 20
1.933818322252197
 10
-0.6384206918570566
 20
1.933818322252197
  0
LWPOLYLINE
  5
2F6
330
2
100
AcDbEntity
  8
TEXT
100
AcDbPolyline
 90
        2
 70
     0
 43
0.0001332181640625
 10
-0.7183515902945579
 20
2.030401491197513
 10
-0.7083602279898673
 20
1.970453317369387
  0
LWPOLYLINE
  5
2F7
330
2
100
AcDbEntity
  8
TEXT
100
AcDbPolyline
 90
        2
 70
     0
 43
0.0001332181640625
 10
-0.7083602279898673
 20
1.983775133775634
 10
-0.7183515902945579
 20
2.057045124010014
  0
LWPOLYLINE
  5
2F8
330
2
100
AcDbEntity
  8
TEXT
100
AcDbPolyline
 90
        2
 70
     0
 43
0.0006660908203125
 10
-0.7183515902945579
 20
2.030401491197513
 10
-0.7183515902945579
 20
2.057045124010014
  0
LWPOLYLINE
  5
2F9
330
2
100
AcDbEntity
  8
TEXT
100
AcDbPolyline
 90
        2
 70
     0
 43
0.0006660908203125
 10
-0.5917943344351815
 20
1.943809684556886
 10
-0.5651507016226805
 20
1.943809684556886
  0
LWPOLYLINE
  5
2FA
330
2
100
AcDbEntity
  8
TEXT
100
AcDbPolyline
 90
        2
 70
     0
 43
0.0
 10
0.1536292191259498
 20
1.842123433236428
 42
0.3318488747599744
 10
0.2227485116912629
 20
1.790572091021499
 42
-6.868794160588311
  0
LINE
  5
2FB
330
2
100
AcDbEntity
  8
TEXT
100
AcDbLine
 10
0.2216089381950672
 20
2.125056601748821
 30
0.0
 11
0.1548002256287022
 21
2.125056601748821
 31
0.0
  0
LINE
  5
2FC
330
2
100
AcDbEntity
  8
TEXT
100
AcDbLine
 10
-0.1245421419903918
 20
2.05704512401001
 30
0.0
 11
-0.3002738948889032
 21
2.05704512401001
 31
0.0
  0
ARC
  5
2FD
330
2
100
AcDbEntity
  8
TEXT
100
AcDbCircle
 10
-0.2294364285303536
 20
1.873767899382056
 30
0.0
 40
0.0831958083605586
100
AcDbArc
 50
270.0
 51
90.0
  0
LINE
  5
2FE
330
2
100
AcDbEntity
  8
TEXT
100
AcDbLine
 10
-0.2950365647746551
 20
1.992768429353245
 30
0.0
 11
-0.1281309107456847
 21
1.992768429353245
 31
0.0
  0
LINE
  5
2FF
330
2
100
AcDbEntity
  8
TEXT
100
AcDbLine
 10
-0.2244960546240744
 20
1.858929097354939
 30
0.0
 11
-0.3823613543354085
 21
1.858929097354939
 31
0.0
  0
LINE
  5
300
330
2
100
AcDbEntity
  8
TEXT
100
AcDbLine
 10
-0.3823613543354067
 20
1.790572091021499
 30
0.0
 11
-0.2294364285303541
 21
1.790572091021499
 31
0.0
  0
ARC
  5
301
330
2
100
AcDbEntity
  8
TEXT
100
AcDbCircle
 10
-0.3002738948889028
 20
1.974957664563508
 30
0.0
 40
0.0820874594465043
100
AcDbArc
 50
90.0
 51
270.0
  0
LINE
  5
302
330
2
100
AcDbEntity
  8
TEXT
100
AcDbLine
 10
-0.3823613543354085
 20
1.858929097354939
 30
0.0
 11
-0.3823613543354067
 21
1.790572091021499
 31
0.0
  0
LINE
  5
303
330
2
100
AcDbEntity
  8
TEXT
100
AcDbLine
 10
-0.3002738948889032
 20
1.892870205117003
 30
0.0
 11
-0.2244960546240744
 21
1.892870205117003
 31
0.0
  0
ARC
  5
304
330
2
100
AcDbEntity
  8
TEXT
100
AcDbCircle
 10
-0.224496054624074
 20
1.875899651235973
 30
0.0
 40
0.0169705538810321
100
AcDbArc
 50
270.0
 51
90.0
  0
LINE
  5
305
330
2
100
AcDbEntity
  8
TEXT
100
AcDbLine
 10
-0.2294364285303541
 20
1.956963707742617
 30
0.0
 11
-0.2950365647746551
 21
1.956963707742617
 31
0.0
  0
ARC
  5
306
330
2
100
AcDbEntity
  8
TEXT
100
AcDbCircle
 10
-0.2950365647746547
 20
1.974866068547933
 30
0.0
 40
0.017902360805315
100
AcDbArc
 50
90.0
 51
270.0
  0
LINE
  5
307
330
2
100
AcDbEntity
  8
TEXT
100
AcDbLine
 10
0.0659297500294605
 20
1.95617312789689
 30
0.0
 11
0.0072994289975226
 21
2.05704512401001
 31
0.0
  0
LINE
  5
308
330
2
100
AcDbEntity
  8
TEXT
100
AcDbLine
 10
-0.0742443032655791
 20
1.790572091021499
 30
0.0
 11
0.0223959478094154
 21
1.790842730119782
 31
0.0
  0
LWPOLYLINE
  5
309
330
2
100
AcDbEntity
  8
TEXT
100
AcDbPolyline
 90
        6
 70
     1
 43
0.0
 10
-0.031720499690429
 20
1.992768429353245
 10
-0.0620370939106372
 20
1.992768429353245
 10
-0.0620370939106372
 20
1.86965743129835
 42
0.407328721240804
 10
-0.0504934427491608
 20
1.857838516621964
 10
0.01012825629557
 20
1.857838516621964
 10
0.027593596702888
 20
1.890650745665443
  0
LINE
  5
30A
330
2
100
AcDbEntity
  8
TEXT
100
AcDbLine
 10
-0.1281309107456847
 20
1.992768429353245
 30
0.0
 11
-0.1281309107456847
 21
1.850364482359549
 31
0.0
  0
ARC
  5
30B
330
2
100
AcDbEntity
  8
TEXT
100
AcDbCircle
 10
-0.0680148927719322
 20
1.850364482359549
 30
0.0
 40
0.0601160179737537
100
AcDbArc
 50
180.0000000000003
 51
264.0521544866073
  0
LINE
  5
30C
330
2
100
AcDbEntity
  8
TEXT
100
AcDbLine
 10
-0.0644995371463848
 20
2.091433041604148
 30
0.0
 11
-0.1245421419903918
 21
2.091433041604148
 31
0.0
  0
LINE
  5
30D
330
2
100
AcDbEntity
  8
TEXT
100
AcDbLine
 10
-0.1245421419903918
 20
2.091433041604148
 30
0.0
 11
-0.1245421419903918
 21
2.05704512401001
 31
0.0
  0
LINE
  5
30E
330
2
100
AcDbEntity
  8
TEXT
100
AcDbLine
 10
-0.0644995371463848
 20
2.05704512401001
 30
0.0
 11
-0.0644995371463848
 21
2.091433041604148
 31
0.0
  0
LINE
  5
30F
330
2
100
AcDbEntity
  8
TEXT
100
AcDbLine
 10
0.0072994289975226
 20
2.05704512401001
 30
0.0
 11
-0.0644995371463848
 21
2.05704512401001
 31
0.0
  0
LINE
  5
310
330
2
100
AcDbEntity
  8
TEXT
100
AcDbLine
 10
0.0563295130325061
 20
1.810530597126512
 30
0.0
 11
0.1536292191259507
 21
1.97488080806178
 31
0.0
  0
LINE
  5
311
330
2
100
AcDbEntity
  8
TEXT
100
AcDbLine
 10
0.1536292191259507
 20
1.97488080806178
 30
0.0
 11
0.1536292191259507
 21
1.842123433236424
 31
0.0
  0
ARC
  5
312
330
2
100
AcDbEntity
  8
TEXT
100
AcDbCircle
 10
0.0222859531202926
 20
1.830119813295195
 30
0.0
 40
0.0392772371940762
100
AcDbArc
 50
270.1604552698595
 51
330.0831797321295
  0
LINE
  5
313
330
2
100
AcDbEntity
  8
TEXT
100
AcDbLine
 10
0.1246783128353259
 20
2.05704512401001
 30
0.0
 11
0.0659297500294605
 21
1.95617312789689
 31
0.0
  0
LINE
  5
314
330
2
100
AcDbEntity
  8
TEXT
100
AcDbLine
 10
0.1548002256287022
 20
2.125056601748821
 30
0.0
 11
0.1548002256287022
 21
2.05704512401001
 31
0.0
  0
LINE
  5
315
330
2
100
AcDbEntity
  8
TEXT
100
AcDbLine
 10
0.1548002256287022
 20
2.05704512401001
 30
0.0
 11
0.1246783128353259
 21
2.05704512401001
 31
0.0
  0
LWPOLYLINE
  5
316
330
2
100
AcDbEntity
  8
TEXT
100
AcDbPolyline
 90
        4
 70
     0
 43
0.0
 10
0.5068863472488605
 20
1.985214640187135
 10
0.5068863472488605
 20
1.790572091021499
 10
0.5753646305367184
 20
1.790572091021499
 10
0.5753646305367184
 20
1.834063035971937
 42
-1.714843617202739
  0
LWPOLYLINE
  5
317
330
2
100
AcDbEntity
  8
TEXT
100
AcDbPolyline
 90
        2
 70
     0
 43
0.0
 10
0.5420206977930704
 20
2.057045124010014
 42
-0.3277054968067132
 10
0.5778023885062354
 20
2.02872257824037
 42
6.667889725900311
  0
LWPOLYLINE
  5
318
330
2
100
AcDbEntity
  8
TEXT
100
AcDbPolyline
 90
        2
 70
     0
 43
0.0
 10
0.3705871252138433
 20
1.992768429353245
 42
-0.4142135623731017
 10
0.3781409143799568
 20
1.985214640187135
 42
-0.9999999999999998
  0
LINE
  5
319
330
2
100
AcDbEntity
  8
TEXT
100
AcDbLine
 10
0.3879388482638637
 20
2.05704512401001
 30
0.0
 11
0.2539207923327273
 21
2.05704512401001
 31
0.0
  0
LINE
  5
31A
330
2
100
AcDbEntity
  8
TEXT
100
AcDbLine
 10
0.3207518453906966
 20
1.790572091021499
 30
0.0
 11
0.3207518453906966
 21
1.992768429353245
 31
0.0
  0
LINE
  5
31B
330
2
100
AcDbEntity
  8
TEXT
100
AcDbLine
 10
0.2539207923327273
 20
2.05704512401001
 30
0.0
 11
0.2539207923327273
 21
1.856180917277602
 31
0.0
  0
LINE
  5
31C
330
2
100
AcDbEntity
  8
TEXT
100
AcDbLine
 10
0.2216089381950672
 20
1.872959929124498
 30
0.0
 11
0.2216089381950672
 21
2.125056601748821
 31
0.0
  0
LINE
  5
31D
330
2
100
AcDbEntity
  8
TEXT
100
AcDbLine
 10
0.222748511691262
 20
1.790572091021499
 30
0.0
 11
0.3207518453906966
 21
1.790572091021499
 31
0.0
  0
LINE
  5
31E
330
2
100
AcDbEntity
  8
TEXT
100
AcDbLine
 10
0.2539207923327273
 20
1.856180917277602
 30
0.0
 11
0.236927155448126
 21
1.856180917277602
 31
0.0
  0
ARC
  5
31F
330
2
100
AcDbEntity
  8
TEXT
100
AcDbCircle
 10
0.2369271554481251
 20
1.871562723521027
 30
0.0
 40
0.0153818062434269
100
AcDbArc
 50
174.7883570302258
 51
270.0
  0
LINE
  5
320
330
2
100
AcDbEntity
  8
TEXT
100
AcDbLine
 10
0.3207518453906966
 20
1.992768429353245
 30
0.0
 11
0.3705871252138442
 21
1.992768429353245
 31
0.0
  0
LINE
  5
321
330
2
100
AcDbEntity
  8
TEXT
100
AcDbLine
 10
0.3781409143799577
 20
1.985214640187135
 30
0.0
 11
0.3781409143799577
 21
1.790572091021499
 31
0.0
  0
LINE
  5
322
330
2
100
AcDbEntity
  8
TEXT
100
AcDbLine
 10
0.4451989611617977
 20
1.790572091021499
 30
0.0
 11
0.4451989611617977
 21
1.992768429353245
 31
0.0
  0
LINE
  5
323
330
2
100
AcDbEntity
  8
TEXT
100
AcDbLine
 10
0.3781409143799577
 20
1.790572091021499
 30
0.0
 11
0.4451989611617977
 21
1.790572091021499
 31
0.0
  0
LWPOLYLINE
  5
324
330
2
100
AcDbEntity
  8
TEXT
100
AcDbPolyline
 90
        3
 70
     0
 43
0.0
 10
0.5420206977930704
 20
2.057045124010014
 10
0.423720538977026
 20
2.057045124010014
 10
0.423720538977026
 20
2.029877627249118
 42
-1.960274751411753
  0
LINE
  5
325
330
2
100
AcDbEntity
  8
TEXT
100
AcDbLine
 10
0.4451989611617977
 20
1.992768429353245
 30
0.0
 11
0.4993325580827479
 21
1.992768429353245
 31
0.0
  0
LWPOLYLINE
  5
326
330
2
100
AcDbEntity
  8
TEXT
100
AcDbPolyline
 90
        2
 70
     0
 43
0.0
 10
0.3879388482638646
 20
2.057045124010014
 42
-0.3328679258950098
 10
0.423720538977026
 20
2.029877627249118
 42
6.772930709997214
  0
LWPOLYLINE
  5
327
330
2
100
AcDbEntity
  8
TEXT
100
AcDbPolyline
 90
        2
 70
     0
 43
0.0
 10
0.4993325580827471
 20
1.992768429353245
 42
-0.4142135623731017
 10
0.5068863472488605
 20
1.985214640187135
 42
-0.9999999999999998
  0
ARC
  5
328
330
2
100
AcDbEntity
  8
TEXT
100
AcDbCircle
 10
0.7106073579462269
 20
2.015461556889108
 30
0.0
 40
0.0416329381542859
100
AcDbArc
 50
26.56974201007528
 51
87.20939649401342
  0
LWPOLYLINE
  5
329
330
2
100
AcDbEntity
  8
TEXT
100
AcDbPolyline
 90
        2
 70
     0
 43
0.0
 10
0.618440563404354
 20
1.790572091021499
 10
0.7524579810357306
 20
1.790572091021499
 42
0.9999999999999998
  0
LWPOLYLINE
  5
32A
330
2
100
AcDbEntity
  8
TEXT
100
AcDbPolyline
 90
        4
 70
     1
 43
0.0
 10
0.7323355159658381
 20
1.893536069005524
 10
0.6436751973059796
 20
1.893536069005524
 42
0.9999999999999998
 10
0.6436751973059796
 20
1.851137528501664
 10
0.7323355159658381
 20
1.851137528501664
 42
1.0
  0
LWPOLYLINE
  5
32B
330
2
100
AcDbEntity
  8
TEXT
100
AcDbPolyline
 90
        2
 70
     0
 43
0.0
 10
0.5753646305367184
 20
1.834063035971937
 42
0.2901071551932823
 10
0.618440563404354
 20
1.790572091021499
 42
5.328517124445801
  0
LINE
  5
32C
330
2
100
AcDbEntity
  8
TEXT
100
AcDbLine
 10
0.7126342977232954
 20
2.05704512401001
 30
0.0
 11
0.5778023885062363
 21
2.05704512401001
 31
0.0
  0
LINE
  5
32D
330
2
100
AcDbEntity
  8
TEXT
100
AcDbLine
 10
0.637116484899555
 20
1.955493455891113
 30
0.0
 11
0.7194044746829383
 21
1.955493455891113
 31
0.0
  0
LINE
  5
32E
330
2
100
AcDbEntity
  8
TEXT
100
AcDbLine
 10
0.6836033993788169
 20
1.992768429353245
 30
0.0
 11
0.5763971259915275
 21
1.992768429353245
 31
0.0
  0
LINE
  5
32F
330
2
100
AcDbEntity
  8
TEXT
100
AcDbLine
 10
0.5778023885062363
 20
2.05704512401001
 30
0.0
 11
0.5778023885062363
 21
2.028722578240366
 31
0.0
  0
ARC
  5
330
330
2
100
AcDbEntity
  8
TEXT
100
AcDbCircle
 10
0.6371164848995541
 20
1.887807874746994
 30
0.0
 40
0.0676855811441166
100
AcDbArc
 50
90.0
 51
153.7768192527749
  0
LINE
  5
331
330
2
100
AcDbEntity
  8
TEXT
100
AcDbLine
 10
0.5763971259915275
 20
1.992768429353245
 30
0.0
 11
0.5763971259915275
 21
1.917716023279038
 31
0.0
  0
LINE
  5
332
330
2
100
AcDbEntity
  8
TEXT
100
AcDbLine
 10
0.7194044746829383
 20
1.955493455891113
 30
0.0
 11
0.7091397142693739
 21
1.976743995463807
 31
0.0
  0
ARC
  5
333
330
2
100
AcDbEntity
  8
TEXT
100
AcDbCircle
 10
0.683603399378816
 20
1.964409054353247
 30
0.0
 40
0.028359375
100
AcDbArc
 50
25.78218179591245
 51
90.0
  0
LINE
  5
334
330
2
100
AcDbEntity
  8
TEXT
100
AcDbLine
 10
0.8538891277387099
 20
1.790572091021499
 30
0.0
 11
0.8538891277387046
 21
1.967862596452968
 31
0.0
  0
LWPOLYLINE
  5
335
330
2
100
AcDbEntity
  8
TEXT
100
AcDbPolyline
 90
        2
 70
     0
 43
0.0
 10
0.7955339139033751
 20
1.790572091021499
 10
0.853889127738709
 20
1.790572091021499
  0
LWPOLYLINE
  5
336
330
2
100
AcDbEntity
  8
TEXT
100
AcDbPolyline
 90
        2
 70
     0
 43
0.0
 10
0.7955339139033751
 20
1.834063035971937
 42
-0.2901071551932486
 10
0.7524579810357306
 20
1.790572091021499
 42
-5.328517124445184
  0
LWPOLYLINE
  5
337
330
2
100
AcDbEntity
  8
TEXT
100
AcDbPolyline
 90
        2
 70
     0
 43
0.0
 10
0.7955339139033751
 20
1.834063035971937
 10
0.7955339139033751
 20
1.790572091021499
  0
LINE
  5
338
330
2
100
AcDbEntity
  8
TEXT
100
AcDbLine
 10
0.8554911428978373
 20
2.05704512401001
 30
0.0
 11
0.7915942365983364
 21
2.05704512401001
 31
0.0
  0
LINE
  5
339
330
2
100
AcDbEntity
  8
TEXT
100
AcDbLine
 10
0.7915942365983364
 20
2.05704512401001
 30
0.0
 11
0.7915942365983364
 21
1.951833145456583
 31
0.0
  0
LINE
  5
33A
330
2
100
AcDbEntity
  8
TEXT
100
AcDbLine
 10
0.7915942365983364
 20
1.951833145456583
 30
0.0
 11
0.7478434654164348
 21
2.034083421452728
 31
0.0
  0
ARC
  5
33B
330
2
100
AcDbEntity
  8
TEXT
100
AcDbCircle
 10
0.8787950030213682
 20
1.967862554070582
 30
0.0
 40
0.0249058752826653
100
AcDbArc
 50
89.99971217465335
 51
179.9999999999985
  0
ARC
  5
33C
330
2
100
AcDbEntity
  8
TEXT
100
AcDbCircle
 10
0.8866839599609459
 20
2.025799396727745
 30
0.0
 40
0.0314112657011332
100
AcDbArc
 50
95.88484768694724
 51
173.2388340632136
  0
LINE
  5
33D
330
2
100
AcDbEntity
  8
TEXT
100
AcDbLine
 10
0.8554911428978373
 20
2.029497474149136
 30
0.0
 11
0.8554911428978373
 21
2.05704512401001
 31
0.0
  0
TEXT
  5
33E
330
2
100
AcDbEntity
  8
TEXT
100
AcDbText
 10
1.324366662319627
 20
1.883457899666995
 30
0.0
 40
0.0522247191011236
  1
Minneapolis, MN 55432-0008
 41
1.11444212721585
 72
     5
 11
2.653299246589291
 21
1.883457899666995
 31
0.0
100
AcDbText
  0
TEXT
  5
33F
330
2
100
AcDbEntity
  8
TEXT
100
AcDbText
 10
1.324366662319627
 20
1.976716326633288
 30
0.0
 40
0.0522247191011236
  1
6536 Main St. N.E. * P.O. Box 32008
 41
0.8388932496075355
 72
     5
 11
2.653299246589291
 21
1.976716326633288
 31
0.0
100
AcDbText
  0
TEXT
  5
340
330
2
100
AcDbEntity
  8
TEXT
100
AcDbText
 10
1.324366662319627
 20
2.06997475359958
 30
0.0
 40
0.0522247191011236
  1
Stylmark  Incorporated
 41
1.221428571428571
 72
     5
 11
2.653299246589291
 21
2.06997475359958
 31
0.0
100
AcDbText
  0
TEXT
  5
341
330
2
100
AcDbEntity
  8
TEXT
100
AcDbText
 10
1.324366662319627
 20
1.790199472700703
 30
0.0
 40
0.0522247191011236
  1
Phone  1-800-328-2495
 41
1.272321428571429
 72
     5
 11
2.653299246589291
 21
1.790199472700703
 31
0.0
100
AcDbText
  0
LINE
  5
342
330
2
100
AcDbEntity
  8
TEXT
100
AcDbLine
 10
1.076810850856612
 20
1.947151881069037
 30
0.0
 11
1.141367966822318
 21
2.05704512401001
 31
0.0
  0
LINE
  5
343
330
2
100
AcDbEntity
  8
TEXT
100
AcDbLine
 10
1.141367966822318
 20
2.05704512401001
 30
0.0
 11
1.066376134092691
 21
2.05704512401001
 31
0.0
  0
LINE
  5
344
330
2
100
AcDbEntity
  8
TEXT
100
AcDbLine
 10
1.095724701844017
 20
1.790572091021499
 30
0.0
 11
1.172303074220223
 21
1.790572091021499
 31
0.0
  0
LINE
  5
345
330
2
100
AcDbEntity
  8
TEXT
100
AcDbLine
 10
1.172303074220223
 20
1.790572091021499
 30
0.0
 11
1.076810850856612
 21
1.947151881069037
 31
0.0
  0
LINE
  5
346
330
2
100
AcDbEntity
  8
TEXT
100
AcDbLine
 10
1.019821168632552
 20
1.790572091021499
 30
0.0
 11
1.019821168632552
 21
1.922151659497679
 31
0.0
  0
LINE
  5
347
330
2
100
AcDbEntity
  8
TEXT
100
AcDbLine
 10
1.019821168632552
 20
1.922151659497679
 30
0.0
 11
1.095724701844017
 21
1.790572091021499
 31
0.0
  0
LINE
  5
348
330
2
100
AcDbEntity
  8
TEXT
100
AcDbLine
 10
0.9554429843139269
 20
1.992768429353245
 30
0.0
 11
0.9554429843139322
 21
1.790572091021499
 31
0.0
  0
LINE
  5
349
330
2
100
AcDbEntity
  8
TEXT
100
AcDbLine
 10
0.9554429843139322
 20
1.790572091021499
 30
0.0
 11
1.019821168632552
 21
1.790572091021499
 31
0.0
  0
LINE
  5
34A
330
2
100
AcDbEntity
  8
TEXT
100
AcDbLine
 10
1.019277975536705
 20
2.122509329777611
 30
0.0
 11
0.950963096987432
 21
2.122509329777611
 31
0.0
  0
LINE
  5
34B
330
2
100
AcDbEntity
  8
TEXT
100
AcDbLine
 10
0.950963096987432
 20
2.122509329777611
 30
0.0
 11
0.9509630969874267
 21
2.05704512401001
 31
0.0
  0
LINE
  5
34C
330
2
100
AcDbEntity
  8
TEXT
100
AcDbLine
 10
1.066376134092689
 20
2.05704512401001
 30
0.0
 11
1.019277975536705
 21
1.981179797598472
 31
0.0
  0
LINE
  5
34D
330
2
100
AcDbEntity
  8
TEXT
100
AcDbLine
 10
1.019277975536705
 20
1.981179797598472
 30
0.0
 11
1.019277975536705
 21
2.122509329777611
 31
0.0
  0
ENDSEC
  0
SECTION
  2
OBJECTS
  0
DICTIONARY
  5
1A
330
0
100
AcDbDictionary
  3
ACAD_GROUP
350
18
  3
ACAD_LAYOUT
350
352
  3
ACAD_MLINESTYLE
350
19
  3
ACAD_PLOTSETTINGS
350
353
  3
ACAD_PLOTSTYLENAME
350
350
  3
ACDBHEADERROUNDTRIPXREC
350
35C
  3
ACDBVARIABLEDICTIONARY
350
23C
  0
DICTIONARY
  5
37C
330
2
100
AcDbDictionary
280
     1
  3
ACAD_LAYOUTSELFREF
360
37D
  0
DICTIONARY
  5
37E
330
8
100
AcDbDictionary
280
     1
  3
ACAD_LAYOUTSELFREF
360
37F
  0
DICTIONARY
  5
18
102
{ACAD_REACTORS
330
1A
102
}
330
1A
100
AcDbDictionary
  0
DICTIONARY
  5
352
102
{ACAD_REACTORS
330
1A
102
}
330
1A
100
AcDbDictionary
  0
DICTIONARY
  5
19
102
{ACAD_REACTORS
330
1A
102
}
330
1A
100
AcDbDictionary
  3
STANDARD
350
1D
  0
DICTIONARY
  5
353
102
{ACAD_REACTORS
330
1A
102
}
330
1A
100
AcDbDictionary
  0
ACDBDICTIONARYWDFLT
  5
350
102
{ACAD_REACTORS
330
1A
102
}
330
1A
100
AcDbDictionary
281
     1
  3
Normal
350
351
100
AcDbDictionaryWithDefault
340
351
  0
DICTIONARY
  5
35C
102
{ACAD_REACTORS
330
1A
102
}
330
1A
100
AcDbDictionary
  3
CEPSNTYPE
350
366
  3
FINGERPRINTGUID
350
367
  3
HYPERLINKBASE
350
35F
  3
INSUNITS
350
365
  3
LAYOUTDICT
350
361
  3
LWETCUNION
350
364
  3
PLOTSETDICT
350
362
  3
PLOTSTYLNAMDICT
350
363
  3
PSVPSCALE
350
369
  3
PUCSBASE
350
36C
  3
PUCSORGBACK
350
372
  3
PUCSORGBOTTOM
350
36E
  3
PUCSORGFRONT
350
371
  3
PUCSORGLEFT
350
36F
  3
PUCSORGRIGHT
350
370
  3
PUCSORGTOP
350
36D
  3
PUCSORTHOREF
350
36A
  3
PUCSORTHOVIEW
350
36B
  3
STYLESHEET
350
360
  3
TSTACKALIGN
350
35D
  3
TSTACKSIZE
350
35E
  3
UCSBASE
350
375
  3
UCSORGBACK
350
37B
  3
UCSORGBOTTOM
350
377
  3
UCSORGFRONT
350
37A
  3
UCSORGLEFT
350
378
  3
UCSORGRIGHT
350
379
  3
UCSORGTOP
350
376
  3
UCSORTHOREF
350
373
  3
UCSORTHOVIEW
350
374
  3
VERSIONGUID
350
368
  0
DICTIONARY
  5
23C
102
{ACAD_REACTORS
330
1A
102
}
330
1A
100
AcDbDictionary
  3
DIMASSOC
350
35A
  3
SORTENTS
350
23D
  0
XRECORD
  5
37D
102
{ACAD_REACTORS
330
37C
102
}
330
37C
100
AcDbXrecord
340
2
  0
XRECORD
  5
37F
102
{ACAD_REACTORS
330
37E
102
}
330
37E
100
AcDbXrecord
340
8
  0
MLINESTYLE
  5
1D
102
{ACAD_REACTORS
330
19
102
}
330
19
100
AcDbMlineStyle
  2
STANDARD
 70
     0
  3

 62
     0
 51
90.0
 52
90.0
 71
     2
 49
0.5
 62
   256
  6
BYLAYER
 49
-0.5
 62
   256
  6
BYLAYER
  0
ACDBPLACEHOLDER
  5
351
102
{ACAD_REACTORS
330
350
102
}
330
350
100
AcDbPlaceHolder
280
     0
  0
XRECORD
  5
366
102
{ACAD_REACTORS
330
35C
102
}
330
35C
100
AcDbXrecord
 90
        0
  0
XRECORD
  5
367
102
{ACAD_REACTORS
330
35C
102
}
330
35C
100
AcDbXrecord
  1
{AE2B6370-8DB8-11D6-88E6-0090279574E7}
  0
XRECORD
  5
35F
102
{ACAD_REACTORS
330
35C
102
}
330
35C
100
AcDbXrecord
  1

  0
XRECORD
  5
365
102
{ACAD_REACTORS
330
35C
102
}
330
35C
100
AcDbXrecord
 90
        0
  0
XRECORD
  5
361
102
{ACAD_REACTORS
330
35C
102
}
330
35C
100
AcDbXrecord
340
352
  0
XRECORD
  5
364
102
{ACAD_REACTORS
330
35C
102
}
330
35C
100
AcDbXrecord
 90
    14877
  0
XRECORD
  5
362
102
{ACAD_REACTORS
330
35C
102
}
330
35C
100
AcDbXrecord
340
353
  0
XRECORD
  5
363
102
{ACAD_REACTORS
330
35C
102
}
330
35C
100
AcDbXrecord
340
350
  0
XRECORD
  5
369
102
{ACAD_REACTORS
330
35C
102
}
330
35C
100
AcDbXrecord
 40
0.0
  0
XRECORD
  5
36C
102
{ACAD_REACTORS
330
35C
102
}
330
35C
100
AcDbXrecord
340
0
  0
XRECORD
  5
372
102
{ACAD_REACTORS
330
35C
102
}
330
35C
100
AcDbXrecord
 10
0.0
 20
0.0
 30
0.0
  0
XRECORD
  5
36E
102
{ACAD_REACTORS
330
35C
102
}
330
35C
100
AcDbXrecord
 10
0.0
 20
0.0
 30
0.0
  0
XRECORD
  5
371
102
{ACAD_REACTORS
330
35C
102
}
330
35C
100
AcDbXrecord
 10
0.0
 20
0.0
 30
0.0
  0
XRECORD
  5
36F
102
{ACAD_REACTORS
330
35C
102
}
330
35C
100
AcDbXrecord
 10
0.0
 20
0.0
 30
0.0
  0
XRECORD
  5
370
102
{ACAD_REACTORS
330
35C
102
}
330
35C
100
AcDbXrecord
 10
0.0
 20
0.0
 30
0.0
  0
XRECORD
  5
36D
102
{ACAD_REACTORS
330
35C
102
}
330
35C
100
AcDbXrecord
 10
0.0
 20
0.0
 30
0.0
  0
XRECORD
  5
36A
102
{ACAD_REACTORS
330
35C
102
}
330
35C
100
AcDbXrecord
340
0
  0
XRECORD
  5
36B
102
{ACAD_REACTORS
330
35C
102
}
330
35C
100
AcDbXrecord
 70
     0
  0
XRECORD
  5
360
102
{ACAD_REACTORS
330
35C
102
}
330
35C
100
AcDbXrecord
  1

  0
XRECORD
  5
35D
102
{ACAD_REACTORS
330
35C
102
}
330
35C
100
AcDbXrecord
 90
        1
  0
XRECORD
  5
35E
102
{ACAD_REACTORS
330
35C
102
}
330
35C
100
AcDbXrecord
 90
       70
  0
XRECORD
  5
375
102
{ACAD_REACTORS
330
35C
102
}
330
35C
100
AcDbXrecord
340
0
  0
XRECORD
  5
37B
102
{ACAD_REACTORS
330
35C
102
}
330
35C
100
AcDbXrecord
 10
0.0
 20
0.0
 30
0.0
  0
XRECORD
  5
377
102
{ACAD_REACTORS
330
35C
102
}
330
35C
100
AcDbXrecord
 10
0.0
 20
0.0
 30
0.0
  0
XRECORD
  5
37A
102
{ACAD_REACTORS
330
35C
102
}
330
35C
100
AcDbXrecord
 10
0.0
 20
0.0
 30
0.0
  0
XRECORD
  5
378
102
{ACAD_REACTORS
330
35C
102
}
330
35C
100
AcDbXrecord
 10
0.0
 20
0.0
 30
0.0
  0
XRECORD
  5
379
102
{ACAD_REACTORS
330
35C
102
}
330
35C
100
AcDbXrecord
 10
0.0
 20
0.0
 30
0.0
  0
XRECORD
  5
376
102
{ACAD_REACTORS
330
35C
102
}
330
35C
100
AcDbXrecord
 10
0.0
 20
0.0
 30
0.0
  0
XRECORD
  5
373
102
{ACAD_REACTORS
330
35C
102
}
330
35C
100
AcDbXrecord
340
0
  0
XRECORD
  5
374
102
{ACAD_REACTORS
330
35C
102
}
330
35C
100
AcDbXrecord
 70
     0
  0
XRECORD
  5
368
102
{ACAD_REACTORS
330
35C
102
}
330
35C
100
AcDbXrecord
  1
{AE2B6372-8DB8-11D6-88E6-0090279574E7}
  0
DICTIONARYVAR
  5
35A
102
{ACAD_REACTORS
330
23C
102
}
330
23C
100
DictionaryVariables
280
     0
  1
1
  0
DICTIONARYVAR
  5
23D
102
{ACAD_REACTORS
330
23C
102
}
330
23C
100
DictionaryVariables
280
     0
  1
97
  0
ENDSEC
  0
EOF
