  0
SECTION
  2
HEADER
  9
$ACADVER
  1
AC1014
  9
$ACADMAINTVER
 70
     9
  9
$DWGCODEPAGE
  3
ANSI_1252
  9
$INSBASE
 10
47.07598303737455
 20
25.61818608828959
 30
0.0
  9
$EXTMIN
 10
1.942700076281812
 20
3.706820757062886
 30
-5.163330000919089
  9
$EXTMAX
 10
5.427919398028947
 20
6.069864908962895
 30
0.0
  9
$LIMMIN
 10
0.0
 20
0.0
  9
$LIMMAX
 10
8.5
 20
11.0
  9
$ORTHOMODE
 70
     1
  9
$REGENMODE
 70
     1
  9
$FILLMODE
 70
     1
  9
$QTEXTMODE
 70
     0
  9
$MIRRTEXT
 70
     0
  9
$DRAGMODE
 70
     2
  9
$LTSCALE
 40
0.625
  9
$OSMODE
 70
    39
  9
$ATTMODE
 70
     1
  9
$TEXTSIZE
 40
0.125
  9
$TRACEWID
 40
0.05
  9
$TEXTSTYLE
  7
ROMANS
  9
$CLAYER
  8
0
  9
$CELTYPE
  6
CONTINUOUS
  9
$CECOLOR
 62
   256
  9
$CELTSCALE
 40
1.0
  9
$DELOBJ
 70
     1
  9
$DISPSILH
 70
     1
  9
$DIMSCALE
 40
1.0
  9
$DIMASZ
 40
0.125
  9
$DIMEXO
 40
0.125
  9
$DIMDLI
 40
0.375
  9
$DIMRND
 40
0.0
  9
$DIMDLE
 40
0.0
  9
$DIMEXE
 40
0.125
  9
$DIMTP
 40
0.0
  9
$DIMTM
 40
0.01
  9
$DIMTXT
 40
0.125
  9
$DIMCEN
 40
-0.125
  9
$DIMTSZ
 40
0.0
  9
$DIMTOL
 70
     1
  9
$DIMLIM
 70
     0
  9
$DIMTIH
 70
     1
  9
$DIMTOH
 70
     1
  9
$DIMSE1
 70
     0
  9
$DIMSE2
 70
     0
  9
$DIMTAD
 70
     0
  9
$DIMZIN
 70
     4
  9
$DIMBLK
  1

  9
$DIMASO
 70
     1
  9
$DIMSHO
 70
     1
  9
$DIMPOST
  1

  9
$DIMAPOST
  1

  9
$DIMALT
 70
     0
  9
$DIMALTD
 70
     2
  9
$DIMALTF
 40
25.4
  9
$DIMLFAC
 40
1.0
  9
$DIMTOFL
 70
     0
  9
$DIMTVP
 40
0.0
  9
$DIMTIX
 70
     0
  9
$DIMSOXD
 70
     0
  9
$DIMSAH
 70
     0
  9
$DIMBLK1
  1

  9
$DIMBLK2
  1

  9
$DIMSTYLE
  2
STANDARD
  9
$DIMCLRD
 70
     0
  9
$DIMCLRE
 70
     0
  9
$DIMCLRT
 70
     0
  9
$DIMTFAC
 40
1.0
  9
$DIMGAP
 40
0.09
  9
$DIMJUST
 70
     0
  9
$DIMSD1
 70
     0
  9
$DIMSD2
 70
     0
  9
$DIMTOLJ
 70
     1
  9
$DIMTZIN
 70
     4
  9
$DIMALTZ
 70
     0
  9
$DIMALTTZ
 70
     0
  9
$DIMFIT
 70
     3
  9
$DIMUPT
 70
     0
  9
$DIMUNIT
 70
     2
  9
$DIMDEC
 70
     3
  9
$DIMTDEC
 70
     3
  9
$DIMALTU
 70
     2
  9
$DIMALTTD
 70
     2
  9
$DIMTXSTY
  7
ROMANS
  9
$DIMAUNIT
 70
     0
  9
$LUNITS
 70
     2
  9
$LUPREC
 70
     3
  9
$SKETCHINC
 40
0.1
  9
$FILLETRAD
 40
0.25
  9
$AUNITS
 70
     0
  9
$AUPREC
 70
     1
  9
$MENU
  1
C:\R13\WIN\ACAD
  9
$ELEVATION
 40
0.0
  9
$PELEVATION
 40
0.0
  9
$THICKNESS
 40
0.0
  9
$LIMCHECK
 70
     0
  9
$BLIPMODE
 70
     0
  9
$CHAMFERA
 40
0.0
  9
$CHAMFERB
 40
0.0
  9
$CHAMFERC
 40
0.0
  9
$CHAMFERD
 40
0.0
  9
$SKPOLY
 70
     0
  9
$TDCREATE
 40
2450059.737233564
  9
$TDUPDATE
 40
2452458.318673947
  9
$TDINDWG
 40
1.2709792130
  9
$TDUSRTIMER
 40
1.2709792130
  9
$USRTIMER
 70
     1
  9
$ANGBASE
 50
0.0
  9
$ANGDIR
 70
     0
  9
$PDMODE
 70
     0
  9
$PDSIZE
 40
0.0
  9
$PLINEWID
 40
0.0
  9
$COORDS
 70
     2
  9
$SPLFRAME
 70
     0
  9
$SPLINETYPE
 70
     6
  9
$SPLINESEGS
 70
     8
  9
$ATTDIA
 70
     0
  9
$ATTREQ
 70
     1
  9
$HANDLING
 70
 22529
  9
$HANDSEED
  5
2CF3
  9
$SURFTAB1
 70
     6
  9
$SURFTAB2
 70
     6
  9
$SURFTYPE
 70
     6
  9
$SURFU
 70
     6
  9
$SURFV
 70
     6
  9
$UCSNAME
  2

  9
$UCSORG
 10
0.0
 20
0.0
 30
0.0
  9
$UCSXDIR
 10
1.0
 20
0.0
 30
0.0
  9
$UCSYDIR
 10
0.0
 20
1.0
 30
0.0
  9
$PUCSNAME
  2

  9
$PUCSORG
 10
0.0
 20
0.0
 30
0.0
  9
$PUCSXDIR
 10
1.0
 20
0.0
 30
0.0
  9
$PUCSYDIR
 10
0.0
 20
1.0
 30
0.0
  9
$USERI1
 70
     0
  9
$USERI2
 70
     0
  9
$USERI3
 70
     0
  9
$USERI4
 70
     0
  9
$USERI5
 70
     0
  9
$USERR1
 40
0.0
  9
$USERR2
 40
0.0
  9
$USERR3
 40
0.0
  9
$USERR4
 40
0.0
  9
$USERR5
 40
0.0
  9
$WORLDVIEW
 70
     1
  9
$SHADEDGE
 70
     3
  9
$SHADEDIF
 70
    70
  9
$TILEMODE
 70
     1
  9
$MAXACTVP
 70
    16
  9
$PINSBASE
 10
0.0
 20
0.0
 30
0.0
  9
$PLIMCHECK
 70
     0
  9
$PEXTMIN
 10
1.000000000000000E+20
 20
1.000000000000000E+20
 30
1.000000000000000E+20
  9
$PEXTMAX
 10
-1.000000000000000E+20
 20
-1.000000000000000E+20
 30
-1.000000000000000E+20
  9
$PLIMMIN
 10
0.0
 20
0.0
  9
$PLIMMAX
 10
12.0
 20
9.0
  9
$UNITMODE
 70
     0
  9
$VISRETAIN
 70
     0
  9
$PLINEGEN
 70
     1
  9
$PSLTSCALE
 70
     0
  9
$TREEDEPTH
 70
  3020
  9
$PICKSTYLE
 70
     1
  9
$CMLSTYLE
  2
STANDARD
  9
$CMLJUST
 70
     0
  9
$CMLSCALE
 40
1.0
  9
$PROXYGRAPHICS
 70
     1
  9
$MEASUREMENT
 70
     0
  0
ENDSEC
  0
SECTION
  2
CLASSES
  0
CLASS
  1
LWPOLYLINE
  2
AcDbPolyline
  3
AutoCAD 2000
 90
        0
280
     0
281
     1
  0
CLASS
  1
ACDBDICTIONARYWDFLT
  2
AcDbDictionaryWithDefault
  3
AutoCAD 2000
 90
        0
280
     0
281
     0
  0
CLASS
  1
ACDBPLACEHOLDER
  2
AcDbPlaceHolder
  3
AutoCAD 2000
 90
        0
280
     0
281
     0
  0
CLASS
  1
LAYOUT
  2
AcDbLayout
  3
AutoCAD 2000
 90
        0
280
     0
281
     0
  0
CLASS
  1
DICTIONARYVAR
  2
AcDbDictionaryVar
  3
AutoCAD 2000
 90
        0
280
     0
281
     0
  0
CLASS
  1
LONG_TRANSACTION
  2
AcDbLongTransaction
  3
AutoCAD 2000
 90
        0
280
     0
281
     0
  0
CLASS
  1
LWPOLYLINE
  2
AcDbPolyline
  3
AutoCAD 2000
 90
        0
280
     0
281
     1
  0
CLASS
  1
HATCH
  2
AcDbHatch
  3
AutoCAD 2000
 90
        0
280
     0
281
     1
  0
CLASS
  1
XRECORD
  2
AcDbXrecord
  3
AutoCAD 2000
 90
        0
280
     0
281
     0
  0
ENDSEC
  0
SECTION
  2
TABLES
  0
TABLE
  2
VPORT
  5
13
330
0
100
AcDbSymbolTable
 70
     2
  0
VPORT
  5
2CCE
330
13
100
AcDbSymbolTableRecord
100
AcDbViewportTableRecord
  2
*ACTIVE
 70
     0
 10
0.0
 20
0.0
 11
1.0
 21
1.0
 12
6.906197857820564
 22
4.888324067556578
 13
0.0
 23
0.0
 14
0.0625
 24
0.0625
 15
0.0
 25
0.0
 16
0.0
 26
0.0
 36
1.0
 17
0.0
 27
0.0
 37
0.0
 40
2.38485933657366
 41
4.320930232558139
 42
50.0
 43
0.0
 44
0.0
 50
0.0
 51
0.0
 71
     0
 72
  2000
 73
     1
 74
     1
 75
     0
 76
     0
 77
     0
 78
     0
  0
ENDTAB
  0
TABLE
  2
LTYPE
  5
F
330
0
100
AcDbSymbolTable
 70
     1
  0
LTYPE
  5
10
330
F
100
AcDbSymbolTableRecord
100
AcDbLinetypeTableRecord
  2
BYBLOCK
 70
     0
  3

 72
    65
 73
     0
 40
0.0
  0
LTYPE
  5
6
330
F
100
AcDbSymbolTableRecord
100
AcDbLinetypeTableRecord
  2
BYLAYER
 70
     0
  3

 72
    65
 73
     0
 40
0.0
  0
LTYPE
  5
5
330
F
100
AcDbSymbolTableRecord
100
AcDbLinetypeTableRecord
  2
CONTINUOUS
 70
     0
  3
Solid line
 72
    65
 73
     0
 40
0.0
  0
ENDTAB
  0
TABLE
  2
LAYER
  5
B
330
0
100
AcDbSymbolTable
 70
     2
  0
LAYER
  5
C
330
B
100
AcDbSymbolTableRecord
100
AcDbLayerTableRecord
  2
0
 70
     0
 62
     7
  6
CONTINUOUS
  0
LAYER
  5
4
330
B
100
AcDbSymbolTableRecord
100
AcDbLayerTableRecord
  2
TEXT
 70
     0
 62
     3
  6
CONTINUOUS
  0
ENDTAB
  0
TABLE
  2
STYLE
  5
D
330
0
100
AcDbSymbolTable
 70
     3
  0
STYLE
  5
E
330
D
100
AcDbSymbolTableRecord
100
AcDbTextStyleTableRecord
  2
STANDARD
 70
     0
 40
0.0
 41
1.0
 50
0.0
 71
     0
 42
0.125
  3
txt
  4

  0
STYLE
  5
1D
330
D
100
AcDbSymbolTableRecord
100
AcDbTextStyleTableRecord
  2
ROMANS
 70
     0
 40
0.0
 41
1.0
 50
0.0
 71
     0
 42
0.125
  3
romans.shx
  4

  0
STYLE
  5
2BBC
330
D
100
AcDbSymbolTableRecord
100
AcDbTextStyleTableRecord
  2
ITALICC
 70
     0
 40
0.0
 41
1.0
 50
0.0
 71
     0
 42
0.125
  3
italicc
  4

  0
ENDTAB
  0
TABLE
  2
VIEW
  5
11
330
0
100
AcDbSymbolTable
 70
     0
  0
ENDTAB
  0
TABLE
  2
UCS
  5
12
330
0
100
AcDbSymbolTable
 70
     0
  0
ENDTAB
  0
TABLE
  2
APPID
  5
15
330
0
100
AcDbSymbolTable
 70
     1
  0
APPID
  5
16
330
15
100
AcDbSymbolTableRecord
100
AcDbRegAppTableRecord
  2
ACAD
 70
     0
  0
ENDTAB
  0
TABLE
  2
DIMSTYLE
  5
17
330
0
100
AcDbSymbolTable
 70
     1
  0
DIMSTYLE
105
1F
330
17
100
AcDbSymbolTableRecord
100
AcDbDimStyleTableRecord
  2
STANDARD
 70
     0
  3

  4

  5

  6

  7

 40
1.0
 41
0.125
 42
0.125
 43
0.375
 44
0.125
 45
0.0
 46
0.0
 47
0.0
 48
0.01
140
0.125
141
-0.125
142
0.0
143
25.4
144
1.0
145
0.0
146
1.0
147
0.09
 71
     1
 72
     0
 73
     1
 74
     1
 75
     0
 76
     0
 77
     0
 78
     4
170
     0
171
     2
172
     0
173
     0
174
     0
175
     0
176
     0
177
     0
178
     0
270
     2
271
     3
272
     3
273
     2
274
     2
340
1D
275
     0
280
     0
281
     0
282
     0
283
     1
284
     4
285
     0
286
     0
287
     3
288
     0
  0
ENDTAB
  0
TABLE
  2
BLOCK_RECORD
  5
1
330
0
100
AcDbSymbolTable
 70
     0
  0
BLOCK_RECORD
  5
2
102
{ACAD_XDICTIONARY
360
2CEF
102
}
330
1
100
AcDbSymbolTableRecord
100
AcDbBlockTableRecord
  2
*MODEL_SPACE
  0
BLOCK_RECORD
  5
8
102
{ACAD_XDICTIONARY
360
2CF1
102
}
330
1
100
AcDbSymbolTableRecord
100
AcDbBlockTableRecord
  2
*PAPER_SPACE
  0
ENDTAB
  0
ENDSEC
  0
SECTION
  2
BLOCKS
  0
BLOCK
  5
3
330
2
100
AcDbEntity
  8
0
100
AcDbBlockBegin
  2
*MODEL_SPACE
 70
     0
 10
0.0
 20
0.0
 30
0.0
  3
*MODEL_SPACE
  1

  0
ENDBLK
  5
7
330
2
100
AcDbEntity
  8
0
100
AcDbBlockEnd
  0
BLOCK
  5
9
330
8
100
AcDbEntity
 67
     1
  8
0
100
AcDbBlockBegin
  2
*PAPER_SPACE
 70
     0
 10
0.0
 20
0.0
 30
0.0
  3
*PAPER_SPACE
  1

  0
ENDBLK
  5
A
330
8
100
AcDbEntity
 67
     1
  8
0
100
AcDbBlockEnd
  0
ENDSEC
  0
SECTION
  2
ENTITIES
  0
LWPOLYLINE
  5
25C7
330
2
100
AcDbEntity
  8
0
100
AcDbPolyline
 90
       37
 70
     0
 43
0.0
 38
-5.163330000919089
 10
3.133773322784236
 20
5.110400667135763
 42
-0.2184662898860222
 10
3.12470814104995
 20
5.085963598853936
 42
-0.6414077406991764
 10
3.071448785491483
 20
5.105720704396247
 42
-0.4315199042417474
 10
3.820155967104327
 20
5.899738384950381
 42
-0.6956284537400758
 10
4.309286401886922
 20
4.581186348836382
 42
-0.6414077406992418
 10
4.257655967104312
 20
4.604876017007811
 42
-0.218466289885999
 10
4.268525532321689
 20
4.628565685179225
 42
0.3617965478359512
 10
4.413949143707895
 20
5.496243671228981
 42
0.552795597602382
 10
4.361051120629042
 20
5.497968209177059
 10
4.269011329107343
 20
5.36151360671694
 42
-0.2493280028431589
 10
4.243103904964982
 20
5.347738384950389
 10
4.179530967104312
 20
5.347738384950403
 42
-0.4142135623730951
 10
4.148280967104327
 20
5.378988384950389
 10
4.148280967104298
 20
5.410738384950377
 10
4.210780967104312
 20
5.410738384950377
 10
4.210780967104298
 20
5.490738384950375
 10
4.148280967104312
 20
5.49073838495039
 10
4.148280967104298
 20
5.522488384950378
 42
-0.414213562373048
 10
4.179530967104312
 20
5.553738384950392
 10
4.31129902162101
 20
5.553738384950392
 42
0.6466028674534129
 10
4.334686786121821
 20
5.605714575426574
 42
0.2146219586590784
 10
3.820155967104312
 20
5.837238384950381
 42
0.2146219586590774
 10
3.305625148086818
 20
5.605714575426574
 42
0.6466028674534555
 10
3.3290129125876
 20
5.553738384950378
 10
3.460780967104312
 20
5.553738384950392
 42
-0.4142135623730951
 10
3.492030967104312
 20
5.522488384950378
 10
3.492030967104312
 20
5.49073838495039
 10
3.429530967104312
 20
5.490738384950375
 10
3.429530967104312
 20
5.410738384950391
 10
3.492030967104312
 20
5.410738384950377
 10
3.492030967104312
 20
5.378988384950389
 42
-0.4142135623730477
 10
3.460780967104312
 20
5.347738384950389
 10
3.397208029243643
 20
5.347738384950389
 42
-0.2493280028431822
 10
3.371300605101296
 20
5.361513606716926
 10
3.279260813579583
 20
5.497968209177059
 42
0.5527955976024557
 10
3.226362790500729
 20
5.496243671228981
 42
0.1478015302181303
 10
3.133841050625875
 20
5.109388844442435
  0
TEXT
  5
2C41
330
2
100
AcDbEntity
  8
TEXT
100
AcDbText
 10
2.932705465032764
 20
4.164839361145467
 30
0.0
 40
0.125
  1
PART #110580
  7
ITALICC
 72
     1
 11
3.685681655508955
 21
4.164839361145467
 31
0.0
100
AcDbText
  0
LINE
  5
2C42
330
2
100
AcDbEntity
  8
TEXT
100
AcDbLine
 10
3.653415154461018
 20
3.920485675125633
 30
0.0
 11
3.730063135753575
 21
3.920485675125633
 31
0.0
  0
LINE
  5
2C43
330
2
100
AcDbEntity
  8
TEXT
100
AcDbLine
 10
3.725583248427075
 20
3.984762369782399
 30
0.0
 11
3.658083530777559
 21
3.984762369782399
 31
0.0
  0
LWPOLYLINE
  5
2C44
330
2
100
AcDbEntity
  8
TEXT
100
AcDbPolyline
 90
        5
 70
     0
 43
0.0001332181640625
 10
2.016303111926343
 20
3.861535568024586
 10
2.029624928332591
 20
3.861535568024586
 10
2.029624928332591
 20
3.898170563141776
 10
2.066259923449781
 20
3.898170563141776
 10
2.066259923449781
 20
3.911492379548023
  0
LWPOLYLINE
  5
2C45
330
2
100
AcDbEntity
  8
TEXT
100
AcDbPolyline
 90
        3
 70
     0
 43
0.0006660908203125
 10
2.056268561145091
 20
3.958118736969901
 10
1.969676754504466
 20
3.958118736969901
 10
1.969676754504466
 20
3.871526930329275
  0
LWPOLYLINE
  5
2C46
330
2
100
AcDbEntity
  8
TEXT
100
AcDbPolyline
 90
        3
 70
     0
 43
0.0006660908203125
 10
2.056268561145091
 20
3.984762369782402
 10
1.943033121691968
 20
3.984762369782402
 10
1.943033121691968
 20
3.871526930329275
  0
LWPOLYLINE
  5
2C47
330
2
100
AcDbEntity
  8
TEXT
100
AcDbPolyline
 90
        5
 70
     0
 43
0.0001332181640625
 10
2.066259923449781
 20
3.791596031891775
 10
2.066259923449781
 20
3.804917848298026
 10
2.029624928332593
 20
3.804917848298026
 10
2.029624928332593
 20
3.841552843415212
 10
2.016303111926343
 20
3.841552843415212
  0
LWPOLYLINE
  5
2C48
330
2
100
AcDbEntity
  8
TEXT
100
AcDbPolyline
 90
        3
 70
     0
 43
0.0006660908203125
 10
1.969676754504466
 20
3.831561481110527
 10
1.969676754504466
 20
3.7449696744699
 10
2.056268561145091
 20
3.7449696744699
  0
LWPOLYLINE
  5
2C49
330
2
100
AcDbEntity
  8
TEXT
100
AcDbPolyline
 90
        3
 70
     0
 43
0.0006660908203125
 10
1.943033121691968
 20
3.831561481110527
 10
1.943033121691968
 20
3.718326041657399
 10
2.056268561145091
 20
3.718326041657399
  0
LWPOLYLINE
  5
2C4A
330
2
100
AcDbEntity
  8
TEXT
100
AcDbPolyline
 90
        2
 70
     0
 43
0.0001332181640625
 10
1.969676754504466
 20
3.831561481110527
 10
2.029624928332593
 20
3.841552843415212
  0
LWPOLYLINE
  5
2C4B
330
2
100
AcDbEntity
  8
TEXT
100
AcDbPolyline
 90
        2
 70
     0
 43
0.0001332181640625
 10
2.016303111926343
 20
3.841552843415212
 10
1.943033121691968
 20
3.831561481110527
  0
LWPOLYLINE
  5
2C4C
330
2
100
AcDbEntity
  8
TEXT
100
AcDbPolyline
 90
        2
 70
     0
 43
0.0006660908203125
 10
1.969676754504466
 20
3.831561481110527
 10
1.943033121691968
 20
3.831561481110527
  0
LWPOLYLINE
  5
2C4D
330
2
100
AcDbEntity
  8
TEXT
100
AcDbPolyline
 90
        2
 70
     0
 43
0.0001332181640625
 10
1.969676754504466
 20
3.7449696744699
 10
2.029624928332593
 20
3.804917848298026
  0
LWPOLYLINE
  5
2C4E
330
2
100
AcDbEntity
  8
TEXT
100
AcDbPolyline
 90
        2
 70
     0
 43
0.0006660908203125
 10
1.969676754504466
 20
3.871526930329275
 10
1.943033121691968
 20
3.871526930329275
  0
LWPOLYLINE
  5
2C4F
330
2
100
AcDbEntity
  8
TEXT
100
AcDbPolyline
 90
        2
 70
     0
 43
0.0001332181640625
 10
1.943033121691968
 20
3.871526930329275
 10
2.016303111926343
 20
3.861535568024586
  0
LWPOLYLINE
  5
2C50
330
2
100
AcDbEntity
  8
TEXT
100
AcDbPolyline
 90
        2
 70
     0
 43
0.0001332181640625
 10
1.969676754504466
 20
3.871526930329275
 10
2.029624928332591
 20
3.861535568024586
  0
LWPOLYLINE
  5
2C51
330
2
100
AcDbEntity
  8
TEXT
100
AcDbPolyline
 90
        2
 70
     0
 43
0.0001332181640625
 10
1.969676754504466
 20
3.958118736969901
 10
2.029624928332591
 20
3.898170563141776
  0
LWPOLYLINE
  5
2C52
330
2
100
AcDbEntity
  8
TEXT
100
AcDbPolyline
 90
        5
 70
     0
 43
0.0001332181640625
 10
2.136199459582592
 20
3.841552843415212
 10
2.122877643176343
 20
3.841552843415212
 10
2.122877643176343
 20
3.804917848298026
 10
2.086242648059153
 20
3.804917848298026
 10
2.086242648059153
 20
3.791596031891775
  0
LWPOLYLINE
  5
2C53
330
2
100
AcDbEntity
  8
TEXT
100
AcDbPolyline
 90
        2
 70
     0
 43
0.0001332181640625
 10
2.182825817004467
 20
3.831561481110527
 10
2.122877643176343
 20
3.841552843415212
  0
LWPOLYLINE
  5
2C54
330
2
100
AcDbEntity
  8
TEXT
100
AcDbPolyline
 90
        2
 70
     0
 43
0.0001332181640625
 10
2.209469449816968
 20
3.831561481110527
 10
2.136199459582592
 20
3.841552843415212
  0
LWPOLYLINE
  5
2C55
330
2
100
AcDbEntity
  8
TEXT
100
AcDbPolyline
 90
        3
 70
     0
 43
0.0006660908203125
 10
2.096234010363842
 20
3.718326041657399
 10
2.209469449816968
 20
3.718326041657399
 10
2.209469449816968
 20
3.831561481110527
  0
LWPOLYLINE
  5
2C56
330
2
100
AcDbEntity
  8
TEXT
100
AcDbPolyline
 90
        3
 70
     0
 43
0.0006660908203125
 10
2.096234010363842
 20
3.7449696744699
 10
2.182825817004467
 20
3.7449696744699
 10
2.182825817004467
 20
3.831561481110527
  0
LWPOLYLINE
  5
2C57
330
2
100
AcDbEntity
  8
TEXT
100
AcDbPolyline
 90
        2
 70
     0
 43
0.0001332181640625
 10
2.182825817004467
 20
3.7449696744699
 10
2.122877643176343
 20
3.804917848298026
  0
LWPOLYLINE
  5
2C58
330
2
100
AcDbEntity
  8
TEXT
100
AcDbPolyline
 90
        2
 70
     0
 43
0.0006660908203125
 10
2.096234010363842
 20
3.7449696744699
 10
2.096234010363842
 20
3.718326041657399
  0
LWPOLYLINE
  5
2C59
330
2
100
AcDbEntity
  8
TEXT
100
AcDbPolyline
 90
        2
 70
     0
 43
0.0001332181640625
 10
2.086242648059153
 20
3.791596031891775
 10
2.096234010363842
 20
3.718326041657399
  0
LWPOLYLINE
  5
2C5A
330
2
100
AcDbEntity
  8
TEXT
100
AcDbPolyline
 90
        2
 70
     0
 43
0.0001332181640625
 10
2.096234010363842
 20
3.7449696744699
 10
2.086242648059153
 20
3.804917848298026
  0
LWPOLYLINE
  5
2C5B
330
2
100
AcDbEntity
  8
TEXT
100
AcDbPolyline
 90
        2
 70
     0
 43
0.0001332181640625
 10
2.056268561145091
 20
3.718326041657399
 10
2.066259923449781
 20
3.791596031891775
  0
LWPOLYLINE
  5
2C5C
330
2
100
AcDbEntity
  8
TEXT
100
AcDbPolyline
 90
        2
 70
     0
 43
0.0001332181640625
 10
2.056268561145091
 20
3.7449696744699
 10
2.066259923449781
 20
3.804917848298026
  0
LWPOLYLINE
  5
2C5D
330
2
100
AcDbEntity
  8
TEXT
100
AcDbPolyline
 90
        2
 70
     0
 43
0.0006660908203125
 10
2.056268561145091
 20
3.7449696744699
 10
2.056268561145091
 20
3.718326041657399
  0
LWPOLYLINE
  5
2C5E
330
2
100
AcDbEntity
  8
TEXT
100
AcDbPolyline
 90
        2
 70
     0
 43
0.0006660908203125
 10
2.182825817004467
 20
3.831561481110527
 10
2.209469449816968
 20
3.831561481110527
  0
LWPOLYLINE
  5
2C5F
330
2
100
AcDbEntity
  8
TEXT
100
AcDbPolyline
 90
        2
 70
     0
 43
0.0001332181640625
 10
2.182825817004467
 20
3.958118736969901
 10
2.122877643176343
 20
3.898170563141776
  0
LWPOLYLINE
  5
2C60
330
2
100
AcDbEntity
  8
TEXT
100
AcDbPolyline
 90
        2
 70
     0
 43
0.0001332181640625
 10
2.182825817004467
 20
3.871526930329275
 10
2.122877643176343
 20
3.861535568024586
  0
LWPOLYLINE
  5
2C61
330
2
100
AcDbEntity
  8
TEXT
100
AcDbPolyline
 90
        2
 70
     0
 43
0.0001332181640625
 10
2.136199459582592
 20
3.861535568024586
 10
2.209469449816968
 20
3.871526930329275
  0
LWPOLYLINE
  5
2C62
330
2
100
AcDbEntity
  8
TEXT
100
AcDbPolyline
 90
        3
 70
     0
 43
0.0006660908203125
 10
2.182825817004467
 20
3.871526930329275
 10
2.182825817004467
 20
3.958118736969901
 10
2.096234010363842
 20
3.958118736969901
  0
LWPOLYLINE
  5
2C63
330
2
100
AcDbEntity
  8
TEXT
100
AcDbPolyline
 90
        3
 70
     0
 43
0.0006660908203125
 10
2.209469449816968
 20
3.871526930329275
 10
2.209469449816968
 20
3.984762369782402
 10
2.096234010363842
 20
3.984762369782402
  0
LWPOLYLINE
  5
2C64
330
2
100
AcDbEntity
  8
TEXT
100
AcDbPolyline
 90
        2
 70
     0
 43
0.0001332181640625
 10
2.096234010363842
 20
3.984762369782402
 10
2.086242648059153
 20
3.911492379548023
  0
LWPOLYLINE
  5
2C65
330
2
100
AcDbEntity
  8
TEXT
100
AcDbPolyline
 90
        2
 70
     0
 43
0.0001332181640625
 10
2.096234010363842
 20
3.958118736969901
 10
2.086242648059153
 20
3.898170563141776
  0
LWPOLYLINE
  5
2C66
330
2
100
AcDbEntity
  8
TEXT
100
AcDbPolyline
 90
        2
 70
     0
 43
0.0006660908203125
 10
2.096234010363842
 20
3.958118736969901
 10
2.096234010363842
 20
3.984762369782402
  0
LWPOLYLINE
  5
2C67
330
2
100
AcDbEntity
  8
TEXT
100
AcDbPolyline
 90
        5
 70
     0
 43
0.0001332181640625
 10
2.086242648059153
 20
3.911492379548023
 10
2.086242648059153
 20
3.898170563141776
 10
2.122877643176343
 20
3.898170563141776
 10
2.122877643176343
 20
3.861535568024586
 10
2.136199459582592
 20
3.861535568024586
  0
LWPOLYLINE
  5
2C68
330
2
100
AcDbEntity
  8
TEXT
100
AcDbPolyline
 90
        2
 70
     0
 43
0.0001332181640625
 10
2.056268561145091
 20
3.958118736969901
 10
2.066259923449781
 20
3.898170563141776
  0
LWPOLYLINE
  5
2C69
330
2
100
AcDbEntity
  8
TEXT
100
AcDbPolyline
 90
        2
 70
     0
 43
0.0001332181640625
 10
2.066259923449781
 20
3.911492379548023
 10
2.056268561145091
 20
3.984762369782402
  0
LWPOLYLINE
  5
2C6A
330
2
100
AcDbEntity
  8
TEXT
100
AcDbPolyline
 90
        2
 70
     0
 43
0.0006660908203125
 10
2.056268561145091
 20
3.958118736969901
 10
2.056268561145091
 20
3.984762369782402
  0
LWPOLYLINE
  5
2C6B
330
2
100
AcDbEntity
  8
TEXT
100
AcDbPolyline
 90
        2
 70
     0
 43
0.0006660908203125
 10
2.182825817004467
 20
3.871526930329275
 10
2.209469449816968
 20
3.871526930329275
  0
LWPOLYLINE
  5
2C6C
330
2
100
AcDbEntity
  8
TEXT
100
AcDbPolyline
 90
        2
 70
     0
 43
0.0
 10
2.928249370565598
 20
3.769840679008816
 42
0.3318488747599744
 10
2.997368663130911
 20
3.718289336793888
 42
-6.868794160588311
  0
LINE
  5
2C6D
330
2
100
AcDbEntity
  8
TEXT
100
AcDbLine
 10
2.996229089634716
 20
4.052773847521209
 30
0.0
 11
2.929420377068351
 21
4.052773847521209
 31
0.0
  0
LINE
  5
2C6E
330
2
100
AcDbEntity
  8
TEXT
100
AcDbLine
 10
2.650078009449257
 20
3.984762369782399
 30
0.0
 11
2.474346256550745
 21
3.984762369782399
 31
0.0
  0
ARC
  5
2C6F
330
2
100
AcDbEntity
  8
TEXT
100
AcDbCircle
 10
2.545183722909295
 20
3.801485145154445
 30
0.0
 40
0.0831958083605586
100
AcDbArc
 50
270.0
 51
90.0
  0
LINE
  5
2C70
330
2
100
AcDbEntity
  8
TEXT
100
AcDbLine
 10
2.479583586664993
 20
3.920485675125633
 30
0.0
 11
2.646489240693964
 21
3.920485675125633
 31
0.0
  0
LINE
  5
2C71
330
2
100
AcDbEntity
  8
TEXT
100
AcDbLine
 10
2.550124096815574
 20
3.786646343127327
 30
0.0
 11
2.39225879710424
 21
3.786646343127327
 31
0.0
  0
LINE
  5
2C72
330
2
100
AcDbEntity
  8
TEXT
100
AcDbLine
 10
2.392258797104242
 20
3.718289336793888
 30
0.0
 11
2.545183722909294
 21
3.718289336793888
 31
0.0
  0
ARC
  5
2C73
330
2
100
AcDbEntity
  8
TEXT
100
AcDbCircle
 10
2.474346256550746
 20
3.902674910335897
 30
0.0
 40
0.0820874594465043
100
AcDbArc
 50
90.0
 51
270.0
  0
LINE
  5
2C74
330
2
100
AcDbEntity
  8
TEXT
100
AcDbLine
 10
2.39225879710424
 20
3.786646343127327
 30
0.0
 11
2.392258797104242
 21
3.718289336793888
 31
0.0
  0
LINE
  5
2C75
330
2
100
AcDbEntity
  8
TEXT
100
AcDbLine
 10
2.474346256550745
 20
3.820587450889392
 30
0.0
 11
2.550124096815574
 21
3.820587450889392
 31
0.0
  0
ARC
  5
2C76
330
2
100
AcDbEntity
  8
TEXT
100
AcDbCircle
 10
2.550124096815574
 20
3.803616897008361
 30
0.0
 40
0.0169705538810321
100
AcDbArc
 50
270.0
 51
90.0
  0
LINE
  5
2C77
330
2
100
AcDbEntity
  8
TEXT
100
AcDbLine
 10
2.545183722909294
 20
3.884680953515005
 30
0.0
 11
2.479583586664993
 21
3.884680953515005
 31
0.0
  0
ARC
  5
2C78
330
2
100
AcDbEntity
  8
TEXT
100
AcDbCircle
 10
2.479583586664994
 20
3.902583314320321
 30
0.0
 40
0.017902360805315
100
AcDbArc
 50
90.0
 51
270.0
  0
LINE
  5
2C79
330
2
100
AcDbEntity
  8
TEXT
100
AcDbLine
 10
2.840549901469109
 20
3.883890373669278
 30
0.0
 11
2.781919580437171
 21
3.984762369782399
 31
0.0
  0
LINE
  5
2C7A
330
2
100
AcDbEntity
  8
TEXT
100
AcDbLine
 10
2.700375848174069
 20
3.718289336793888
 30
0.0
 11
2.797016099249064
 21
3.71855997589217
 31
0.0
  0
LWPOLYLINE
  5
2C7B
330
2
100
AcDbEntity
  8
TEXT
100
AcDbPolyline
 90
        6
 70
     1
 43
0.0
 10
2.742899651749219
 20
3.920485675125633
 10
2.712583057529011
 20
3.920485675125633
 10
2.712583057529011
 20
3.797374677070739
 42
0.407328721240804
 10
2.724126708690488
 20
3.785555762394353
 10
2.784748407735218
 20
3.785555762394353
 10
2.802213748142536
 20
3.818367991437832
  0
LINE
  5
2C7C
330
2
100
AcDbEntity
  8
TEXT
100
AcDbLine
 10
2.646489240693964
 20
3.920485675125633
 30
0.0
 11
2.646489240693964
 21
3.778081728131938
 31
0.0
  0
ARC
  5
2C7D
330
2
100
AcDbEntity
  8
TEXT
100
AcDbCircle
 10
2.706605258667716
 20
3.778081728131938
 30
0.0
 40
0.0601160179737537
100
AcDbArc
 50
180.0000000000003
 51
264.0521544866073
  0
LINE
  5
2C7E
330
2
100
AcDbEntity
  8
TEXT
100
AcDbLine
 10
2.710120614293264
 20
4.019150287376537
 30
0.0
 11
2.650078009449257
 21
4.019150287376537
 31
0.0
  0
LINE
  5
2C7F
330
2
100
AcDbEntity
  8
TEXT
100
AcDbLine
 10
2.650078009449257
 20
4.019150287376537
 30
0.0
 11
2.650078009449257
 21
3.984762369782399
 31
0.0
  0
LINE
  5
2C80
330
2
100
AcDbEntity
  8
TEXT
100
AcDbLine
 10
2.710120614293264
 20
3.984762369782399
 30
0.0
 11
2.710120614293264
 21
4.019150287376537
 31
0.0
  0
LINE
  5
2C81
330
2
100
AcDbEntity
  8
TEXT
100
AcDbLine
 10
2.781919580437171
 20
3.984762369782399
 30
0.0
 11
2.710120614293264
 21
3.984762369782399
 31
0.0
  0
LINE
  5
2C82
330
2
100
AcDbEntity
  8
TEXT
100
AcDbLine
 10
2.830949664472155
 20
3.738247842898901
 30
0.0
 11
2.928249370565599
 21
3.902598053834169
 31
0.0
  0
LINE
  5
2C83
330
2
100
AcDbEntity
  8
TEXT
100
AcDbLine
 10
2.928249370565599
 20
3.902598053834169
 30
0.0
 11
2.928249370565599
 21
3.769840679008813
 31
0.0
  0
ARC
  5
2C84
330
2
100
AcDbEntity
  8
TEXT
100
AcDbCircle
 10
2.796906104559941
 20
3.757837059067584
 30
0.0
 40
0.0392772371940762
100
AcDbArc
 50
270.1604552698595
 51
330.0831797321295
  0
LINE
  5
2C85
330
2
100
AcDbEntity
  8
TEXT
100
AcDbLine
 10
2.899298464274974
 20
3.984762369782399
 30
0.0
 11
2.840549901469109
 21
3.883890373669278
 31
0.0
  0
LINE
  5
2C86
330
2
100
AcDbEntity
  8
TEXT
100
AcDbLine
 10
2.929420377068351
 20
4.052773847521209
 30
0.0
 11
2.929420377068351
 21
3.984762369782399
 31
0.0
  0
LINE
  5
2C87
330
2
100
AcDbEntity
  8
TEXT
100
AcDbLine
 10
2.929420377068351
 20
3.984762369782399
 30
0.0
 11
2.899298464274974
 21
3.984762369782399
 31
0.0
  0
LWPOLYLINE
  5
2C88
330
2
100
AcDbEntity
  8
TEXT
100
AcDbPolyline
 90
        4
 70
     0
 43
0.0
 10
3.281506498688509
 20
3.912931885959523
 10
3.281506498688509
 20
3.718289336793888
 10
3.349984781976367
 20
3.718289336793888
 10
3.349984781976367
 20
3.761780281744326
 42
-1.714843617202739
  0
LWPOLYLINE
  5
2C89
330
2
100
AcDbEntity
  8
TEXT
100
AcDbPolyline
 90
        2
 70
     0
 43
0.0
 10
3.316640849232719
 20
3.984762369782402
 42
-0.3277054968067132
 10
3.352422539945884
 20
3.956439824012758
 42
6.667889725900311
  0
LWPOLYLINE
  5
2C8A
330
2
100
AcDbEntity
  8
TEXT
100
AcDbPolyline
 90
        2
 70
     0
 43
0.0
 10
3.145207276653492
 20
3.920485675125633
 42
-0.4142135623731017
 10
3.152761065819605
 20
3.912931885959523
 42
-0.9999999999999998
  0
LINE
  5
2C8B
330
2
100
AcDbEntity
  8
TEXT
100
AcDbLine
 10
3.162558999703512
 20
3.984762369782399
 30
0.0
 11
3.028540943772376
 21
3.984762369782399
 31
0.0
  0
LINE
  5
2C8C
330
2
100
AcDbEntity
  8
TEXT
100
AcDbLine
 10
3.095371996830345
 20
3.718289336793888
 30
0.0
 11
3.095371996830345
 21
3.920485675125633
 31
0.0
  0
LINE
  5
2C8D
330
2
100
AcDbEntity
  8
TEXT
100
AcDbLine
 10
3.028540943772376
 20
3.984762369782399
 30
0.0
 11
3.028540943772376
 21
3.783898163049991
 31
0.0
  0
LINE
  5
2C8E
330
2
100
AcDbEntity
  8
TEXT
100
AcDbLine
 10
2.996229089634716
 20
3.800677174896887
 30
0.0
 11
2.996229089634716
 21
4.052773847521209
 31
0.0
  0
LINE
  5
2C8F
330
2
100
AcDbEntity
  8
TEXT
100
AcDbLine
 10
2.99736866313091
 20
3.718289336793888
 30
0.0
 11
3.095371996830345
 21
3.718289336793888
 31
0.0
  0
LINE
  5
2C90
330
2
100
AcDbEntity
  8
TEXT
100
AcDbLine
 10
3.028540943772376
 20
3.783898163049991
 30
0.0
 11
3.011547306887774
 21
3.783898163049991
 31
0.0
  0
ARC
  5
2C91
330
2
100
AcDbEntity
  8
TEXT
100
AcDbCircle
 10
3.011547306887774
 20
3.799279969293416
 30
0.0
 40
0.0153818062434269
100
AcDbArc
 50
174.7883570302258
 51
270.0
  0
LINE
  5
2C92
330
2
100
AcDbEntity
  8
TEXT
100
AcDbLine
 10
3.095371996830345
 20
3.920485675125633
 30
0.0
 11
3.145207276653493
 21
3.920485675125633
 31
0.0
  0
LINE
  5
2C93
330
2
100
AcDbEntity
  8
TEXT
100
AcDbLine
 10
3.152761065819606
 20
3.912931885959523
 30
0.0
 11
3.152761065819606
 21
3.718289336793888
 31
0.0
  0
LINE
  5
2C94
330
2
100
AcDbEntity
  8
TEXT
100
AcDbLine
 10
3.219819112601446
 20
3.718289336793888
 30
0.0
 11
3.219819112601446
 21
3.920485675125633
 31
0.0
  0
LINE
  5
2C95
330
2
100
AcDbEntity
  8
TEXT
100
AcDbLine
 10
3.152761065819606
 20
3.718289336793888
 30
0.0
 11
3.219819112601446
 21
3.718289336793888
 31
0.0
  0
LWPOLYLINE
  5
2C96
330
2
100
AcDbEntity
  8
TEXT
100
AcDbPolyline
 90
        3
 70
     0
 43
0.0
 10
3.316640849232719
 20
3.984762369782402
 10
3.198340690416674
 20
3.984762369782402
 10
3.198340690416674
 20
3.957594873021506
 42
-1.960274751411753
  0
LINE
  5
2C97
330
2
100
AcDbEntity
  8
TEXT
100
AcDbLine
 10
3.219819112601446
 20
3.920485675125633
 30
0.0
 11
3.273952709522396
 21
3.920485675125633
 31
0.0
  0
LWPOLYLINE
  5
2C98
330
2
100
AcDbEntity
  8
TEXT
100
AcDbPolyline
 90
        2
 70
     0
 43
0.0
 10
3.162558999703513
 20
3.984762369782402
 42
-0.3328679258950098
 10
3.198340690416674
 20
3.957594873021506
 42
6.772930709997214
  0
LWPOLYLINE
  5
2C99
330
2
100
AcDbEntity
  8
TEXT
100
AcDbPolyline
 90
        2
 70
     0
 43
0.0
 10
3.273952709522395
 20
3.920485675125633
 42
-0.4142135623731017
 10
3.281506498688509
 20
3.912931885959523
 42
-0.9999999999999998
  0
ARC
  5
2C9A
330
2
100
AcDbEntity
  8
TEXT
100
AcDbCircle
 10
3.485227509385875
 20
3.943178802661496
 30
0.0
 40
0.0416329381542859
100
AcDbArc
 50
26.56974201007528
 51
87.20939649401342
  0
LWPOLYLINE
  5
2C9B
330
2
100
AcDbEntity
  8
TEXT
100
AcDbPolyline
 90
        2
 70
     0
 43
0.0
 10
3.393060714844002
 20
3.718289336793888
 10
3.527078132475379
 20
3.718289336793888
 42
0.9999999999999998
  0
LWPOLYLINE
  5
2C9C
330
2
100
AcDbEntity
  8
TEXT
100
AcDbPolyline
 90
        4
 70
     1
 43
0.0
 10
3.506955667405486
 20
3.821253314777913
 10
3.418295348745628
 20
3.821253314777913
 42
0.9999999999999998
 10
3.418295348745628
 20
3.778854774274052
 10
3.506955667405486
 20
3.778854774274052
 42
1.0
  0
LWPOLYLINE
  5
2C9D
330
2
100
AcDbEntity
  8
TEXT
100
AcDbPolyline
 90
        2
 70
     0
 43
0.0
 10
3.349984781976367
 20
3.761780281744326
 42
0.2901071551932823
 10
3.393060714844002
 20
3.718289336793888
 42
5.328517124445801
  0
LINE
  5
2C9E
330
2
100
AcDbEntity
  8
TEXT
100
AcDbLine
 10
3.487254449162944
 20
3.984762369782399
 30
0.0
 11
3.352422539945885
 21
3.984762369782399
 31
0.0
  0
LINE
  5
2C9F
330
2
100
AcDbEntity
  8
TEXT
100
AcDbLine
 10
3.411736636339203
 20
3.883210701663501
 30
0.0
 11
3.494024626122587
 21
3.883210701663501
 31
0.0
  0
LINE
  5
2CA0
330
2
100
AcDbEntity
  8
TEXT
100
AcDbLine
 10
3.458223550818465
 20
3.920485675125633
 30
0.0
 11
3.351017277431176
 21
3.920485675125633
 31
0.0
  0
LINE
  5
2CA1
330
2
100
AcDbEntity
  8
TEXT
100
AcDbLine
 10
3.352422539945885
 20
3.984762369782399
 30
0.0
 11
3.352422539945885
 21
3.956439824012755
 31
0.0
  0
ARC
  5
2CA2
330
2
100
AcDbEntity
  8
TEXT
100
AcDbCircle
 10
3.411736636339202
 20
3.815525120519382
 30
0.0
 40
0.0676855811441166
100
AcDbArc
 50
90.0
 51
153.7768192527749
  0
LINE
  5
2CA3
330
2
100
AcDbEntity
  8
TEXT
100
AcDbLine
 10
3.351017277431176
 20
3.920485675125633
 30
0.0
 11
3.351017277431176
 21
3.845433269051427
 31
0.0
  0
LINE
  5
2CA4
330
2
100
AcDbEntity
  8
TEXT
100
AcDbLine
 10
3.494024626122587
 20
3.883210701663501
 30
0.0
 11
3.483759865709022
 21
3.904461241236195
 31
0.0
  0
ARC
  5
2CA5
330
2
100
AcDbEntity
  8
TEXT
100
AcDbCircle
 10
3.458223550818464
 20
3.892126300125636
 30
0.0
 40
0.028359375
100
AcDbArc
 50
25.78218179591245
 51
90.0
  0
LINE
  5
2CA6
330
2
100
AcDbEntity
  8
TEXT
100
AcDbLine
 10
3.628509279178358
 20
3.718289336793888
 30
0.0
 11
3.628509279178353
 21
3.895579842225356
 31
0.0
  0
LWPOLYLINE
  5
2CA7
330
2
100
AcDbEntity
  8
TEXT
100
AcDbPolyline
 90
        2
 70
     0
 43
0.0
 10
3.570154065343023
 20
3.718289336793888
 10
3.628509279178357
 20
3.718289336793888
  0
LWPOLYLINE
  5
2CA8
330
2
100
AcDbEntity
  8
TEXT
100
AcDbPolyline
 90
        2
 70
     0
 43
0.0
 10
3.570154065343023
 20
3.761780281744326
 42
-0.2901071551932486
 10
3.527078132475379
 20
3.718289336793888
 42
-5.328517124445184
  0
LWPOLYLINE
  5
2CA9
330
2
100
AcDbEntity
  8
TEXT
100
AcDbPolyline
 90
        2
 70
     0
 43
0.0
 10
3.570154065343023
 20
3.761780281744326
 10
3.570154065343023
 20
3.718289336793888
  0
LINE
  5
2CAA
330
2
100
AcDbEntity
  8
TEXT
100
AcDbLine
 10
3.630111294337486
 20
3.984762369782399
 30
0.0
 11
3.566214388037985
 21
3.984762369782399
 31
0.0
  0
LINE
  5
2CAB
330
2
100
AcDbEntity
  8
TEXT
100
AcDbLine
 10
3.566214388037985
 20
3.984762369782399
 30
0.0
 11
3.566214388037985
 21
3.879550391228971
 31
0.0
  0
LINE
  5
2CAC
330
2
100
AcDbEntity
  8
TEXT
100
AcDbLine
 10
3.566214388037985
 20
3.879550391228971
 30
0.0
 11
3.522463616856083
 21
3.961800667225117
 31
0.0
  0
ARC
  5
2CAD
330
2
100
AcDbEntity
  8
TEXT
100
AcDbCircle
 10
3.653415154461017
 20
3.895579799842971
 30
0.0
 40
0.0249058752826653
100
AcDbArc
 50
89.99971217465335
 51
179.9999999999985
  0
ARC
  5
2CAE
330
2
100
AcDbEntity
  8
TEXT
100
AcDbCircle
 10
3.661304111400594
 20
3.953516642500134
 30
0.0
 40
0.0314112657011332
100
AcDbArc
 50
95.88484768694724
 51
173.2388340632136
  0
LINE
  5
2CAF
330
2
100
AcDbEntity
  8
TEXT
100
AcDbLine
 10
3.630111294337486
 20
3.957214719921524
 30
0.0
 11
3.630111294337486
 21
3.984762369782399
 31
0.0
  0
TEXT
  5
2CB0
330
2
100
AcDbEntity
  8
TEXT
100
AcDbText
 10
4.098986813759276
 20
3.811175145439384
 30
0.0
 40
0.0522247191011236
  1
Minneapolis, MN 55432-0008
 41
1.11444212721585
 72
     5
 11
5.42791939802894
 21
3.811175145439384
 31
0.0
100
AcDbText
  0
TEXT
  5
2CB1
330
2
100
AcDbEntity
  8
TEXT
100
AcDbText
 10
4.098986813759276
 20
3.904433572405676
 30
0.0
 40
0.0522247191011236
  1
6536 Main St. N.E. * P.O. Box 32008
 41
0.8388932496075355
 72
     5
 11
5.42791939802894
 21
3.904433572405676
 31
0.0
100
AcDbText
  0
TEXT
  5
2CB2
330
2
100
AcDbEntity
  8
TEXT
100
AcDbText
 10
4.098986813759276
 20
3.997691999371968
 30
0.0
 40
0.0522247191011236
  1
Stylmark  Incorporated
 41
1.221428571428571
 72
     5
 11
5.42791939802894
 21
3.997691999371968
 31
0.0
100
AcDbText
  0
TEXT
  5
2CB3
330
2
100
AcDbEntity
  8
TEXT
100
AcDbText
 10
4.098986813759276
 20
3.717916718473092
 30
0.0
 40
0.0522247191011236
  1
Phone  1-800-328-2495
 41
1.272321428571429
 72
     5
 11
5.42791939802894
 21
3.717916718473092
 31
0.0
100
AcDbText
  0
LINE
  5
2CB4
330
2
100
AcDbEntity
  8
TEXT
100
AcDbLine
 10
3.851431002296261
 20
3.874869126841425
 30
0.0
 11
3.915988118261966
 21
3.984762369782399
 31
0.0
  0
LINE
  5
2CB5
330
2
100
AcDbEntity
  8
TEXT
100
AcDbLine
 10
3.915988118261966
 20
3.984762369782399
 30
0.0
 11
3.84099628553234
 21
3.984762369782399
 31
0.0
  0
LINE
  5
2CB6
330
2
100
AcDbEntity
  8
TEXT
100
AcDbLine
 10
3.870344853283666
 20
3.718289336793888
 30
0.0
 11
3.946923225659872
 21
3.718289336793888
 31
0.0
  0
LINE
  5
2CB7
330
2
100
AcDbEntity
  8
TEXT
100
AcDbLine
 10
3.946923225659872
 20
3.718289336793888
 30
0.0
 11
3.851431002296261
 21
3.874869126841425
 31
0.0
  0
LINE
  5
2CB8
330
2
100
AcDbEntity
  8
TEXT
100
AcDbLine
 10
3.794441320072201
 20
3.718289336793888
 30
0.0
 11
3.794441320072201
 21
3.849868905270068
 31
0.0
  0
LINE
  5
2CB9
330
2
100
AcDbEntity
  8
TEXT
100
AcDbLine
 10
3.794441320072201
 20
3.849868905270068
 30
0.0
 11
3.870344853283666
 21
3.718289336793888
 31
0.0
  0
LINE
  5
2CBA
330
2
100
AcDbEntity
  8
TEXT
100
AcDbLine
 10
3.730063135753575
 20
3.920485675125633
 30
0.0
 11
3.730063135753581
 21
3.718289336793888
 31
0.0
  0
LINE
  5
2CBB
330
2
100
AcDbEntity
  8
TEXT
100
AcDbLine
 10
3.730063135753581
 20
3.718289336793888
 30
0.0
 11
3.794441320072201
 21
3.718289336793888
 31
0.0
  0
LINE
  5
2CBC
330
2
100
AcDbEntity
  8
TEXT
100
AcDbLine
 10
3.793898126976354
 20
4.050226575549999
 30
0.0
 11
3.72558324842708
 21
4.050226575549999
 31
0.0
  0
LINE
  5
2CBD
330
2
100
AcDbEntity
  8
TEXT
100
AcDbLine
 10
3.72558324842708
 20
4.050226575549999
 30
0.0
 11
3.725583248427075
 21
3.984762369782399
 31
0.0
  0
LINE
  5
2CBE
330
2
100
AcDbEntity
  8
TEXT
100
AcDbLine
 10
3.840996285532338
 20
3.984762369782399
 30
0.0
 11
3.793898126976354
 21
3.908897043370861
 31
0.0
  0
LINE
  5
2CBF
330
2
100
AcDbEntity
  8
TEXT
100
AcDbLine
 10
3.793898126976354
 20
3.908897043370861
 30
0.0
 11
3.793898126976354
 21
4.050226575549999
 31
0.0
  0
ENDSEC
  0
SECTION
  2
OBJECTS
  0
DICTIONARY
  5
1B
330
0
100
AcDbDictionary
  3
ACAD_GROUP
350
19
  3
ACAD_LAYOUT
350
2CC4
  3
ACAD_MLINESTYLE
350
1A
  3
ACAD_PLOTSETTINGS
350
2CC5
  3
ACAD_PLOTSTYLENAME
350
2CC2
  3
ACDBHEADERROUNDTRIPXREC
350
2CCF
  3
ACDBVARIABLEDICTIONARY
350
2CCC
  0
DICTIONARY
  5
2CEF
330
2
100
AcDbDictionary
280
     1
  3
ACAD_LAYOUTSELFREF
360
2CF0
  0
DICTIONARY
  5
2CF1
330
8
100
AcDbDictionary
280
     1
  3
ACAD_LAYOUTSELFREF
360
2CF2
  0
DICTIONARY
  5
19
102
{ACAD_REACTORS
330
1B
102
}
330
1B
100
AcDbDictionary
  3
*A1
350
3DA
  3
*A10
350
27C0
  3
*A11
350
2807
  3
*A12
350
2B70
  3
*A13
350
3DB
  3
*A14
350
3DC
  3
*A15
350
3DD
  3
*A16
350
3DE
  3
*A17
350
3DF
  3
*A18
350
3E0
  3
*A2
350
3E1
  3
*A3
350
3E2
  3
*A4
350
3E3
  3
*A5
350
3E4
  3
*A6
350
3E5
  3
*A7
350
3E6
  3
*A8
350
3E7
  3
*A9
350
3E8
  0
DICTIONARY
  5
2CC4
102
{ACAD_REACTORS
330
1B
102
}
330
1B
100
AcDbDictionary
  0
DICTIONARY
  5
1A
102
{ACAD_REACTORS
330
1B
102
}
330
1B
100
AcDbDictionary
  3
STANDARD
350
1E
  0
DICTIONARY
  5
2CC5
102
{ACAD_REACTORS
330
1B
102
}
330
1B
100
AcDbDictionary
  0
ACDBDICTIONARYWDFLT
  5
2CC2
102
{ACAD_REACTORS
330
1B
102
}
330
1B
100
AcDbDictionary
281
     1
  3
Normal
350
2CC3
100
AcDbDictionaryWithDefault
340
2CC3
  0
DICTIONARY
  5
2CCF
102
{ACAD_REACTORS
330
1B
102
}
330
1B
100
AcDbDictionary
  3
CEPSNTYPE
350
2CD9
  3
FINGERPRINTGUID
350
2CDA
  3
HYPERLINKBASE
350
2CD2
  3
INSUNITS
350
2CD8
  3
LAYOUTDICT
350
2CD4
  3
LWETCUNION
350
2CD7
  3
PLOTSETDICT
350
2CD5
  3
PLOTSTYLNAMDICT
350
2CD6
  3
PSVPSCALE
350
2CDC
  3
PUCSBASE
350
2CDF
  3
PUCSORGBACK
350
2CE5
  3
PUCSORGBOTTOM
350
2CE1
  3
PUCSORGFRONT
350
2CE4
  3
PUCSORGLEFT
350
2CE2
  3
PUCSORGRIGHT
350
2CE3
  3
PUCSORGTOP
350
2CE0
  3
PUCSORTHOREF
350
2CDD
  3
PUCSORTHOVIEW
350
2CDE
  3
STYLESHEET
350
2CD3
  3
TSTACKALIGN
350
2CD0
  3
TSTACKSIZE
350
2CD1
  3
UCSBASE
350
2CE8
  3
UCSORGBACK
350
2CEE
  3
UCSORGBOTTOM
350
2CEA
  3
UCSORGFRONT
350
2CED
  3
UCSORGLEFT
350
2CEB
  3
UCSORGRIGHT
350
2CEC
  3
UCSORGTOP
350
2CE9
  3
UCSORTHOREF
350
2CE6
  3
UCSORTHOVIEW
350
2CE7
  3
VERSIONGUID
350
2CDB
  0
DICTIONARY
  5
2CCC
102
{ACAD_REACTORS
330
1B
102
}
330
1B
100
AcDbDictionary
  3
DIMASSOC
350
2CCD
  0
XRECORD
  5
2CF0
102
{ACAD_REACTORS
330
2CEF
102
}
330
2CEF
100
AcDbXrecord
340
2
  0
XRECORD
  5
2CF2
102
{ACAD_REACTORS
330
2CF1
102
}
330
2CF1
100
AcDbXrecord
340
8
  0
GROUP
  5
3DA
102
{ACAD_REACTORS
330
19
102
}
330
19
100
AcDbGroup
300
BORDER FRAME 10-1-95
 70
     3
 71
     1
  0
GROUP
  5
27C0
102
{ACAD_REACTORS
330
19
102
}
330
19
100
AcDbGroup
300

 70
     1
 71
     1
  0
GROUP
  5
2807
102
{ACAD_REACTORS
330
19
102
}
330
19
100
AcDbGroup
300
BORDER FRAME 10-1-95
 70
     3
 71
     1
  0
GROUP
  5
2B70
102
{ACAD_REACTORS
330
19
102
}
330
19
100
AcDbGroup
300

 70
     1
 71
     1
  0
GROUP
  5
3DB
102
{ACAD_REACTORS
330
19
102
}
330
19
100
AcDbGroup
300

 70
     3
 71
     1
  0
GROUP
  5
3DC
102
{ACAD_REACTORS
330
19
102
}
330
19
100
AcDbGroup
300

 70
     3
 71
     1
  0
GROUP
  5
3DD
102
{ACAD_REACTORS
330
19
102
}
330
19
100
AcDbGroup
300

 70
     3
 71
     1
  0
GROUP
  5
3DE
102
{ACAD_REACTORS
330
19
102
}
330
19
100
AcDbGroup
300
BORDER FRAME 10-1-95
 70
     3
 71
     1
  0
GROUP
  5
3DF
102
{ACAD_REACTORS
330
19
102
}
330
19
100
AcDbGroup
300

 70
     3
 71
     1
  0
GROUP
  5
3E0
102
{ACAD_REACTORS
330
19
102
}
330
19
100
AcDbGroup
300

 70
     3
 71
     1
  0
GROUP
  5
3E1
102
{ACAD_REACTORS
330
19
102
}
330
19
100
AcDbGroup
300

 70
     3
 71
     1
  0
GROUP
  5
3E2
102
{ACAD_REACTORS
330
19
102
}
330
19
100
AcDbGroup
300
BORDER FRAME 10-1-95
 70
     3
 71
     1
  0
GROUP
  5
3E3
102
{ACAD_REACTORS
330
19
102
}
330
19
100
AcDbGroup
300

 70
     3
 71
     1
  0
GROUP
  5
3E4
102
{ACAD_REACTORS
330
19
102
}
330
19
100
AcDbGroup
300

 70
     3
 71
     1
  0
GROUP
  5
3E5
102
{ACAD_REACTORS
330
19
102
}
330
19
100
AcDbGroup
300
BORDER FRAME 10-1-95
 70
     3
 71
     1
  0
GROUP
  5
3E6
102
{ACAD_REACTORS
330
19
102
}
330
19
100
AcDbGroup
300

 70
     3
 71
     1
  0
GROUP
  5
3E7
102
{ACAD_REACTORS
330
19
102
}
330
19
100
AcDbGroup
300

 70
     3
 71
     1
  0
GROUP
  5
3E8
102
{ACAD_REACTORS
330
19
102
}
330
19
100
AcDbGroup
300
BORDER FRAME 10-1-95
 70
     3
 71
     1
  0
MLINESTYLE
  5
1E
102
{ACAD_REACTORS
330
1A
102
}
330
1A
100
AcDbMlineStyle
  2
STANDARD
 70
     0
  3

 62
     0
 51
90.0
 52
90.0
 71
     2
 49
0.5
 62
   256
  6
BYLAYER
 49
-0.5
 62
   256
  6
BYLAYER
  0
ACDBPLACEHOLDER
  5
2CC3
102
{ACAD_REACTORS
330
2CC2
102
}
330
2CC2
100
AcDbPlaceHolder
280
     0
  0
XRECORD
  5
2CD9
102
{ACAD_REACTORS
330
2CCF
102
}
330
2CCF
100
AcDbXrecord
 90
        0
  0
XRECORD
  5
2CDA
102
{ACAD_REACTORS
330
2CCF
102
}
330
2CCF
100
AcDbXrecord
  1
{A930F910-8DB8-11D6-88E6-0090279574E7}
  0
XRECORD
  5
2CD2
102
{ACAD_REACTORS
330
2CCF
102
}
330
2CCF
100
AcDbXrecord
  1

  0
XRECORD
  5
2CD8
102
{ACAD_REACTORS
330
2CCF
102
}
330
2CCF
100
AcDbXrecord
 90
        0
  0
XRECORD
  5
2CD4
102
{ACAD_REACTORS
330
2CCF
102
}
330
2CCF
100
AcDbXrecord
340
2CC4
  0
XRECORD
  5
2CD7
102
{ACAD_REACTORS
330
2CCF
102
}
330
2CCF
100
AcDbXrecord
 90
    14877
  0
XRECORD
  5
2CD5
102
{ACAD_REACTORS
330
2CCF
102
}
330
2CCF
100
AcDbXrecord
340
2CC5
  0
XRECORD
  5
2CD6
102
{ACAD_REACTORS
330
2CCF
102
}
330
2CCF
100
AcDbXrecord
340
2CC2
  0
XRECORD
  5
2CDC
102
{ACAD_REACTORS
330
2CCF
102
}
330
2CCF
100
AcDbXrecord
 40
0.0
  0
XRECORD
  5
2CDF
102
{ACAD_REACTORS
330
2CCF
102
}
330
2CCF
100
AcDbXrecord
340
0
  0
XRECORD
  5
2CE5
102
{ACAD_REACTORS
330
2CCF
102
}
330
2CCF
100
AcDbXrecord
 10
0.0
 20
0.0
 30
0.0
  0
XRECORD
  5
2CE1
102
{ACAD_REACTORS
330
2CCF
102
}
330
2CCF
100
AcDbXrecord
 10
0.0
 20
0.0
 30
0.0
  0
XRECORD
  5
2CE4
102
{ACAD_REACTORS
330
2CCF
102
}
330
2CCF
100
AcDbXrecord
 10
0.0
 20
0.0
 30
0.0
  0
XRECORD
  5
2CE2
102
{ACAD_REACTORS
330
2CCF
102
}
330
2CCF
100
AcDbXrecord
 10
0.0
 20
0.0
 30
0.0
  0
XRECORD
  5
2CE3
102
{ACAD_REACTORS
330
2CCF
102
}
330
2CCF
100
AcDbXrecord
 10
0.0
 20
0.0
 30
0.0
  0
XRECORD
  5
2CE0
102
{ACAD_REACTORS
330
2CCF
102
}
330
2CCF
100
AcDbXrecord
 10
0.0
 20
0.0
 30
0.0
  0
XRECORD
  5
2CDD
102
{ACAD_REACTORS
330
2CCF
102
}
330
2CCF
100
AcDbXrecord
340
0
  0
XRECORD
  5
2CDE
102
{ACAD_REACTORS
330
2CCF
102
}
330
2CCF
100
AcDbXrecord
 70
     0
  0
XRECORD
  5
2CD3
102
{ACAD_REACTORS
330
2CCF
102
}
330
2CCF
100
AcDbXrecord
  1

  0
XRECORD
  5
2CD0
102
{ACAD_REACTORS
330
2CCF
102
}
330
2CCF
100
AcDbXrecord
 90
        1
  0
XRECORD
  5
2CD1
102
{ACAD_REACTORS
330
2CCF
102
}
330
2CCF
100
AcDbXrecord
 90
       70
  0
XRECORD
  5
2CE8
102
{ACAD_REACTORS
330
2CCF
102
}
330
2CCF
100
AcDbXrecord
340
0
  0
XRECORD
  5
2CEE
102
{ACAD_REACTORS
330
2CCF
102
}
330
2CCF
100
AcDbXrecord
 10
0.0
 20
0.0
 30
0.0
  0
XRECORD
  5
2CEA
102
{ACAD_REACTORS
330
2CCF
102
}
330
2CCF
100
AcDbXrecord
 10
0.0
 20
0.0
 30
0.0
  0
XRECORD
  5
2CED
102
{ACAD_REACTORS
330
2CCF
102
}
330
2CCF
100
AcDbXrecord
 10
0.0
 20
0.0
 30
0.0
  0
XRECORD
  5
2CEB
102
{ACAD_REACTORS
330
2CCF
102
}
330
2CCF
100
AcDbXrecord
 10
0.0
 20
0.0
 30
0.0
  0
XRECORD
  5
2CEC
102
{ACAD_REACTORS
330
2CCF
102
}
330
2CCF
100
AcDbXrecord
 10
0.0
 20
0.0
 30
0.0
  0
XRECORD
  5
2CE9
102
{ACAD_REACTORS
330
2CCF
102
}
330
2CCF
100
AcDbXrecord
 10
0.0
 20
0.0
 30
0.0
  0
XRECORD
  5
2CE6
102
{ACAD_REACTORS
330
2CCF
102
}
330
2CCF
100
AcDbXrecord
340
0
  0
XRECORD
  5
2CE7
102
{ACAD_REACTORS
330
2CCF
102
}
330
2CCF
100
AcDbXrecord
 70
     0
  0
XRECORD
  5
2CDB
102
{ACAD_REACTORS
330
2CCF
102
}
330
2CCF
100
AcDbXrecord
  1
{A930F912-8DB8-11D6-88E6-0090279574E7}
  0
DICTIONARYVAR
  5
2CCD
102
{ACAD_REACTORS
330
2CCC
102
}
330
2CCC
100
DictionaryVariables
280
     0
  1
1
  0
ENDSEC
  0
EOF
