  0
SECTION
  2
HEADER
  9
$ACADVER
  1
AC1014
  9
$ACADMAINTVER
 70
     9
  9
$DWGCODEPAGE
  3
ANSI_1252
  9
$INSBASE
 10
67.86131875704753
 20
18.12861629863008
 30
15.46
  9
$EXTMIN
 10
-0.9826766481502858
 20
1.596886829008852
 30
0.0
  9
$EXTMAX
 10
2.502542673596842
 20
2.591628917785483
 30
0.0
  9
$LIMMIN
 10
0.0
 20
0.0
  9
$LIMMAX
 10
18.0
 20
12.0
  9
$ORTHOMODE
 70
     0
  9
$REGENMODE
 70
     1
  9
$FILLMODE
 70
     1
  9
$QTEXTMODE
 70
     0
  9
$MIRRTEXT
 70
     0
  9
$DRAGMODE
 70
     2
  9
$LTSCALE
 40
1.0
  9
$OSMODE
 70
    39
  9
$ATTMODE
 70
     1
  9
$TEXTSIZE
 40
0.125
  9
$TRACEWID
 40
0.05
  9
$TEXTSTYLE
  7
ROMANS
  9
$CLAYER
  8
DIM
  9
$CELTYPE
  6
BYLAYER
  9
$CECOLOR
 62
   256
  9
$CELTSCALE
 40
1.0
  9
$DELOBJ
 70
     1
  9
$DISPSILH
 70
     1
  9
$DIMSCALE
 40
1.0
  9
$DIMASZ
 40
0.125
  9
$DIMEXO
 40
0.125
  9
$DIMDLI
 40
0.375
  9
$DIMRND
 40
0.0
  9
$DIMDLE
 40
0.0
  9
$DIMEXE
 40
0.125
  9
$DIMTP
 40
0.0
  9
$DIMTM
 40
0.0
  9
$DIMTXT
 40
0.125
  9
$DIMCEN
 40
-0.125
  9
$DIMTSZ
 40
0.0
  9
$DIMTOL
 70
     0
  9
$DIMLIM
 70
     0
  9
$DIMTIH
 70
     1
  9
$DIMTOH
 70
     1
  9
$DIMSE1
 70
     0
  9
$DIMSE2
 70
     0
  9
$DIMTAD
 70
     0
  9
$DIMZIN
 70
     4
  9
$DIMBLK
  1

  9
$DIMASO
 70
     1
  9
$DIMSHO
 70
     1
  9
$DIMPOST
  1

  9
$DIMAPOST
  1

  9
$DIMALT
 70
     0
  9
$DIMALTD
 70
     2
  9
$DIMALTF
 40
25.4
  9
$DIMLFAC
 40
0.125
  9
$DIMTOFL
 70
     0
  9
$DIMTVP
 40
0.0
  9
$DIMTIX
 70
     1
  9
$DIMSOXD
 70
     0
  9
$DIMSAH
 70
     0
  9
$DIMBLK1
  1

  9
$DIMBLK2
  1

  9
$DIMSTYLE
  2
STANDARD
  9
$DIMCLRD
 70
     0
  9
$DIMCLRE
 70
     0
  9
$DIMCLRT
 70
     0
  9
$DIMTFAC
 40
1.0
  9
$DIMGAP
 40
0.09
  9
$DIMJUST
 70
     0
  9
$DIMSD1
 70
     0
  9
$DIMSD2
 70
     0
  9
$DIMTOLJ
 70
     1
  9
$DIMTZIN
 70
     4
  9
$DIMALTZ
 70
     0
  9
$DIMALTTZ
 70
     0
  9
$DIMFIT
 70
     3
  9
$DIMUPT
 70
     0
  9
$DIMUNIT
 70
     2
  9
$DIMDEC
 70
     3
  9
$DIMTDEC
 70
     3
  9
$DIMALTU
 70
     2
  9
$DIMALTTD
 70
     2
  9
$DIMTXSTY
  7
ROMANS
  9
$DIMAUNIT
 70
     0
  9
$LUNITS
 70
     2
  9
$LUPREC
 70
     3
  9
$SKETCHINC
 40
0.1
  9
$FILLETRAD
 40
0.063
  9
$AUNITS
 70
     0
  9
$AUPREC
 70
     0
  9
$MENU
  1
ACAD
  9
$ELEVATION
 40
0.0
  9
$PELEVATION
 40
0.0
  9
$THICKNESS
 40
0.0
  9
$LIMCHECK
 70
     0
  9
$BLIPMODE
 70
     0
  9
$CHAMFERA
 40
0.0
  9
$CHAMFERB
 40
0.0
  9
$CHAMFERC
 40
0.0
  9
$CHAMFERD
 40
0.0
  9
$SKPOLY
 70
     0
  9
$TDCREATE
 40
2450420.297179942
  9
$TDUPDATE
 40
2452458.318473541
  9
$TDINDWG
 40
0.4916266898
  9
$TDUSRTIMER
 40
0.4916266898
  9
$USRTIMER
 70
     1
  9
$ANGBASE
 50
0.0
  9
$ANGDIR
 70
     0
  9
$PDMODE
 70
     0
  9
$PDSIZE
 40
0.0
  9
$PLINEWID
 40
0.0
  9
$COORDS
 70
     2
  9
$SPLFRAME
 70
     0
  9
$SPLINETYPE
 70
     6
  9
$SPLINESEGS
 70
     8
  9
$ATTDIA
 70
     0
  9
$ATTREQ
 70
     1
  9
$HANDLING
 70
 22529
  9
$HANDSEED
  5
577
  9
$SURFTAB1
 70
     6
  9
$SURFTAB2
 70
     6
  9
$SURFTYPE
 70
     6
  9
$SURFU
 70
     6
  9
$SURFV
 70
     6
  9
$UCSNAME
  2

  9
$UCSORG
 10
0.0
 20
0.0
 30
0.0
  9
$UCSXDIR
 10
1.0
 20
0.0
 30
0.0
  9
$UCSYDIR
 10
0.0
 20
1.0
 30
0.0
  9
$PUCSNAME
  2

  9
$PUCSORG
 10
0.0
 20
0.0
 30
0.0
  9
$PUCSXDIR
 10
1.0
 20
0.0
 30
0.0
  9
$PUCSYDIR
 10
0.0
 20
1.0
 30
0.0
  9
$USERI1
 70
     0
  9
$USERI2
 70
     0
  9
$USERI3
 70
     0
  9
$USERI4
 70
     0
  9
$USERI5
 70
     0
  9
$USERR1
 40
0.0
  9
$USERR2
 40
0.0
  9
$USERR3
 40
0.0
  9
$USERR4
 40
0.0
  9
$USERR5
 40
0.0
  9
$WORLDVIEW
 70
     1
  9
$SHADEDGE
 70
     3
  9
$SHADEDIF
 70
    70
  9
$TILEMODE
 70
     1
  9
$MAXACTVP
 70
    16
  9
$PINSBASE
 10
0.0
 20
0.0
 30
0.0
  9
$PLIMCHECK
 70
     0
  9
$PEXTMIN
 10
1.000000000000000E+20
 20
1.000000000000000E+20
 30
1.000000000000000E+20
  9
$PEXTMAX
 10
-1.000000000000000E+20
 20
-1.000000000000000E+20
 30
-1.000000000000000E+20
  9
$PLIMMIN
 10
0.0
 20
0.0
  9
$PLIMMAX
 10
12.0
 20
9.0
  9
$UNITMODE
 70
     0
  9
$VISRETAIN
 70
     0
  9
$PLINEGEN
 70
     1
  9
$PSLTSCALE
 70
     0
  9
$TREEDEPTH
 70
  3020
  9
$PICKSTYLE
 70
     1
  9
$CMLSTYLE
  2
STANDARD
  9
$CMLJUST
 70
     0
  9
$CMLSCALE
 40
1.0
  9
$PROXYGRAPHICS
 70
     1
  9
$MEASUREMENT
 70
     0
  0
ENDSEC
  0
SECTION
  2
CLASSES
  0
CLASS
  1
LWPOLYLINE
  2
AcDbPolyline
  3
AutoCAD 2000
 90
        0
280
     0
281
     1
  0
CLASS
  1
ACDBDICTIONARYWDFLT
  2
AcDbDictionaryWithDefault
  3
AutoCAD 2000
 90
        0
280
     0
281
     0
  0
CLASS
  1
ACDBPLACEHOLDER
  2
AcDbPlaceHolder
  3
AutoCAD 2000
 90
        0
280
     0
281
     0
  0
CLASS
  1
LAYOUT
  2
AcDbLayout
  3
AutoCAD 2000
 90
        0
280
     0
281
     0
  0
CLASS
  1
DICTIONARYVAR
  2
AcDbDictionaryVar
  3
AutoCAD 2000
 90
        0
280
     0
281
     0
  0
CLASS
  1
LONG_TRANSACTION
  2
AcDbLongTransaction
  3
AutoCAD 2000
 90
        0
280
     0
281
     0
  0
CLASS
  1
LWPOLYLINE
  2
AcDbPolyline
  3
AutoCAD 2000
 90
        0
280
     0
281
     1
  0
CLASS
  1
HATCH
  2
AcDbHatch
  3
AutoCAD 2000
 90
        0
280
     0
281
     1
  0
CLASS
  1
XRECORD
  2
AcDbXrecord
  3
AutoCAD 2000
 90
        0
280
     0
281
     0
  0
ENDSEC
  0
SECTION
  2
TABLES
  0
TABLE
  2
VPORT
  5
12
330
0
100
AcDbSymbolTable
 70
     2
  0
VPORT
  5
552
330
12
100
AcDbSymbolTableRecord
100
AcDbViewportTableRecord
  2
*ACTIVE
 70
     0
 10
0.0
 20
0.0
 11
1.0
 21
1.0
 12
3.681638423699751
 22
2.0943522878263
 13
0.0
 23
0.0
 14
0.015625
 24
0.015625
 15
0.0
 25
0.0
 16
0.0
 26
0.0
 36
1.0
 17
0.0
 27
0.0
 37
0.0
 40
2.163628077419664
 41
4.320930232558139
 42
50.0
 43
0.0
 44
0.0
 50
0.0
 51
0.0
 71
     0
 72
  2000
 73
     1
 74
     1
 75
     0
 76
     0
 77
     0
 78
     0
  0
ENDTAB
  0
TABLE
  2
LTYPE
  5
E
330
0
100
AcDbSymbolTable
 70
     1
  0
LTYPE
  5
F
330
E
100
AcDbSymbolTableRecord
100
AcDbLinetypeTableRecord
  2
BYBLOCK
 70
     0
  3

 72
    65
 73
     0
 40
0.0
  0
LTYPE
  5
6
330
E
100
AcDbSymbolTableRecord
100
AcDbLinetypeTableRecord
  2
BYLAYER
 70
     0
  3

 72
    65
 73
     0
 40
0.0
  0
LTYPE
  5
5
330
E
100
AcDbSymbolTableRecord
100
AcDbLinetypeTableRecord
  2
CONTINUOUS
 70
     0
  3
Solid line
 72
    65
 73
     0
 40
0.0
  0
ENDTAB
  0
TABLE
  2
LAYER
  5
B
330
0
100
AcDbSymbolTable
 70
     3
  0
LAYER
  5
4
330
B
100
AcDbSymbolTableRecord
100
AcDbLayerTableRecord
  2
0
 70
     0
 62
     7
  6
CONTINUOUS
  0
LAYER
  5
22
330
B
100
AcDbSymbolTableRecord
100
AcDbLayerTableRecord
  2
TEXT
 70
     0
 62
     3
  6
CONTINUOUS
  0
LAYER
  5
398
330
B
100
AcDbSymbolTableRecord
100
AcDbLayerTableRecord
  2
DIM
 70
     0
 62
     4
  6
CONTINUOUS
  0
ENDTAB
  0
TABLE
  2
STYLE
  5
C
330
0
100
AcDbSymbolTable
 70
     3
  0
STYLE
  5
D
330
C
100
AcDbSymbolTableRecord
100
AcDbTextStyleTableRecord
  2
STANDARD
 70
     0
 40
0.0
 41
1.0
 50
0.0
 71
     0
 42
0.625
  3
txt
  4

  0
STYLE
  5
1B
330
C
100
AcDbSymbolTableRecord
100
AcDbTextStyleTableRecord
  2
ROMANS
 70
     0
 40
0.0
 41
1.0
 50
0.0
 71
     0
 42
0.125
  3
romans.shx
  4

  0
STYLE
  5
440
330
C
100
AcDbSymbolTableRecord
100
AcDbTextStyleTableRecord
  2
ITALICC
 70
     0
 40
0.0
 41
1.0
 50
0.0
 71
     0
 42
0.125
  3
italicc
  4

  0
ENDTAB
  0
TABLE
  2
VIEW
  5
10
330
0
100
AcDbSymbolTable
 70
     0
  0
ENDTAB
  0
TABLE
  2
UCS
  5
11
330
0
100
AcDbSymbolTable
 70
     0
  0
ENDTAB
  0
TABLE
  2
APPID
  5
14
330
0
100
AcDbSymbolTable
 70
     1
  0
APPID
  5
15
330
14
100
AcDbSymbolTableRecord
100
AcDbRegAppTableRecord
  2
ACAD
 70
     0
  0
ENDTAB
  0
TABLE
  2
DIMSTYLE
  5
16
330
0
100
AcDbSymbolTable
 70
     1
  0
DIMSTYLE
105
1D
330
16
100
AcDbSymbolTableRecord
100
AcDbDimStyleTableRecord
  2
STANDARD
 70
     0
  3

  4

  5

  6

  7

 40
1.0
 41
0.125
 42
0.125
 43
0.375
 44
0.125
 45
0.0
 46
0.0
 47
0.0
 48
0.0
140
0.125
141
-0.125
142
0.0
143
25.4
144
1.0
145
0.0
146
1.0
147
0.09
 71
     0
 72
     0
 73
     1
 74
     1
 75
     0
 76
     0
 77
     0
 78
     4
170
     0
171
     2
172
     0
173
     0
174
     1
175
     0
176
     0
177
     0
178
     0
270
     2
271
     3
272
     3
273
     2
274
     2
340
1B
275
     0
280
     0
281
     0
282
     0
283
     1
284
     4
285
     0
286
     0
287
     3
288
     0
  0
ENDTAB
  0
TABLE
  2
BLOCK_RECORD
  5
1
330
0
100
AcDbSymbolTable
 70
     0
  0
BLOCK_RECORD
  5
2
102
{ACAD_XDICTIONARY
360
573
102
}
330
1
100
AcDbSymbolTableRecord
100
AcDbBlockTableRecord
  2
*MODEL_SPACE
  0
BLOCK_RECORD
  5
8
102
{ACAD_XDICTIONARY
360
575
102
}
330
1
100
AcDbSymbolTableRecord
100
AcDbBlockTableRecord
  2
*PAPER_SPACE
  0
ENDTAB
  0
ENDSEC
  0
SECTION
  2
BLOCKS
  0
BLOCK
  5
3
330
2
100
AcDbEntity
  8
0
100
AcDbBlockBegin
  2
*MODEL_SPACE
 70
     0
 10
0.0
 20
0.0
 30
0.0
  3
*MODEL_SPACE
  1

  0
ENDBLK
  5
7
330
2
100
AcDbEntity
  8
0
100
AcDbBlockEnd
  0
BLOCK
  5
9
330
8
100
AcDbEntity
 67
     1
  8
0
100
AcDbBlockBegin
  2
*PAPER_SPACE
 70
     0
 10
0.0
 20
0.0
 30
0.0
  3
*PAPER_SPACE
  1

  0
ENDBLK
  5
A
330
8
100
AcDbEntity
 67
     1
  8
0
100
AcDbBlockEnd
  0
ENDSEC
  0
SECTION
  2
ENTITIES
  0
LWPOLYLINE
  5
3D3
330
2
100
AcDbEntity
  8
0
100
AcDbPolyline
 90
        8
 70
     1
 43
0.0
 10
1.020526695296636
 20
2.591628917785483
 10
1.020526695296636
 20
2.388128917785496
 10
0.9446014681777491
 20
2.388128917785496
 10
0.9247766952966403
 20
2.422466431664108
 42
3.732050807567887
 10
0.866276695296632
 20
2.422466431664108
 10
0.846451922415509
 20
2.388128917785496
 10
0.7705266952966361
 20
2.388128917785496
 10
0.7705266952966361
 20
2.591628917785483
  0
TEXT
  5
4C5
330
2
100
AcDbEntity
  8
TEXT
100
AcDbText
 10
0.0073287406006668
 20
2.054905433091434
 30
0.0
 40
0.125
  1
PART #110574
  7
ITALICC
 72
     1
 11
0.7603049310768571
 21
2.054905433091434
 31
0.0
100
AcDbText
  0
LINE
  5
4C6
330
2
100
AcDbEntity
  8
TEXT
100
AcDbLine
 10
0.7280384300289198
 20
1.8105517470716
 30
0.0
 11
0.8046864113214775
 21
1.8105517470716
 31
0.0
  0
LINE
  5
4C7
330
2
100
AcDbEntity
  8
TEXT
100
AcDbLine
 10
0.8002065239949773
 20
1.874828441728365
 30
0.0
 11
0.732706806345461
 21
1.874828441728365
 31
0.0
  0
LWPOLYLINE
  5
4C8
330
2
100
AcDbEntity
  8
TEXT
100
AcDbPolyline
 90
        5
 70
     0
 43
0.0001332181640625
 10
-0.9090736125057553
 20
1.751601639970552
 10
-0.8957517960995065
 20
1.751601639970552
 10
-0.8957517960995065
 20
1.788236635087742
 10
-0.8591168009823167
 20
1.788236635087742
 10
-0.8591168009823167
 20
1.801558451493989
  0
LWPOLYLINE
  5
4C9
330
2
100
AcDbEntity
  8
TEXT
100
AcDbPolyline
 90
        3
 70
     0
 43
0.0006660908203125
 10
-0.8691081632870073
 20
1.848184808915868
 10
-0.9556999699276321
 20
1.848184808915868
 10
-0.9556999699276321
 20
1.761593002275241
  0
LWPOLYLINE
  5
4CA
330
2
100
AcDbEntity
  8
TEXT
100
AcDbPolyline
 90
        3
 70
     0
 43
0.0006660908203125
 10
-0.8691081632870073
 20
1.874828441728369
 10
-0.9823436027401296
 20
1.874828441728369
 10
-0.9823436027401296
 20
1.761593002275241
  0
LWPOLYLINE
  5
4CB
330
2
100
AcDbEntity
  8
TEXT
100
AcDbPolyline
 90
        5
 70
     0
 43
0.0001332181640625
 10
-0.8591168009823167
 20
1.681662103837742
 10
-0.8591168009823167
 20
1.694983920243992
 10
-0.8957517960995048
 20
1.694983920243992
 10
-0.8957517960995048
 20
1.731618915361178
 10
-0.9090736125057553
 20
1.731618915361178
  0
LWPOLYLINE
  5
4CC
330
2
100
AcDbEntity
  8
TEXT
100
AcDbPolyline
 90
        3
 70
     0
 43
0.0006660908203125
 10
-0.9556999699276321
 20
1.721627553056493
 10
-0.9556999699276321
 20
1.635035746415867
 10
-0.8691081632870073
 20
1.635035746415867
  0
LWPOLYLINE
  5
4CD
330
2
100
AcDbEntity
  8
TEXT
100
AcDbPolyline
 90
        3
 70
     0
 43
0.0006660908203125
 10
-0.9823436027401296
 20
1.721627553056493
 10
-0.9823436027401296
 20
1.608392113603366
 10
-0.8691081632870073
 20
1.608392113603366
  0
LWPOLYLINE
  5
4CE
330
2
100
AcDbEntity
  8
TEXT
100
AcDbPolyline
 90
        2
 70
     0
 43
0.0001332181640625
 10
-0.9556999699276321
 20
1.721627553056493
 10
-0.8957517960995048
 20
1.731618915361178
  0
LWPOLYLINE
  5
4CF
330
2
100
AcDbEntity
  8
TEXT
100
AcDbPolyline
 90
        2
 70
     0
 43
0.0001332181640625
 10
-0.9090736125057553
 20
1.731618915361178
 10
-0.9823436027401296
 20
1.721627553056493
  0
LWPOLYLINE
  5
4D0
330
2
100
AcDbEntity
  8
TEXT
100
AcDbPolyline
 90
        2
 70
     0
 43
0.0006660908203125
 10
-0.9556999699276321
 20
1.721627553056493
 10
-0.9823436027401296
 20
1.721627553056493
  0
LWPOLYLINE
  5
4D1
330
2
100
AcDbEntity
  8
TEXT
100
AcDbPolyline
 90
        2
 70
     0
 43
0.0001332181640625
 10
-0.9556999699276321
 20
1.635035746415867
 10
-0.8957517960995048
 20
1.694983920243992
  0
LWPOLYLINE
  5
4D2
330
2
100
AcDbEntity
  8
TEXT
100
AcDbPolyline
 90
        2
 70
     0
 43
0.0006660908203125
 10
-0.9556999699276321
 20
1.761593002275241
 10
-0.9823436027401296
 20
1.761593002275241
  0
LWPOLYLINE
  5
4D3
330
2
100
AcDbEntity
  8
TEXT
100
AcDbPolyline
 90
        2
 70
     0
 43
0.0001332181640625
 10
-0.9823436027401296
 20
1.761593002275241
 10
-0.9090736125057553
 20
1.751601639970552
  0
LWPOLYLINE
  5
4D4
330
2
100
AcDbEntity
  8
TEXT
100
AcDbPolyline
 90
        2
 70
     0
 43
0.0001332181640625
 10
-0.9556999699276321
 20
1.761593002275241
 10
-0.8957517960995065
 20
1.751601639970552
  0
LWPOLYLINE
  5
4D5
330
2
100
AcDbEntity
  8
TEXT
100
AcDbPolyline
 90
        2
 70
     0
 43
0.0001332181640625
 10
-0.9556999699276321
 20
1.848184808915868
 10
-0.8957517960995065
 20
1.788236635087742
  0
LWPOLYLINE
  5
4D6
330
2
100
AcDbEntity
  8
TEXT
100
AcDbPolyline
 90
        5
 70
     0
 43
0.0001332181640625
 10
-0.7891772648495059
 20
1.731618915361178
 10
-0.8024990812557547
 20
1.731618915361178
 10
-0.8024990812557547
 20
1.694983920243992
 10
-0.8391340763729445
 20
1.694983920243992
 10
-0.8391340763729445
 20
1.681662103837742
  0
LWPOLYLINE
  5
4D7
330
2
100
AcDbEntity
  8
TEXT
100
AcDbPolyline
 90
        2
 70
     0
 43
0.0001332181640625
 10
-0.7425509074276309
 20
1.721627553056493
 10
-0.8024990812557547
 20
1.731618915361178
  0
LWPOLYLINE
  5
4D8
330
2
100
AcDbEntity
  8
TEXT
100
AcDbPolyline
 90
        2
 70
     0
 43
0.0001332181640625
 10
-0.7159072746151299
 20
1.721627553056493
 10
-0.7891772648495059
 20
1.731618915361178
  0
LWPOLYLINE
  5
4D9
330
2
100
AcDbEntity
  8
TEXT
100
AcDbPolyline
 90
        3
 70
     0
 43
0.0006660908203125
 10
-0.8291427140682557
 20
1.608392113603366
 10
-0.7159072746151299
 20
1.608392113603366
 10
-0.7159072746151299
 20
1.721627553056493
  0
LWPOLYLINE
  5
4DA
330
2
100
AcDbEntity
  8
TEXT
100
AcDbPolyline
 90
        3
 70
     0
 43
0.0006660908203125
 10
-0.8291427140682557
 20
1.635035746415867
 10
-0.7425509074276309
 20
1.635035746415867
 10
-0.7425509074276309
 20
1.721627553056493
  0
LWPOLYLINE
  5
4DB
330
2
100
AcDbEntity
  8
TEXT
100
AcDbPolyline
 90
        2
 70
     0
 43
0.0001332181640625
 10
-0.7425509074276309
 20
1.635035746415867
 10
-0.8024990812557547
 20
1.694983920243992
  0
LWPOLYLINE
  5
4DC
330
2
100
AcDbEntity
  8
TEXT
100
AcDbPolyline
 90
        2
 70
     0
 43
0.0006660908203125
 10
-0.8291427140682557
 20
1.635035746415867
 10
-0.8291427140682557
 20
1.608392113603366
  0
LWPOLYLINE
  5
4DD
330
2
100
AcDbEntity
  8
TEXT
100
AcDbPolyline
 90
        2
 70
     0
 43
0.0001332181640625
 10
-0.8391340763729445
 20
1.681662103837742
 10
-0.8291427140682557
 20
1.608392113603366
  0
LWPOLYLINE
  5
4DE
330
2
100
AcDbEntity
  8
TEXT
100
AcDbPolyline
 90
        2
 70
     0
 43
0.0001332181640625
 10
-0.8291427140682557
 20
1.635035746415867
 10
-0.8391340763729445
 20
1.694983920243992
  0
LWPOLYLINE
  5
4DF
330
2
100
AcDbEntity
  8
TEXT
100
AcDbPolyline
 90
        2
 70
     0
 43
0.0001332181640625
 10
-0.8691081632870073
 20
1.608392113603366
 10
-0.8591168009823167
 20
1.681662103837742
  0
LWPOLYLINE
  5
4E0
330
2
100
AcDbEntity
  8
TEXT
100
AcDbPolyline
 90
        2
 70
     0
 43
0.0001332181640625
 10
-0.8691081632870073
 20
1.635035746415867
 10
-0.8591168009823167
 20
1.694983920243992
  0
LWPOLYLINE
  5
4E1
330
2
100
AcDbEntity
  8
TEXT
100
AcDbPolyline
 90
        2
 70
     0
 43
0.0006660908203125
 10
-0.8691081632870073
 20
1.635035746415867
 10
-0.8691081632870073
 20
1.608392113603366
  0
LWPOLYLINE
  5
4E2
330
2
100
AcDbEntity
  8
TEXT
100
AcDbPolyline
 90
        2
 70
     0
 43
0.0006660908203125
 10
-0.7425509074276309
 20
1.721627553056493
 10
-0.7159072746151299
 20
1.721627553056493
  0
LWPOLYLINE
  5
4E3
330
2
100
AcDbEntity
  8
TEXT
100
AcDbPolyline
 90
        2
 70
     0
 43
0.0001332181640625
 10
-0.7425509074276309
 20
1.848184808915868
 10
-0.8024990812557547
 20
1.788236635087742
  0
LWPOLYLINE
  5
4E4
330
2
100
AcDbEntity
  8
TEXT
100
AcDbPolyline
 90
        2
 70
     0
 43
0.0001332181640625
 10
-0.7425509074276309
 20
1.761593002275241
 10
-0.8024990812557547
 20
1.751601639970552
  0
LWPOLYLINE
  5
4E5
330
2
100
AcDbEntity
  8
TEXT
100
AcDbPolyline
 90
        2
 70
     0
 43
0.0001332181640625
 10
-0.7891772648495059
 20
1.751601639970552
 10
-0.7159072746151299
 20
1.761593002275241
  0
LWPOLYLINE
  5
4E6
330
2
100
AcDbEntity
  8
TEXT
100
AcDbPolyline
 90
        3
 70
     0
 43
0.0006660908203125
 10
-0.7425509074276309
 20
1.761593002275241
 10
-0.7425509074276309
 20
1.848184808915868
 10
-0.8291427140682557
 20
1.848184808915868
  0
LWPOLYLINE
  5
4E7
330
2
100
AcDbEntity
  8
TEXT
100
AcDbPolyline
 90
        3
 70
     0
 43
0.0006660908203125
 10
-0.7159072746151299
 20
1.761593002275241
 10
-0.7159072746151299
 20
1.874828441728369
 10
-0.8291427140682557
 20
1.874828441728369
  0
LWPOLYLINE
  5
4E8
330
2
100
AcDbEntity
  8
TEXT
100
AcDbPolyline
 90
        2
 70
     0
 43
0.0001332181640625
 10
-0.8291427140682557
 20
1.874828441728369
 10
-0.8391340763729445
 20
1.801558451493989
  0
LWPOLYLINE
  5
4E9
330
2
100
AcDbEntity
  8
TEXT
100
AcDbPolyline
 90
        2
 70
     0
 43
0.0001332181640625
 10
-0.8291427140682557
 20
1.848184808915868
 10
-0.8391340763729445
 20
1.788236635087742
  0
LWPOLYLINE
  5
4EA
330
2
100
AcDbEntity
  8
TEXT
100
AcDbPolyline
 90
        2
 70
     0
 43
0.0006660908203125
 10
-0.8291427140682557
 20
1.848184808915868
 10
-0.8291427140682557
 20
1.874828441728369
  0
LWPOLYLINE
  5
4EB
330
2
100
AcDbEntity
  8
TEXT
100
AcDbPolyline
 90
        5
 70
     0
 43
0.0001332181640625
 10
-0.8391340763729445
 20
1.801558451493989
 10
-0.8391340763729445
 20
1.788236635087742
 10
-0.8024990812557547
 20
1.788236635087742
 10
-0.8024990812557547
 20
1.751601639970552
 10
-0.7891772648495059
 20
1.751601639970552
  0
LWPOLYLINE
  5
4EC
330
2
100
AcDbEntity
  8
TEXT
100
AcDbPolyline
 90
        2
 70
     0
 43
0.0001332181640625
 10
-0.8691081632870073
 20
1.848184808915868
 10
-0.8591168009823167
 20
1.788236635087742
  0
LWPOLYLINE
  5
4ED
330
2
100
AcDbEntity
  8
TEXT
100
AcDbPolyline
 90
        2
 70
     0
 43
0.0001332181640625
 10
-0.8591168009823167
 20
1.801558451493989
 10
-0.8691081632870073
 20
1.874828441728369
  0
LWPOLYLINE
  5
4EE
330
2
100
AcDbEntity
  8
TEXT
100
AcDbPolyline
 90
        2
 70
     0
 43
0.0006660908203125
 10
-0.8691081632870073
 20
1.848184808915868
 10
-0.8691081632870073
 20
1.874828441728369
  0
LWPOLYLINE
  5
4EF
330
2
100
AcDbEntity
  8
TEXT
100
AcDbPolyline
 90
        2
 70
     0
 43
0.0006660908203125
 10
-0.7425509074276309
 20
1.761593002275241
 10
-0.7159072746151299
 20
1.761593002275241
  0
LWPOLYLINE
  5
4F0
330
2
100
AcDbEntity
  8
TEXT
100
AcDbPolyline
 90
        2
 70
     0
 43
0.0
 10
0.0028726461335005
 20
1.659906750954783
 42
0.3318488747599744
 10
0.0719919386988135
 20
1.608355408739854
 42
-6.868794160588311
  0
LINE
  5
4F1
330
2
100
AcDbEntity
  8
TEXT
100
AcDbLine
 10
0.0708523652026179
 20
1.942839919467176
 30
0.0
 11
0.0040436526362528
 21
1.942839919467176
 31
0.0
  0
LINE
  5
4F2
330
2
100
AcDbEntity
  8
TEXT
100
AcDbLine
 10
-0.2752987149828412
 20
1.874828441728365
 30
0.0
 11
-0.4510304678813526
 21
1.874828441728365
 31
0.0
  0
ARC
  5
4F3
330
2
100
AcDbEntity
  8
TEXT
100
AcDbCircle
 10
-0.380193001522803
 20
1.691551217100411
 30
0.0
 40
0.0831958083605586
100
AcDbArc
 50
270.0
 51
90.0
  0
LINE
  5
4F4
330
2
100
AcDbEntity
  8
TEXT
100
AcDbLine
 10
-0.4457931377671045
 20
1.8105517470716
 30
0.0
 11
-0.2788874837381341
 21
1.8105517470716
 31
0.0
  0
LINE
  5
4F5
330
2
100
AcDbEntity
  8
TEXT
100
AcDbLine
 10
-0.3752526276165238
 20
1.676712415073294
 30
0.0
 11
-0.5331179273278579
 21
1.676712415073294
 31
0.0
  0
LINE
  5
4F6
330
2
100
AcDbEntity
  8
TEXT
100
AcDbLine
 10
-0.5331179273278562
 20
1.608355408739854
 30
0.0
 11
-0.3801930015228034
 21
1.608355408739854
 31
0.0
  0
ARC
  5
4F7
330
2
100
AcDbEntity
  8
TEXT
100
AcDbCircle
 10
-0.4510304678813522
 20
1.792740982281864
 30
0.0
 40
0.0820874594465043
100
AcDbArc
 50
90.0
 51
270.0
  0
LINE
  5
4F8
330
2
100
AcDbEntity
  8
TEXT
100
AcDbLine
 10
-0.5331179273278579
 20
1.676712415073294
 30
0.0
 11
-0.5331179273278562
 21
1.608355408739854
 31
0.0
  0
LINE
  5
4F9
330
2
100
AcDbEntity
  8
TEXT
100
AcDbLine
 10
-0.4510304678813526
 20
1.710653522835358
 30
0.0
 11
-0.3752526276165238
 21
1.710653522835358
 31
0.0
  0
ARC
  5
4FA
330
2
100
AcDbEntity
  8
TEXT
100
AcDbCircle
 10
-0.3752526276165233
 20
1.693682968954328
 30
0.0
 40
0.0169705538810321
100
AcDbArc
 50
270.0
 51
90.0
  0
LINE
  5
4FB
330
2
100
AcDbEntity
  8
TEXT
100
AcDbLine
 10
-0.3801930015228034
 20
1.774747025460972
 30
0.0
 11
-0.4457931377671045
 21
1.774747025460972
 31
0.0
  0
ARC
  5
4FC
330
2
100
AcDbEntity
  8
TEXT
100
AcDbCircle
 10
-0.4457931377671041
 20
1.792649386266288
 30
0.0
 40
0.017902360805315
100
AcDbArc
 50
90.0
 51
270.0
  0
LINE
  5
4FD
330
2
100
AcDbEntity
  8
TEXT
100
AcDbLine
 10
-0.084826822962989
 20
1.773956445615245
 30
0.0
 11
-0.1434571439949268
 21
1.874828441728365
 31
0.0
  0
LINE
  5
4FE
330
2
100
AcDbEntity
  8
TEXT
100
AcDbLine
 10
-0.2250008762580284
 20
1.608355408739854
 30
0.0
 11
-0.128360625183034
 21
1.608626047838137
 31
0.0
  0
LWPOLYLINE
  5
4FF
330
2
100
AcDbEntity
  8
TEXT
100
AcDbPolyline
 90
        6
 70
     1
 43
0.0
 10
-0.1824770726828784
 20
1.8105517470716
 10
-0.2127936669030865
 20
1.8105517470716
 10
-0.2127936669030865
 20
1.687440749016706
 42
0.407328721240804
 10
-0.2012500157416102
 20
1.675621834340319
 10
-0.1406283166968794
 20
1.675621834340319
 10
-0.1231629762895614
 20
1.708434063383799
  0
LINE
  5
500
330
2
100
AcDbEntity
  8
TEXT
100
AcDbLine
 10
-0.2788874837381341
 20
1.8105517470716
 30
0.0
 11
-0.2788874837381341
 21
1.668147800077904
 31
0.0
  0
ARC
  5
501
330
2
100
AcDbEntity
  8
TEXT
100
AcDbCircle
 10
-0.2187714657643816
 20
1.668147800077904
 30
0.0
 40
0.0601160179737537
100
AcDbArc
 50
180.0000000000003
 51
264.0521544866073
  0
LINE
  5
502
330
2
100
AcDbEntity
  8
TEXT
100
AcDbLine
 10
-0.2152561101388342
 20
1.909216359322503
 30
0.0
 11
-0.2752987149828412
 21
1.909216359322503
 31
0.0
  0
LINE
  5
503
330
2
100
AcDbEntity
  8
TEXT
100
AcDbLine
 10
-0.2752987149828412
 20
1.909216359322503
 30
0.0
 11
-0.2752987149828412
 21
1.874828441728365
 31
0.0
  0
LINE
  5
504
330
2
100
AcDbEntity
  8
TEXT
100
AcDbLine
 10
-0.2152561101388342
 20
1.874828441728365
 30
0.0
 11
-0.2152561101388342
 21
1.909216359322503
 31
0.0
  0
LINE
  5
505
330
2
100
AcDbEntity
  8
TEXT
100
AcDbLine
 10
-0.1434571439949268
 20
1.874828441728365
 30
0.0
 11
-0.2152561101388342
 21
1.874828441728365
 31
0.0
  0
LINE
  5
506
330
2
100
AcDbEntity
  8
TEXT
100
AcDbLine
 10
-0.0944270599599433
 20
1.628313914844867
 30
0.0
 11
0.0028726461335014
 21
1.792664125780135
 31
0.0
  0
LINE
  5
507
330
2
100
AcDbEntity
  8
TEXT
100
AcDbLine
 10
0.0028726461335014
 20
1.792664125780135
 30
0.0
 11
0.0028726461335014
 21
1.659906750954779
 31
0.0
  0
ARC
  5
508
330
2
100
AcDbEntity
  8
TEXT
100
AcDbCircle
 10
-0.1284706198721568
 20
1.64790313101355
 30
0.0
 40
0.0392772371940762
100
AcDbArc
 50
270.1604552698595
 51
330.0831797321295
  0
LINE
  5
509
330
2
100
AcDbEntity
  8
TEXT
100
AcDbLine
 10
-0.0260782601571235
 20
1.874828441728365
 30
0.0
 11
-0.084826822962989
 21
1.773956445615245
 31
0.0
  0
LINE
  5
50A
330
2
100
AcDbEntity
  8
TEXT
100
AcDbLine
 10
0.0040436526362528
 20
1.942839919467176
 30
0.0
 11
0.0040436526362528
 21
1.874828441728365
 31
0.0
  0
LINE
  5
50B
330
2
100
AcDbEntity
  8
TEXT
100
AcDbLine
 10
0.0040436526362528
 20
1.874828441728365
 30
0.0
 11
-0.0260782601571235
 21
1.874828441728365
 31
0.0
  0
LWPOLYLINE
  5
50C
330
2
100
AcDbEntity
  8
TEXT
100
AcDbPolyline
 90
        4
 70
     0
 43
0.0
 10
0.3561297742564111
 20
1.80299795790549
 10
0.3561297742564111
 20
1.608355408739854
 10
0.424608057544269
 20
1.608355408739854
 10
0.424608057544269
 20
1.651846353690292
 42
-1.714843617202739
  0
LWPOLYLINE
  5
50D
330
2
100
AcDbEntity
  8
TEXT
100
AcDbPolyline
 90
        2
 70
     0
 43
0.0
 10
0.391264124800621
 20
1.874828441728369
 42
-0.3277054968067132
 10
0.427045815513786
 20
1.846505895958725
 42
6.667889725900311
  0
LWPOLYLINE
  5
50E
330
2
100
AcDbEntity
  8
TEXT
100
AcDbPolyline
 90
        2
 70
     0
 43
0.0
 10
0.2198305522213939
 20
1.8105517470716
 42
-0.4142135623731017
 10
0.2273843413875074
 20
1.80299795790549
 42
-0.9999999999999998
  0
LINE
  5
50F
330
2
100
AcDbEntity
  8
TEXT
100
AcDbLine
 10
0.2371822752714143
 20
1.874828441728365
 30
0.0
 11
0.103164219340278
 21
1.874828441728365
 31
0.0
  0
LINE
  5
510
330
2
100
AcDbEntity
  8
TEXT
100
AcDbLine
 10
0.1699952723982472
 20
1.608355408739854
 30
0.0
 11
0.1699952723982472
 21
1.8105517470716
 31
0.0
  0
LINE
  5
511
330
2
100
AcDbEntity
  8
TEXT
100
AcDbLine
 10
0.103164219340278
 20
1.874828441728365
 30
0.0
 11
0.103164219340278
 21
1.673964234995957
 31
0.0
  0
LINE
  5
512
330
2
100
AcDbEntity
  8
TEXT
100
AcDbLine
 10
0.0708523652026179
 20
1.690743246842854
 30
0.0
 11
0.0708523652026179
 21
1.942839919467176
 31
0.0
  0
LINE
  5
513
330
2
100
AcDbEntity
  8
TEXT
100
AcDbLine
 10
0.0719919386988126
 20
1.608355408739854
 30
0.0
 11
0.1699952723982472
 21
1.608355408739854
 31
0.0
  0
LINE
  5
514
330
2
100
AcDbEntity
  8
TEXT
100
AcDbLine
 10
0.103164219340278
 20
1.673964234995957
 30
0.0
 11
0.0861705824556767
 21
1.673964234995957
 31
0.0
  0
ARC
  5
515
330
2
100
AcDbEntity
  8
TEXT
100
AcDbCircle
 10
0.0861705824556758
 20
1.689346041239383
 30
0.0
 40
0.0153818062434269
100
AcDbArc
 50
174.7883570302258
 51
270.0
  0
LINE
  5
516
330
2
100
AcDbEntity
  8
TEXT
100
AcDbLine
 10
0.1699952723982472
 20
1.8105517470716
 30
0.0
 11
0.2198305522213948
 21
1.8105517470716
 31
0.0
  0
LINE
  5
517
330
2
100
AcDbEntity
  8
TEXT
100
AcDbLine
 10
0.2273843413875083
 20
1.80299795790549
 30
0.0
 11
0.2273843413875083
 21
1.608355408739854
 31
0.0
  0
LINE
  5
518
330
2
100
AcDbEntity
  8
TEXT
100
AcDbLine
 10
0.2944423881693483
 20
1.608355408739854
 30
0.0
 11
0.2944423881693483
 21
1.8105517470716
 31
0.0
  0
LINE
  5
519
330
2
100
AcDbEntity
  8
TEXT
100
AcDbLine
 10
0.2273843413875083
 20
1.608355408739854
 30
0.0
 11
0.2944423881693483
 21
1.608355408739854
 31
0.0
  0
LWPOLYLINE
  5
51A
330
2
100
AcDbEntity
  8
TEXT
100
AcDbPolyline
 90
        3
 70
     0
 43
0.0
 10
0.391264124800621
 20
1.874828441728369
 10
0.2729639659845766
 20
1.874828441728369
 10
0.2729639659845766
 20
1.847660944967473
 42
-1.960274751411753
  0
LINE
  5
51B
330
2
100
AcDbEntity
  8
TEXT
100
AcDbLine
 10
0.2944423881693483
 20
1.8105517470716
 30
0.0
 11
0.3485759850902985
 21
1.8105517470716
 31
0.0
  0
LWPOLYLINE
  5
51C
330
2
100
AcDbEntity
  8
TEXT
100
AcDbPolyline
 90
        2
 70
     0
 43
0.0
 10
0.2371822752714152
 20
1.874828441728369
 42
-0.3328679258950098
 10
0.2729639659845766
 20
1.847660944967473
 42
6.772930709997214
  0
LWPOLYLINE
  5
51D
330
2
100
AcDbEntity
  8
TEXT
100
AcDbPolyline
 90
        2
 70
     0
 43
0.0
 10
0.3485759850902976
 20
1.8105517470716
 42
-0.4142135623731017
 10
0.3561297742564111
 20
1.80299795790549
 42
-0.9999999999999998
  0
ARC
  5
51E
330
2
100
AcDbEntity
  8
TEXT
100
AcDbCircle
 10
0.5598507849537775
 20
1.833244874607463
 30
0.0
 40
0.0416329381542859
100
AcDbArc
 50
26.56974201007528
 51
87.20939649401342
  0
LWPOLYLINE
  5
51F
330
2
100
AcDbEntity
  8
TEXT
100
AcDbPolyline
 90
        2
 70
     0
 43
0.0
 10
0.4676839904119046
 20
1.608355408739854
 10
0.6017014080432812
 20
1.608355408739854
 42
0.9999999999999998
  0
LWPOLYLINE
  5
520
330
2
100
AcDbEntity
  8
TEXT
100
AcDbPolyline
 90
        4
 70
     1
 43
0.0
 10
0.5815789429733887
 20
1.71131938672388
 10
0.4929186243135302
 20
1.71131938672388
 42
0.9999999999999998
 10
0.4929186243135302
 20
1.668920846220019
 10
0.5815789429733887
 20
1.668920846220019
 42
1.0
  0
LWPOLYLINE
  5
521
330
2
100
AcDbEntity
  8
TEXT
100
AcDbPolyline
 90
        2
 70
     0
 43
0.0
 10
0.424608057544269
 20
1.651846353690292
 42
0.2901071551932823
 10
0.4676839904119046
 20
1.608355408739854
 42
5.328517124445801
  0
LINE
  5
522
330
2
100
AcDbEntity
  8
TEXT
100
AcDbLine
 10
0.561877724730846
 20
1.874828441728365
 30
0.0
 11
0.4270458155137869
 21
1.874828441728365
 31
0.0
  0
LINE
  5
523
330
2
100
AcDbEntity
  8
TEXT
100
AcDbLine
 10
0.4863599119071056
 20
1.773276773609468
 30
0.0
 11
0.5686479016904889
 21
1.773276773609468
 31
0.0
  0
LINE
  5
524
330
2
100
AcDbEntity
  8
TEXT
100
AcDbLine
 10
0.5328468263863675
 20
1.8105517470716
 30
0.0
 11
0.4256405529990781
 21
1.8105517470716
 31
0.0
  0
LINE
  5
525
330
2
100
AcDbEntity
  8
TEXT
100
AcDbLine
 10
0.4270458155137869
 20
1.874828441728365
 30
0.0
 11
0.4270458155137869
 21
1.846505895958721
 31
0.0
  0
ARC
  5
526
330
2
100
AcDbEntity
  8
TEXT
100
AcDbCircle
 10
0.4863599119071047
 20
1.705591192465349
 30
0.0
 40
0.0676855811441166
100
AcDbArc
 50
90.0
 51
153.7768192527749
  0
LINE
  5
527
330
2
100
AcDbEntity
  8
TEXT
100
AcDbLine
 10
0.4256405529990781
 20
1.8105517470716
 30
0.0
 11
0.4256405529990781
 21
1.735499340997393
 31
0.0
  0
LINE
  5
528
330
2
100
AcDbEntity
  8
TEXT
100
AcDbLine
 10
0.5686479016904889
 20
1.773276773609468
 30
0.0
 11
0.5583831412769245
 21
1.794527313182162
 31
0.0
  0
ARC
  5
529
330
2
100
AcDbEntity
  8
TEXT
100
AcDbCircle
 10
0.5328468263863666
 20
1.782192372071603
 30
0.0
 40
0.028359375
100
AcDbArc
 50
25.78218179591245
 51
90.0
  0
LINE
  5
52A
330
2
100
AcDbEntity
  8
TEXT
100
AcDbLine
 10
0.7031325547462606
 20
1.608355408739854
 30
0.0
 11
0.7031325547462553
 21
1.785645914171323
 31
0.0
  0
LWPOLYLINE
  5
52B
330
2
100
AcDbEntity
  8
TEXT
100
AcDbPolyline
 90
        2
 70
     0
 43
0.0
 10
0.6447773409109257
 20
1.608355408739854
 10
0.7031325547462597
 20
1.608355408739854
  0
LWPOLYLINE
  5
52C
330
2
100
AcDbEntity
  8
TEXT
100
AcDbPolyline
 90
        2
 70
     0
 43
0.0
 10
0.6447773409109257
 20
1.651846353690292
 42
-0.2901071551932486
 10
0.6017014080432812
 20
1.608355408739854
 42
-5.328517124445184
  0
LWPOLYLINE
  5
52D
330
2
100
AcDbEntity
  8
TEXT
100
AcDbPolyline
 90
        2
 70
     0
 43
0.0
 10
0.6447773409109257
 20
1.651846353690292
 10
0.6447773409109257
 20
1.608355408739854
  0
LINE
  5
52E
330
2
100
AcDbEntity
  8
TEXT
100
AcDbLine
 10
0.704734569905388
 20
1.874828441728365
 30
0.0
 11
0.640837663605887
 21
1.874828441728365
 31
0.0
  0
LINE
  5
52F
330
2
100
AcDbEntity
  8
TEXT
100
AcDbLine
 10
0.640837663605887
 20
1.874828441728365
 30
0.0
 11
0.640837663605887
 21
1.769616463174938
 31
0.0
  0
LINE
  5
530
330
2
100
AcDbEntity
  8
TEXT
100
AcDbLine
 10
0.640837663605887
 20
1.769616463174938
 30
0.0
 11
0.5970868924239854
 21
1.851866739171083
 31
0.0
  0
ARC
  5
531
330
2
100
AcDbEntity
  8
TEXT
100
AcDbCircle
 10
0.7280384300289189
 20
1.785645871788937
 30
0.0
 40
0.0249058752826653
100
AcDbArc
 50
89.99971217465335
 51
179.9999999999985
  0
ARC
  5
532
330
2
100
AcDbEntity
  8
TEXT
100
AcDbCircle
 10
0.7359273869684966
 20
1.843582714446101
 30
0.0
 40
0.0314112657011332
100
AcDbArc
 50
95.88484768694724
 51
173.2388340632136
  0
LINE
  5
533
330
2
100
AcDbEntity
  8
TEXT
100
AcDbLine
 10
0.704734569905388
 20
1.847280791867491
 30
0.0
 11
0.704734569905388
 21
1.874828441728365
 31
0.0
  0
TEXT
  5
534
330
2
100
AcDbEntity
  8
TEXT
100
AcDbText
 10
1.173610089327178
 20
1.701241217385351
 30
0.0
 40
0.0522247191011236
  1
Minneapolis, MN 55432-0008
 41
1.11444212721585
 72
     5
 11
2.502542673596842
 21
1.701241217385351
 31
0.0
100
AcDbText
  0
TEXT
  5
535
330
2
100
AcDbEntity
  8
TEXT
100
AcDbText
 10
1.173610089327178
 20
1.794499644351643
 30
0.0
 40
0.0522247191011236
  1
6536 Main St. N.E. * P.O. Box 32008
 41
0.8388932496075355
 72
     5
 11
2.502542673596842
 21
1.794499644351643
 31
0.0
100
AcDbText
  0
TEXT
  5
536
330
2
100
AcDbEntity
  8
TEXT
100
AcDbText
 10
1.173610089327178
 20
1.887758071317935
 30
0.0
 40
0.0522247191011236
  1
Stylmark  Incorporated
 41
1.221428571428571
 72
     5
 11
2.502542673596842
 21
1.887758071317935
 31
0.0
100
AcDbText
  0
TEXT
  5
537
330
2
100
AcDbEntity
  8
TEXT
100
AcDbText
 10
1.173610089327178
 20
1.607982790419058
 30
0.0
 40
0.0522247191011236
  1
Phone  1-800-328-2495
 41
1.272321428571429
 72
     5
 11
2.502542673596842
 21
1.607982790419058
 31
0.0
100
AcDbText
  0
LINE
  5
538
330
2
100
AcDbEntity
  8
TEXT
100
AcDbLine
 10
0.9260542778641633
 20
1.764935198787392
 30
0.0
 11
0.9906113938298686
 21
1.874828441728365
 31
0.0
  0
LINE
  5
539
330
2
100
AcDbEntity
  8
TEXT
100
AcDbLine
 10
0.9906113938298686
 20
1.874828441728365
 30
0.0
 11
0.9156195611002422
 21
1.874828441728365
 31
0.0
  0
LINE
  5
53A
330
2
100
AcDbEntity
  8
TEXT
100
AcDbLine
 10
0.9449681288515678
 20
1.608355408739854
 30
0.0
 11
1.021546501227773
 21
1.608355408739854
 31
0.0
  0
LINE
  5
53B
330
2
100
AcDbEntity
  8
TEXT
100
AcDbLine
 10
1.021546501227773
 20
1.608355408739854
 30
0.0
 11
0.9260542778641633
 21
1.764935198787392
 31
0.0
  0
LINE
  5
53C
330
2
100
AcDbEntity
  8
TEXT
100
AcDbLine
 10
0.8690645956401032
 20
1.608355408739854
 30
0.0
 11
0.8690645956401032
 21
1.739934977216035
 31
0.0
  0
LINE
  5
53D
330
2
100
AcDbEntity
  8
TEXT
100
AcDbLine
 10
0.8690645956401032
 20
1.739934977216035
 30
0.0
 11
0.9449681288515678
 21
1.608355408739854
 31
0.0
  0
LINE
  5
53E
330
2
100
AcDbEntity
  8
TEXT
100
AcDbLine
 10
0.8046864113214775
 20
1.8105517470716
 30
0.0
 11
0.8046864113214828
 21
1.608355408739854
 31
0.0
  0
LINE
  5
53F
330
2
100
AcDbEntity
  8
TEXT
100
AcDbLine
 10
0.8046864113214828
 20
1.608355408739854
 30
0.0
 11
0.8690645956401032
 21
1.608355408739854
 31
0.0
  0
LINE
  5
540
330
2
100
AcDbEntity
  8
TEXT
100
AcDbLine
 10
0.868521402544256
 20
1.940292647495966
 30
0.0
 11
0.8002065239949827
 21
1.940292647495966
 31
0.0
  0
LINE
  5
541
330
2
100
AcDbEntity
  8
TEXT
100
AcDbLine
 10
0.8002065239949827
 20
1.940292647495966
 30
0.0
 11
0.8002065239949773
 21
1.874828441728365
 31
0.0
  0
LINE
  5
542
330
2
100
AcDbEntity
  8
TEXT
100
AcDbLine
 10
0.9156195611002404
 20
1.874828441728365
 30
0.0
 11
0.868521402544256
 21
1.798963115316827
 31
0.0
  0
LINE
  5
543
330
2
100
AcDbEntity
  8
TEXT
100
AcDbLine
 10
0.868521402544256
 20
1.798963115316827
 30
0.0
 11
0.868521402544256
 21
1.940292647495966
 31
0.0
  0
ENDSEC
  0
SECTION
  2
OBJECTS
  0
DICTIONARY
  5
1A
330
0
100
AcDbDictionary
  3
ACAD_GROUP
350
18
  3
ACAD_LAYOUT
350
548
  3
ACAD_MLINESTYLE
350
19
  3
ACAD_PLOTSETTINGS
350
549
  3
ACAD_PLOTSTYLENAME
350
546
  3
ACDBHEADERROUNDTRIPXREC
350
553
  3
ACDBVARIABLEDICTIONARY
350
550
  0
DICTIONARY
  5
573
330
2
100
AcDbDictionary
280
     1
  3
ACAD_LAYOUTSELFREF
360
574
  0
DICTIONARY
  5
575
330
8
100
AcDbDictionary
280
     1
  3
ACAD_LAYOUTSELFREF
360
576
  0
DICTIONARY
  5
18
102
{ACAD_REACTORS
330
1A
102
}
330
1A
100
AcDbDictionary
  3
*A1
350
25
  3
*A2
350
38F
  0
DICTIONARY
  5
548
102
{ACAD_REACTORS
330
1A
102
}
330
1A
100
AcDbDictionary
  0
DICTIONARY
  5
19
102
{ACAD_REACTORS
330
1A
102
}
330
1A
100
AcDbDictionary
  3
STANDARD
350
1C
  0
DICTIONARY
  5
549
102
{ACAD_REACTORS
330
1A
102
}
330
1A
100
AcDbDictionary
  0
ACDBDICTIONARYWDFLT
  5
546
102
{ACAD_REACTORS
330
1A
102
}
330
1A
100
AcDbDictionary
281
     1
  3
Normal
350
547
100
AcDbDictionaryWithDefault
340
547
  0
DICTIONARY
  5
553
102
{ACAD_REACTORS
330
1A
102
}
330
1A
100
AcDbDictionary
  3
CEPSNTYPE
350
55D
  3
FINGERPRINTGUID
350
55E
  3
HYPERLINKBASE
350
556
  3
INSUNITS
350
55C
  3
LAYOUTDICT
350
558
  3
LWETCUNION
350
55B
  3
PLOTSETDICT
350
559
  3
PLOTSTYLNAMDICT
350
55A
  3
PSVPSCALE
350
560
  3
PUCSBASE
350
563
  3
PUCSORGBACK
350
569
  3
PUCSORGBOTTOM
350
565
  3
PUCSORGFRONT
350
568
  3
PUCSORGLEFT
350
566
  3
PUCSORGRIGHT
350
567
  3
PUCSORGTOP
350
564
  3
PUCSORTHOREF
350
561
  3
PUCSORTHOVIEW
350
562
  3
STYLESHEET
350
557
  3
TSTACKALIGN
350
554
  3
TSTACKSIZE
350
555
  3
UCSBASE
350
56C
  3
UCSORGBACK
350
572
  3
UCSORGBOTTOM
350
56E
  3
UCSORGFRONT
350
571
  3
UCSORGLEFT
350
56F
  3
UCSORGRIGHT
350
570
  3
UCSORGTOP
350
56D
  3
UCSORTHOREF
350
56A
  3
UCSORTHOVIEW
350
56B
  3
VERSIONGUID
350
55F
  0
DICTIONARY
  5
550
102
{ACAD_REACTORS
330
1A
102
}
330
1A
100
AcDbDictionary
  3
DIMASSOC
350
551
  0
XRECORD
  5
574
102
{ACAD_REACTORS
330
573
102
}
330
573
100
AcDbXrecord
340
2
  0
XRECORD
  5
576
102
{ACAD_REACTORS
330
575
102
}
330
575
100
AcDbXrecord
340
8
  0
GROUP
  5
25
102
{ACAD_REACTORS
330
18
102
}
330
18
100
AcDbGroup
300
BORDER FRAME 10-1-95
 70
     3
 71
     1
  0
GROUP
  5
38F
102
{ACAD_REACTORS
330
18
102
}
330
18
100
AcDbGroup
300

 70
     1
 71
     1
  0
MLINESTYLE
  5
1C
102
{ACAD_REACTORS
330
19
102
}
330
19
100
AcDbMlineStyle
  2
STANDARD
 70
     0
  3

 62
     0
 51
90.0
 52
90.0
 71
     2
 49
0.5
 62
   256
  6
BYLAYER
 49
-0.5
 62
   256
  6
BYLAYER
  0
ACDBPLACEHOLDER
  5
547
102
{ACAD_REACTORS
330
546
102
}
330
546
100
AcDbPlaceHolder
280
     0
  0
XRECORD
  5
55D
102
{ACAD_REACTORS
330
553
102
}
330
553
100
AcDbXrecord
 90
        0
  0
XRECORD
  5
55E
102
{ACAD_REACTORS
330
553
102
}
330
553
100
AcDbXrecord
  1
{9EDBDF80-8DB8-11D6-88E6-0090279574E7}
  0
XRECORD
  5
556
102
{ACAD_REACTORS
330
553
102
}
330
553
100
AcDbXrecord
  1

  0
XRECORD
  5
55C
102
{ACAD_REACTORS
330
553
102
}
330
553
100
AcDbXrecord
 90
        0
  0
XRECORD
  5
558
102
{ACAD_REACTORS
330
553
102
}
330
553
100
AcDbXrecord
340
548
  0
XRECORD
  5
55B
102
{ACAD_REACTORS
330
553
102
}
330
553
100
AcDbXrecord
 90
    14877
  0
XRECORD
  5
559
102
{ACAD_REACTORS
330
553
102
}
330
553
100
AcDbXrecord
340
549
  0
XRECORD
  5
55A
102
{ACAD_REACTORS
330
553
102
}
330
553
100
AcDbXrecord
340
546
  0
XRECORD
  5
560
102
{ACAD_REACTORS
330
553
102
}
330
553
100
AcDbXrecord
 40
0.0
  0
XRECORD
  5
563
102
{ACAD_REACTORS
330
553
102
}
330
553
100
AcDbXrecord
340
0
  0
XRECORD
  5
569
102
{ACAD_REACTORS
330
553
102
}
330
553
100
AcDbXrecord
 10
0.0
 20
0.0
 30
0.0
  0
XRECORD
  5
565
102
{ACAD_REACTORS
330
553
102
}
330
553
100
AcDbXrecord
 10
0.0
 20
0.0
 30
0.0
  0
XRECORD
  5
568
102
{ACAD_REACTORS
330
553
102
}
330
553
100
AcDbXrecord
 10
0.0
 20
0.0
 30
0.0
  0
XRECORD
  5
566
102
{ACAD_REACTORS
330
553
102
}
330
553
100
AcDbXrecord
 10
0.0
 20
0.0
 30
0.0
  0
XRECORD
  5
567
102
{ACAD_REACTORS
330
553
102
}
330
553
100
AcDbXrecord
 10
0.0
 20
0.0
 30
0.0
  0
XRECORD
  5
564
102
{ACAD_REACTORS
330
553
102
}
330
553
100
AcDbXrecord
 10
0.0
 20
0.0
 30
0.0
  0
XRECORD
  5
561
102
{ACAD_REACTORS
330
553
102
}
330
553
100
AcDbXrecord
340
0
  0
XRECORD
  5
562
102
{ACAD_REACTORS
330
553
102
}
330
553
100
AcDbXrecord
 70
     0
  0
XRECORD
  5
557
102
{ACAD_REACTORS
330
553
102
}
330
553
100
AcDbXrecord
  1

  0
XRECORD
  5
554
102
{ACAD_REACTORS
330
553
102
}
330
553
100
AcDbXrecord
 90
        1
  0
XRECORD
  5
555
102
{ACAD_REACTORS
330
553
102
}
330
553
100
AcDbXrecord
 90
       70
  0
XRECORD
  5
56C
102
{ACAD_REACTORS
330
553
102
}
330
553
100
AcDbXrecord
340
0
  0
XRECORD
  5
572
102
{ACAD_REACTORS
330
553
102
}
330
553
100
AcDbXrecord
 10
0.0
 20
0.0
 30
0.0
  0
XRECORD
  5
56E
102
{ACAD_REACTORS
330
553
102
}
330
553
100
AcDbXrecord
 10
0.0
 20
0.0
 30
0.0
  0
XRECORD
  5
571
102
{ACAD_REACTORS
330
553
102
}
330
553
100
AcDbXrecord
 10
0.0
 20
0.0
 30
0.0
  0
XRECORD
  5
56F
102
{ACAD_REACTORS
330
553
102
}
330
553
100
AcDbXrecord
 10
0.0
 20
0.0
 30
0.0
  0
XRECORD
  5
570
102
{ACAD_REACTORS
330
553
102
}
330
553
100
AcDbXrecord
 10
0.0
 20
0.0
 30
0.0
  0
XRECORD
  5
56D
102
{ACAD_REACTORS
330
553
102
}
330
553
100
AcDbXrecord
 10
0.0
 20
0.0
 30
0.0
  0
XRECORD
  5
56A
102
{ACAD_REACTORS
330
553
102
}
330
553
100
AcDbXrecord
340
0
  0
XRECORD
  5
56B
102
{ACAD_REACTORS
330
553
102
}
330
553
100
AcDbXrecord
 70
     0
  0
XRECORD
  5
55F
102
{ACAD_REACTORS
330
553
102
}
330
553
100
AcDbXrecord
  1
{9EDBDF82-8DB8-11D6-88E6-0090279574E7}
  0
DICTIONARYVAR
  5
551
102
{ACAD_REACTORS
330
550
102
}
330
550
100
DictionaryVariables
280
     0
  1
1
  0
ENDSEC
  0
EOF
