  0
SECTION
  2
HEADER
  9
$ACADVER
  1
AC1014
  9
$ACADMAINTVER
 70
     9
  9
$DWGCODEPAGE
  3
ANSI_1252
  9
$INSBASE
 10
0.0
 20
0.0
 30
0.0
  9
$EXTMIN
 10
1.497813431550898
 20
5.304587297066223
 30
0.0
  9
$EXTMAX
 10
4.983032753298029
 20
6.675682495734359
 30
0.0
  9
$LIMMIN
 10
0.0
 20
0.0
  9
$LIMMAX
 10
18.0
 20
12.0
  9
$ORTHOMODE
 70
     1
  9
$REGENMODE
 70
     1
  9
$FILLMODE
 70
     1
  9
$QTEXTMODE
 70
     0
  9
$MIRRTEXT
 70
     0
  9
$DRAGMODE
 70
     2
  9
$LTSCALE
 40
0.6
  9
$OSMODE
 70
    39
  9
$ATTMODE
 70
     1
  9
$TEXTSIZE
 40
0.125
  9
$TRACEWID
 40
0.05
  9
$TEXTSTYLE
  7
ROMANS
  9
$CLAYER
  8
TEXT
  9
$CELTYPE
  6
BYLAYER
  9
$CECOLOR
 62
   256
  9
$CELTSCALE
 40
1.0
  9
$DELOBJ
 70
     1
  9
$DISPSILH
 70
     1
  9
$DIMSCALE
 40
1.0
  9
$DIMASZ
 40
0.125
  9
$DIMEXO
 40
0.125
  9
$DIMDLI
 40
0.375
  9
$DIMRND
 40
0.0
  9
$DIMDLE
 40
0.0
  9
$DIMEXE
 40
0.125
  9
$DIMTP
 40
0.0
  9
$DIMTM
 40
0.03
  9
$DIMTXT
 40
0.125
  9
$DIMCEN
 40
-0.125
  9
$DIMTSZ
 40
0.0
  9
$DIMTOL
 70
     1
  9
$DIMLIM
 70
     0
  9
$DIMTIH
 70
     1
  9
$DIMTOH
 70
     1
  9
$DIMSE1
 70
     0
  9
$DIMSE2
 70
     0
  9
$DIMTAD
 70
     0
  9
$DIMZIN
 70
     4
  9
$DIMBLK
  1

  9
$DIMASO
 70
     1
  9
$DIMSHO
 70
     1
  9
$DIMPOST
  1

  9
$DIMAPOST
  1

  9
$DIMALT
 70
     0
  9
$DIMALTD
 70
     2
  9
$DIMALTF
 40
25.4
  9
$DIMLFAC
 40
1.0
  9
$DIMTOFL
 70
     0
  9
$DIMTVP
 40
0.0
  9
$DIMTIX
 70
     1
  9
$DIMSOXD
 70
     0
  9
$DIMSAH
 70
     0
  9
$DIMBLK1
  1

  9
$DIMBLK2
  1

  9
$DIMSTYLE
  2
STANDARD
  9
$DIMCLRD
 70
   256
  9
$DIMCLRE
 70
   256
  9
$DIMCLRT
 70
   256
  9
$DIMTFAC
 40
1.0
  9
$DIMGAP
 40
0.09
  9
$DIMJUST
 70
     0
  9
$DIMSD1
 70
     0
  9
$DIMSD2
 70
     0
  9
$DIMTOLJ
 70
     1
  9
$DIMTZIN
 70
     1
  9
$DIMALTZ
 70
     0
  9
$DIMALTTZ
 70
     0
  9
$DIMFIT
 70
     3
  9
$DIMUPT
 70
     0
  9
$DIMUNIT
 70
     2
  9
$DIMDEC
 70
     3
  9
$DIMTDEC
 70
     3
  9
$DIMALTU
 70
     2
  9
$DIMALTTD
 70
     2
  9
$DIMTXSTY
  7
ROMANS
  9
$DIMAUNIT
 70
     0
  9
$LUNITS
 70
     2
  9
$LUPREC
 70
     3
  9
$SKETCHINC
 40
0.1
  9
$FILLETRAD
 40
0.0
  9
$AUNITS
 70
     0
  9
$AUPREC
 70
     1
  9
$MENU
  1
C:\R13\COM\SUPPORT\ACAD
  9
$ELEVATION
 40
0.0
  9
$PELEVATION
 40
0.0
  9
$THICKNESS
 40
0.0
  9
$LIMCHECK
 70
     0
  9
$BLIPMODE
 70
     0
  9
$CHAMFERA
 40
0.0
  9
$CHAMFERB
 40
0.0
  9
$CHAMFERC
 40
0.0
  9
$CHAMFERD
 40
0.0
  9
$SKPOLY
 70
     0
  9
$TDCREATE
 40
2450185.349553646
  9
$TDUPDATE
 40
2452458.318270821
  9
$TDINDWG
 40
0.0215630787
  9
$TDUSRTIMER
 40
0.0215630787
  9
$USRTIMER
 70
     1
  9
$ANGBASE
 50
0.0
  9
$ANGDIR
 70
     0
  9
$PDMODE
 70
     0
  9
$PDSIZE
 40
0.0
  9
$PLINEWID
 40
0.0
  9
$COORDS
 70
     2
  9
$SPLFRAME
 70
     0
  9
$SPLINETYPE
 70
     6
  9
$SPLINESEGS
 70
     8
  9
$ATTDIA
 70
     0
  9
$ATTREQ
 70
     1
  9
$HANDLING
 70
 22529
  9
$HANDSEED
  5
15C5
  9
$SURFTAB1
 70
     6
  9
$SURFTAB2
 70
     6
  9
$SURFTYPE
 70
     6
  9
$SURFU
 70
     6
  9
$SURFV
 70
     6
  9
$UCSNAME
  2

  9
$UCSORG
 10
0.0
 20
0.0
 30
0.0
  9
$UCSXDIR
 10
1.0
 20
0.0
 30
0.0
  9
$UCSYDIR
 10
0.0
 20
1.0
 30
0.0
  9
$PUCSNAME
  2

  9
$PUCSORG
 10
0.0
 20
0.0
 30
0.0
  9
$PUCSXDIR
 10
1.0
 20
0.0
 30
0.0
  9
$PUCSYDIR
 10
0.0
 20
1.0
 30
0.0
  9
$USERI1
 70
     0
  9
$USERI2
 70
     0
  9
$USERI3
 70
     0
  9
$USERI4
 70
     0
  9
$USERI5
 70
     0
  9
$USERR1
 40
0.0
  9
$USERR2
 40
0.0
  9
$USERR3
 40
0.0
  9
$USERR4
 40
0.0
  9
$USERR5
 40
0.0
  9
$WORLDVIEW
 70
     1
  9
$SHADEDGE
 70
     3
  9
$SHADEDIF
 70
    70
  9
$TILEMODE
 70
     1
  9
$MAXACTVP
 70
    16
  9
$PINSBASE
 10
0.0
 20
0.0
 30
0.0
  9
$PLIMCHECK
 70
     0
  9
$PEXTMIN
 10
1.000000000000000E+20
 20
1.000000000000000E+20
 30
1.000000000000000E+20
  9
$PEXTMAX
 10
-1.000000000000000E+20
 20
-1.000000000000000E+20
 30
-1.000000000000000E+20
  9
$PLIMMIN
 10
0.0
 20
0.0
  9
$PLIMMAX
 10
12.0
 20
9.0
  9
$UNITMODE
 70
     0
  9
$VISRETAIN
 70
     0
  9
$PLINEGEN
 70
     1
  9
$PSLTSCALE
 70
     0
  9
$TREEDEPTH
 70
  3020
  9
$PICKSTYLE
 70
     1
  9
$CMLSTYLE
  2
STANDARD
  9
$CMLJUST
 70
     1
  9
$CMLSCALE
 40
1.0
  9
$PROXYGRAPHICS
 70
     1
  9
$MEASUREMENT
 70
     0
  0
ENDSEC
  0
SECTION
  2
CLASSES
  0
CLASS
  1
LWPOLYLINE
  2
AcDbPolyline
  3
AutoCAD 2000
 90
        0
280
     0
281
     1
  0
CLASS
  1
ACDBDICTIONARYWDFLT
  2
AcDbDictionaryWithDefault
  3
AutoCAD 2000
 90
        0
280
     0
281
     0
  0
CLASS
  1
ACDBPLACEHOLDER
  2
AcDbPlaceHolder
  3
AutoCAD 2000
 90
        0
280
     0
281
     0
  0
CLASS
  1
LAYOUT
  2
AcDbLayout
  3
AutoCAD 2000
 90
        0
280
     0
281
     0
  0
CLASS
  1
DICTIONARYVAR
  2
AcDbDictionaryVar
  3
AutoCAD 2000
 90
        0
280
     0
281
     0
  0
CLASS
  1
LONG_TRANSACTION
  2
AcDbLongTransaction
  3
AutoCAD 2000
 90
        0
280
     0
281
     0
  0
CLASS
  1
LWPOLYLINE
  2
AcDbPolyline
  3
AutoCAD 2000
 90
        0
280
     0
281
     1
  0
CLASS
  1
HATCH
  2
AcDbHatch
  3
AutoCAD 2000
 90
        0
280
     0
281
     1
  0
CLASS
  1
XRECORD
  2
AcDbXrecord
  3
AutoCAD 2000
 90
        0
280
     0
281
     0
  0
ENDSEC
  0
SECTION
  2
TABLES
  0
TABLE
  2
VPORT
  5
8
330
0
100
AcDbSymbolTable
 70
     2
  0
VPORT
  5
15A0
330
8
100
AcDbSymbolTableRecord
100
AcDbViewportTableRecord
  2
*ACTIVE
 70
     0
 10
0.0
 20
0.0
 11
1.0
 21
1.0
 12
6.163644608657468
 22
5.989960431399472
 13
0.0
 23
0.0
 14
0.01
 24
0.01
 15
0.0
 25
0.0
 16
0.0
 26
0.0
 36
1.0
 17
0.0
 27
0.0
 37
0.0
 40
2.164480906781282
 41
4.320930232558139
 42
50.0
 43
0.0
 44
0.0
 50
0.0
 51
0.0
 71
     0
 72
  2000
 73
     1
 74
     1
 75
     0
 76
     0
 77
     0
 78
     0
  0
ENDTAB
  0
TABLE
  2
LTYPE
  5
5
330
0
100
AcDbSymbolTable
 70
     1
  0
LTYPE
  5
12
330
5
100
AcDbSymbolTableRecord
100
AcDbLinetypeTableRecord
  2
BYBLOCK
 70
     0
  3

 72
    65
 73
     0
 40
0.0
  0
LTYPE
  5
13
330
5
100
AcDbSymbolTableRecord
100
AcDbLinetypeTableRecord
  2
BYLAYER
 70
     0
  3

 72
    65
 73
     0
 40
0.0
  0
LTYPE
  5
14
330
5
100
AcDbSymbolTableRecord
100
AcDbLinetypeTableRecord
  2
CONTINUOUS
 70
     0
  3
Solid line
 72
    65
 73
     0
 40
0.0
  0
ENDTAB
  0
TABLE
  2
LAYER
  5
2
330
0
100
AcDbSymbolTable
 70
     2
  0
LAYER
  5
F
330
2
100
AcDbSymbolTableRecord
100
AcDbLayerTableRecord
  2
0
 70
     0
 62
     7
  6
CONTINUOUS
  0
LAYER
  5
20
330
2
100
AcDbSymbolTableRecord
100
AcDbLayerTableRecord
  2
TEXT
 70
     0
 62
     3
  6
CONTINUOUS
  0
ENDTAB
  0
TABLE
  2
STYLE
  5
3
330
0
100
AcDbSymbolTable
 70
     3
  0
STYLE
  5
10
330
3
100
AcDbSymbolTableRecord
100
AcDbTextStyleTableRecord
  2
STANDARD
 70
     0
 40
0.0
 41
1.0
 50
0.0
 71
     0
 42
0.125
  3
txt
  4

  0
STYLE
  5
1C
330
3
100
AcDbSymbolTableRecord
100
AcDbTextStyleTableRecord
  2
ROMANS
 70
     0
 40
0.0
 41
1.0
 50
0.0
 71
     0
 42
0.125
  3
romans.shx
  4

  0
STYLE
  5
148E
330
3
100
AcDbSymbolTableRecord
100
AcDbTextStyleTableRecord
  2
ITALICC
 70
     0
 40
0.0
 41
1.0
 50
0.0
 71
     0
 42
0.125
  3
italicc
  4

  0
ENDTAB
  0
TABLE
  2
VIEW
  5
6
330
0
100
AcDbSymbolTable
 70
     0
  0
ENDTAB
  0
TABLE
  2
UCS
  5
7
330
0
100
AcDbSymbolTable
 70
     0
  0
ENDTAB
  0
TABLE
  2
APPID
  5
9
330
0
100
AcDbSymbolTable
 70
     9
  0
APPID
  5
11
330
9
100
AcDbSymbolTableRecord
100
AcDbRegAppTableRecord
  2
ACAD
 70
     0
  0
APPID
  5
48C
330
9
100
AcDbSymbolTableRecord
100
AcDbRegAppTableRecord
  2
ADP_SK
 70
     0
  0
APPID
  5
48D
330
9
100
AcDbSymbolTableRecord
100
AcDbRegAppTableRecord
  2
ADP_LAYDAT
 70
     0
  0
APPID
  5
48E
330
9
100
AcDbSymbolTableRecord
100
AcDbRegAppTableRecord
  2
ADP_SOL
 70
     0
  0
APPID
  5
48F
330
9
100
AcDbSymbolTableRecord
100
AcDbRegAppTableRecord
  2
ADP_DIM
 70
     0
  0
APPID
  5
490
330
9
100
AcDbSymbolTableRecord
100
AcDbRegAppTableRecord
  2
ACIS_LNK
 70
     0
  0
APPID
  5
491
330
9
100
AcDbSymbolTableRecord
100
AcDbRegAppTableRecord
  2
ADP_RENDER
 70
     0
  0
APPID
  5
492
330
9
100
AcDbSymbolTableRecord
100
AcDbRegAppTableRecord
  2
AVE_INVOKE
 70
     0
  0
APPID
  5
493
330
9
100
AcDbSymbolTableRecord
100
AcDbRegAppTableRecord
  2
ADP_DWG
 70
     0
  0
ENDTAB
  0
TABLE
  2
DIMSTYLE
  5
A
330
0
100
AcDbSymbolTable
 70
     1
  0
DIMSTYLE
105
26
330
A
100
AcDbSymbolTableRecord
100
AcDbDimStyleTableRecord
  2
STANDARD
 70
     0
  3

  4

  5

  6

  7

 40
1.0
 41
0.18
 42
0.0625
 43
0.38
 44
0.18
 45
0.0
 46
0.0
 47
0.0
 48
0.0
140
0.18
141
0.09
142
0.0
143
25.4
144
1.0
145
0.0
146
1.0
147
0.09
 71
     0
 72
     0
 73
     1
 74
     1
 75
     0
 76
     0
 77
     0
 78
     0
170
     0
171
     2
172
     0
173
     0
174
     0
175
     0
176
     0
177
     0
178
     0
270
     2
271
     4
272
     4
273
     2
274
     2
340
10
275
     0
280
     0
281
     0
282
     0
283
     1
284
     0
285
     0
286
     0
287
     3
288
     0
  0
ENDTAB
  0
TABLE
  2
BLOCK_RECORD
  5
1
330
0
100
AcDbSymbolTable
 70
     0
  0
BLOCK_RECORD
  5
18
102
{ACAD_XDICTIONARY
360
15C3
102
}
330
1
100
AcDbSymbolTableRecord
100
AcDbBlockTableRecord
  2
*MODEL_SPACE
  0
BLOCK_RECORD
  5
15
102
{ACAD_XDICTIONARY
360
15C1
102
}
330
1
100
AcDbSymbolTableRecord
100
AcDbBlockTableRecord
  2
*PAPER_SPACE
  0
ENDTAB
  0
ENDSEC
  0
SECTION
  2
BLOCKS
  0
BLOCK
  5
24
330
18
100
AcDbEntity
  8
0
100
AcDbBlockBegin
  2
*MODEL_SPACE
 70
     0
 10
0.0
 20
0.0
 30
0.0
  3
*MODEL_SPACE
  1

  0
ENDBLK
  5
25
330
18
100
AcDbEntity
  8
0
100
AcDbBlockEnd
  0
BLOCK
  5
22
330
15
100
AcDbEntity
 67
     1
  8
0
100
AcDbBlockBegin
  2
*PAPER_SPACE
 70
     0
 10
0.0
 20
0.0
 30
0.0
  3
*PAPER_SPACE
  1

  0
ENDBLK
  5
23
330
15
100
AcDbEntity
 67
     1
  8
0
100
AcDbBlockEnd
  0
ENDSEC
  0
SECTION
  2
ENTITIES
  0
LWPOLYLINE
  5
106B
330
18
100
AcDbEntity
  8
0
100
AcDbPolyline
 90
       15
 70
     1
 43
0.0
 10
2.471358401174251
 20
6.675682495734357
 10
2.549358401174252
 20
6.675682495734357
 10
2.549358401174252
 20
6.175682495734357
 10
3.286358401174252
 20
6.175682495734356
 10
3.296358401174252
 20
6.165682495734357
 10
3.306358401174254
 20
6.175682495734357
 10
4.043358401174251
 20
6.175682495734358
 10
4.043358401174251
 20
6.675682495734359
 10
4.121358401174253
 20
6.675682495734358
 10
4.121358401174252
 20
6.175682495734358
 10
4.303358401174253
 20
6.175682495734357
 10
4.303358401174253
 20
6.019682495734357
 10
2.289358401174252
 20
6.019682495734357
 10
2.289358401174252
 20
6.175682495734357
 10
2.471358401174252
 20
6.175682495734357
  0
TEXT
  5
1513
330
18
100
AcDbEntity
  8
TEXT
100
AcDbText
 10
2.48781882030185
 20
5.762605901148805
 30
0.0
 40
0.125
  1
PART #110570
  7
ITALICC
 72
     1
 11
3.24079501077804
 21
5.762605901148805
 31
0.0
100
AcDbText
  0
LINE
  5
1514
330
18
100
AcDbEntity
  8
TEXT
100
AcDbLine
 10
3.208528509730103
 20
5.518252215128971
 30
0.0
 11
3.285176491022661
 21
5.518252215128971
 31
0.0
  0
LINE
  5
1515
330
18
100
AcDbEntity
  8
TEXT
100
AcDbLine
 10
3.280696603696161
 20
5.582528909785737
 30
0.0
 11
3.213196886046644
 21
5.582528909785737
 31
0.0
  0
LWPOLYLINE
  5
1516
330
18
100
AcDbEntity
  8
TEXT
100
AcDbPolyline
 90
        5
 70
     0
 43
0.0001332181640625
 10
1.571416467195428
 20
5.459302108027924
 10
1.584738283601677
 20
5.459302108027924
 10
1.584738283601677
 20
5.495937103145114
 10
1.621373278718867
 20
5.495937103145114
 10
1.621373278718867
 20
5.509258919551361
  0
LWPOLYLINE
  5
1517
330
18
100
AcDbEntity
  8
TEXT
100
AcDbPolyline
 90
        3
 70
     0
 43
0.0006660908203125
 10
1.611381916414176
 20
5.555885276973239
 10
1.524790109773551
 20
5.555885276973239
 10
1.524790109773551
 20
5.469293470332613
  0
LWPOLYLINE
  5
1518
330
18
100
AcDbEntity
  8
TEXT
100
AcDbPolyline
 90
        3
 70
     0
 43
0.0006660908203125
 10
1.611381916414176
 20
5.58252890978574
 10
1.498146476961054
 20
5.58252890978574
 10
1.498146476961054
 20
5.469293470332613
  0
LWPOLYLINE
  5
1519
330
18
100
AcDbEntity
  8
TEXT
100
AcDbPolyline
 90
        5
 70
     0
 43
0.0001332181640625
 10
1.621373278718867
 20
5.389362571895113
 10
1.621373278718867
 20
5.402684388301364
 10
1.584738283601679
 20
5.402684388301364
 10
1.584738283601679
 20
5.43931938341855
 10
1.571416467195428
 20
5.43931938341855
  0
LWPOLYLINE
  5
151A
330
18
100
AcDbEntity
  8
TEXT
100
AcDbPolyline
 90
        3
 70
     0
 43
0.0006660908203125
 10
1.524790109773551
 20
5.429328021113865
 10
1.524790109773551
 20
5.342736214473238
 10
1.611381916414176
 20
5.342736214473238
  0
LWPOLYLINE
  5
151B
330
18
100
AcDbEntity
  8
TEXT
100
AcDbPolyline
 90
        3
 70
     0
 43
0.0006660908203125
 10
1.498146476961054
 20
5.429328021113865
 10
1.498146476961054
 20
5.316092581660737
 10
1.611381916414176
 20
5.316092581660737
  0
LWPOLYLINE
  5
151C
330
18
100
AcDbEntity
  8
TEXT
100
AcDbPolyline
 90
        2
 70
     0
 43
0.0001332181640625
 10
1.524790109773551
 20
5.429328021113865
 10
1.584738283601679
 20
5.43931938341855
  0
LWPOLYLINE
  5
151D
330
18
100
AcDbEntity
  8
TEXT
100
AcDbPolyline
 90
        2
 70
     0
 43
0.0001332181640625
 10
1.571416467195428
 20
5.43931938341855
 10
1.498146476961054
 20
5.429328021113865
  0
LWPOLYLINE
  5
151E
330
18
100
AcDbEntity
  8
TEXT
100
AcDbPolyline
 90
        2
 70
     0
 43
0.0006660908203125
 10
1.524790109773551
 20
5.429328021113865
 10
1.498146476961054
 20
5.429328021113865
  0
LWPOLYLINE
  5
151F
330
18
100
AcDbEntity
  8
TEXT
100
AcDbPolyline
 90
        2
 70
     0
 43
0.0001332181640625
 10
1.524790109773551
 20
5.342736214473238
 10
1.584738283601679
 20
5.402684388301364
  0
LWPOLYLINE
  5
1520
330
18
100
AcDbEntity
  8
TEXT
100
AcDbPolyline
 90
        2
 70
     0
 43
0.0006660908203125
 10
1.524790109773551
 20
5.469293470332613
 10
1.498146476961054
 20
5.469293470332613
  0
LWPOLYLINE
  5
1521
330
18
100
AcDbEntity
  8
TEXT
100
AcDbPolyline
 90
        2
 70
     0
 43
0.0001332181640625
 10
1.498146476961054
 20
5.469293470332613
 10
1.571416467195428
 20
5.459302108027924
  0
LWPOLYLINE
  5
1522
330
18
100
AcDbEntity
  8
TEXT
100
AcDbPolyline
 90
        2
 70
     0
 43
0.0001332181640625
 10
1.524790109773551
 20
5.469293470332613
 10
1.584738283601677
 20
5.459302108027924
  0
LWPOLYLINE
  5
1523
330
18
100
AcDbEntity
  8
TEXT
100
AcDbPolyline
 90
        2
 70
     0
 43
0.0001332181640625
 10
1.524790109773551
 20
5.555885276973239
 10
1.584738283601677
 20
5.495937103145114
  0
LWPOLYLINE
  5
1524
330
18
100
AcDbEntity
  8
TEXT
100
AcDbPolyline
 90
        5
 70
     0
 43
0.0001332181640625
 10
1.691312814851678
 20
5.43931938341855
 10
1.677990998445429
 20
5.43931938341855
 10
1.677990998445429
 20
5.402684388301364
 10
1.641356003328239
 20
5.402684388301364
 10
1.641356003328239
 20
5.389362571895113
  0
LWPOLYLINE
  5
1525
330
18
100
AcDbEntity
  8
TEXT
100
AcDbPolyline
 90
        2
 70
     0
 43
0.0001332181640625
 10
1.737939172273553
 20
5.429328021113865
 10
1.677990998445429
 20
5.43931938341855
  0
LWPOLYLINE
  5
1526
330
18
100
AcDbEntity
  8
TEXT
100
AcDbPolyline
 90
        2
 70
     0
 43
0.0001332181640625
 10
1.764582805086054
 20
5.429328021113865
 10
1.691312814851678
 20
5.43931938341855
  0
LWPOLYLINE
  5
1527
330
18
100
AcDbEntity
  8
TEXT
100
AcDbPolyline
 90
        3
 70
     0
 43
0.0006660908203125
 10
1.651347365632928
 20
5.316092581660737
 10
1.764582805086054
 20
5.316092581660737
 10
1.764582805086054
 20
5.429328021113865
  0
LWPOLYLINE
  5
1528
330
18
100
AcDbEntity
  8
TEXT
100
AcDbPolyline
 90
        3
 70
     0
 43
0.0006660908203125
 10
1.651347365632928
 20
5.342736214473238
 10
1.737939172273553
 20
5.342736214473238
 10
1.737939172273553
 20
5.429328021113865
  0
LWPOLYLINE
  5
1529
330
18
100
AcDbEntity
  8
TEXT
100
AcDbPolyline
 90
        2
 70
     0
 43
0.0001332181640625
 10
1.737939172273553
 20
5.342736214473238
 10
1.677990998445429
 20
5.402684388301364
  0
LWPOLYLINE
  5
152A
330
18
100
AcDbEntity
  8
TEXT
100
AcDbPolyline
 90
        2
 70
     0
 43
0.0006660908203125
 10
1.651347365632928
 20
5.342736214473238
 10
1.651347365632928
 20
5.316092581660737
  0
LWPOLYLINE
  5
152B
330
18
100
AcDbEntity
  8
TEXT
100
AcDbPolyline
 90
        2
 70
     0
 43
0.0001332181640625
 10
1.641356003328239
 20
5.389362571895113
 10
1.651347365632928
 20
5.316092581660737
  0
LWPOLYLINE
  5
152C
330
18
100
AcDbEntity
  8
TEXT
100
AcDbPolyline
 90
        2
 70
     0
 43
0.0001332181640625
 10
1.651347365632928
 20
5.342736214473238
 10
1.641356003328239
 20
5.402684388301364
  0
LWPOLYLINE
  5
152D
330
18
100
AcDbEntity
  8
TEXT
100
AcDbPolyline
 90
        2
 70
     0
 43
0.0001332181640625
 10
1.611381916414176
 20
5.316092581660737
 10
1.621373278718867
 20
5.389362571895113
  0
LWPOLYLINE
  5
152E
330
18
100
AcDbEntity
  8
TEXT
100
AcDbPolyline
 90
        2
 70
     0
 43
0.0001332181640625
 10
1.611381916414176
 20
5.342736214473238
 10
1.621373278718867
 20
5.402684388301364
  0
LWPOLYLINE
  5
152F
330
18
100
AcDbEntity
  8
TEXT
100
AcDbPolyline
 90
        2
 70
     0
 43
0.0006660908203125
 10
1.611381916414176
 20
5.342736214473238
 10
1.611381916414176
 20
5.316092581660737
  0
LWPOLYLINE
  5
1530
330
18
100
AcDbEntity
  8
TEXT
100
AcDbPolyline
 90
        2
 70
     0
 43
0.0006660908203125
 10
1.737939172273553
 20
5.429328021113865
 10
1.764582805086054
 20
5.429328021113865
  0
LWPOLYLINE
  5
1531
330
18
100
AcDbEntity
  8
TEXT
100
AcDbPolyline
 90
        2
 70
     0
 43
0.0001332181640625
 10
1.737939172273553
 20
5.555885276973239
 10
1.677990998445429
 20
5.495937103145114
  0
LWPOLYLINE
  5
1532
330
18
100
AcDbEntity
  8
TEXT
100
AcDbPolyline
 90
        2
 70
     0
 43
0.0001332181640625
 10
1.737939172273553
 20
5.469293470332613
 10
1.677990998445429
 20
5.459302108027924
  0
LWPOLYLINE
  5
1533
330
18
100
AcDbEntity
  8
TEXT
100
AcDbPolyline
 90
        2
 70
     0
 43
0.0001332181640625
 10
1.691312814851678
 20
5.459302108027924
 10
1.764582805086054
 20
5.469293470332613
  0
LWPOLYLINE
  5
1534
330
18
100
AcDbEntity
  8
TEXT
100
AcDbPolyline
 90
        3
 70
     0
 43
0.0006660908203125
 10
1.737939172273553
 20
5.469293470332613
 10
1.737939172273553
 20
5.555885276973239
 10
1.651347365632928
 20
5.555885276973239
  0
LWPOLYLINE
  5
1535
330
18
100
AcDbEntity
  8
TEXT
100
AcDbPolyline
 90
        3
 70
     0
 43
0.0006660908203125
 10
1.764582805086054
 20
5.469293470332613
 10
1.764582805086054
 20
5.58252890978574
 10
1.651347365632928
 20
5.58252890978574
  0
LWPOLYLINE
  5
1536
330
18
100
AcDbEntity
  8
TEXT
100
AcDbPolyline
 90
        2
 70
     0
 43
0.0001332181640625
 10
1.651347365632928
 20
5.58252890978574
 10
1.641356003328239
 20
5.509258919551361
  0
LWPOLYLINE
  5
1537
330
18
100
AcDbEntity
  8
TEXT
100
AcDbPolyline
 90
        2
 70
     0
 43
0.0001332181640625
 10
1.651347365632928
 20
5.555885276973239
 10
1.641356003328239
 20
5.495937103145114
  0
LWPOLYLINE
  5
1538
330
18
100
AcDbEntity
  8
TEXT
100
AcDbPolyline
 90
        2
 70
     0
 43
0.0006660908203125
 10
1.651347365632928
 20
5.555885276973239
 10
1.651347365632928
 20
5.58252890978574
  0
LWPOLYLINE
  5
1539
330
18
100
AcDbEntity
  8
TEXT
100
AcDbPolyline
 90
        5
 70
     0
 43
0.0001332181640625
 10
1.641356003328239
 20
5.509258919551361
 10
1.641356003328239
 20
5.495937103145114
 10
1.677990998445429
 20
5.495937103145114
 10
1.677990998445429
 20
5.459302108027924
 10
1.691312814851678
 20
5.459302108027924
  0
LWPOLYLINE
  5
153A
330
18
100
AcDbEntity
  8
TEXT
100
AcDbPolyline
 90
        2
 70
     0
 43
0.0001332181640625
 10
1.611381916414176
 20
5.555885276973239
 10
1.621373278718867
 20
5.495937103145114
  0
LWPOLYLINE
  5
153B
330
18
100
AcDbEntity
  8
TEXT
100
AcDbPolyline
 90
        2
 70
     0
 43
0.0001332181640625
 10
1.621373278718867
 20
5.509258919551361
 10
1.611381916414176
 20
5.58252890978574
  0
LWPOLYLINE
  5
153C
330
18
100
AcDbEntity
  8
TEXT
100
AcDbPolyline
 90
        2
 70
     0
 43
0.0006660908203125
 10
1.611381916414176
 20
5.555885276973239
 10
1.611381916414176
 20
5.58252890978574
  0
LWPOLYLINE
  5
153D
330
18
100
AcDbEntity
  8
TEXT
100
AcDbPolyline
 90
        2
 70
     0
 43
0.0006660908203125
 10
1.737939172273553
 20
5.469293470332613
 10
1.764582805086054
 20
5.469293470332613
  0
LWPOLYLINE
  5
153E
330
18
100
AcDbEntity
  8
TEXT
100
AcDbPolyline
 90
        2
 70
     0
 43
0.0
 10
2.483362725834684
 20
5.367607219012154
 42
0.3318488747599744
 10
2.552482018399997
 20
5.316055876797226
 42
-6.868794160588311
  0
LINE
  5
153F
330
18
100
AcDbEntity
  8
TEXT
100
AcDbLine
 10
2.551342444903801
 20
5.650540387524547
 30
0.0
 11
2.484533732337436
 21
5.650540387524547
 31
0.0
  0
LINE
  5
1540
330
18
100
AcDbEntity
  8
TEXT
100
AcDbLine
 10
2.205191364718342
 20
5.582528909785737
 30
0.0
 11
2.029459611819831
 21
5.582528909785737
 31
0.0
  0
ARC
  5
1541
330
18
100
AcDbEntity
  8
TEXT
100
AcDbCircle
 10
2.10029707817838
 20
5.399251685157783
 30
0.0
 40
0.0831958083605586
100
AcDbArc
 50
270.0
 51
90.0
  0
LINE
  5
1542
330
18
100
AcDbEntity
  8
TEXT
100
AcDbLine
 10
2.034696941934079
 20
5.518252215128971
 30
0.0
 11
2.201602595963049
 21
5.518252215128971
 31
0.0
  0
LINE
  5
1543
330
18
100
AcDbEntity
  8
TEXT
100
AcDbLine
 10
2.10523745208466
 20
5.384412883130665
 30
0.0
 11
1.947372152373326
 21
5.384412883130665
 31
0.0
  0
LINE
  5
1544
330
18
100
AcDbEntity
  8
TEXT
100
AcDbLine
 10
1.947372152373327
 20
5.316055876797226
 30
0.0
 11
2.10029707817838
 21
5.316055876797226
 31
0.0
  0
ARC
  5
1545
330
18
100
AcDbEntity
  8
TEXT
100
AcDbCircle
 10
2.029459611819831
 20
5.500441450339235
 30
0.0
 40
0.0820874594465043
100
AcDbArc
 50
90.0
 51
270.0
  0
LINE
  5
1546
330
18
100
AcDbEntity
  8
TEXT
100
AcDbLine
 10
1.947372152373326
 20
5.384412883130665
 30
0.0
 11
1.947372152373327
 21
5.316055876797226
 31
0.0
  0
LINE
  5
1547
330
18
100
AcDbEntity
  8
TEXT
100
AcDbLine
 10
2.029459611819831
 20
5.41835399089273
 30
0.0
 11
2.10523745208466
 21
5.41835399089273
 31
0.0
  0
ARC
  5
1548
330
18
100
AcDbEntity
  8
TEXT
100
AcDbCircle
 10
2.10523745208466
 20
5.401383437011699
 30
0.0
 40
0.0169705538810321
100
AcDbArc
 50
270.0
 51
90.0
  0
LINE
  5
1549
330
18
100
AcDbEntity
  8
TEXT
100
AcDbLine
 10
2.10029707817838
 20
5.482447493518344
 30
0.0
 11
2.034696941934079
 21
5.482447493518344
 31
0.0
  0
ARC
  5
154A
330
18
100
AcDbEntity
  8
TEXT
100
AcDbCircle
 10
2.034696941934079
 20
5.500349854323659
 30
0.0
 40
0.017902360805315
100
AcDbArc
 50
90.0
 51
270.0
  0
LINE
  5
154B
330
18
100
AcDbEntity
  8
TEXT
100
AcDbLine
 10
2.395663256738195
 20
5.481656913672616
 30
0.0
 11
2.337032935706257
 21
5.582528909785737
 31
0.0
  0
LINE
  5
154C
330
18
100
AcDbEntity
  8
TEXT
100
AcDbLine
 10
2.255489203443155
 20
5.316055876797226
 30
0.0
 11
2.352129454518149
 21
5.316326515895508
 31
0.0
  0
LWPOLYLINE
  5
154D
330
18
100
AcDbEntity
  8
TEXT
100
AcDbPolyline
 90
        6
 70
     1
 43
0.0
 10
2.298013007018305
 20
5.518252215128971
 10
2.267696412798097
 20
5.518252215128971
 10
2.267696412798097
 20
5.395141217074077
 42
0.407328721240804
 10
2.279240063959573
 20
5.383322302397691
 10
2.339861763004304
 20
5.383322302397691
 10
2.357327103411622
 20
5.41613453144117
  0
LINE
  5
154E
330
18
100
AcDbEntity
  8
TEXT
100
AcDbLine
 10
2.201602595963049
 20
5.518252215128971
 30
0.0
 11
2.201602595963049
 21
5.375848268135276
 31
0.0
  0
ARC
  5
154F
330
18
100
AcDbEntity
  8
TEXT
100
AcDbCircle
 10
2.261718613936802
 20
5.375848268135276
 30
0.0
 40
0.0601160179737537
100
AcDbArc
 50
180.0000000000003
 51
264.0521544866073
  0
LINE
  5
1550
330
18
100
AcDbEntity
  8
TEXT
100
AcDbLine
 10
2.265233969562349
 20
5.616916827379875
 30
0.0
 11
2.205191364718342
 21
5.616916827379875
 31
0.0
  0
LINE
  5
1551
330
18
100
AcDbEntity
  8
TEXT
100
AcDbLine
 10
2.205191364718342
 20
5.616916827379875
 30
0.0
 11
2.205191364718342
 21
5.582528909785737
 31
0.0
  0
LINE
  5
1552
330
18
100
AcDbEntity
  8
TEXT
100
AcDbLine
 10
2.265233969562349
 20
5.582528909785737
 30
0.0
 11
2.265233969562349
 21
5.616916827379875
 31
0.0
  0
LINE
  5
1553
330
18
100
AcDbEntity
  8
TEXT
100
AcDbLine
 10
2.337032935706257
 20
5.582528909785737
 30
0.0
 11
2.265233969562349
 21
5.582528909785737
 31
0.0
  0
LINE
  5
1554
330
18
100
AcDbEntity
  8
TEXT
100
AcDbLine
 10
2.38606301974124
 20
5.336014382902239
 30
0.0
 11
2.483362725834685
 21
5.500364593837507
 31
0.0
  0
LINE
  5
1555
330
18
100
AcDbEntity
  8
TEXT
100
AcDbLine
 10
2.483362725834685
 20
5.500364593837507
 30
0.0
 11
2.483362725834685
 21
5.367607219012151
 31
0.0
  0
ARC
  5
1556
330
18
100
AcDbEntity
  8
TEXT
100
AcDbCircle
 10
2.352019459829027
 20
5.355603599070922
 30
0.0
 40
0.0392772371940762
100
AcDbArc
 50
270.1604552698595
 51
330.0831797321295
  0
LINE
  5
1557
330
18
100
AcDbEntity
  8
TEXT
100
AcDbLine
 10
2.45441181954406
 20
5.582528909785737
 30
0.0
 11
2.395663256738195
 21
5.481656913672616
 31
0.0
  0
LINE
  5
1558
330
18
100
AcDbEntity
  8
TEXT
100
AcDbLine
 10
2.484533732337436
 20
5.650540387524547
 30
0.0
 11
2.484533732337436
 21
5.582528909785737
 31
0.0
  0
LINE
  5
1559
330
18
100
AcDbEntity
  8
TEXT
100
AcDbLine
 10
2.484533732337436
 20
5.582528909785737
 30
0.0
 11
2.45441181954406
 21
5.582528909785737
 31
0.0
  0
LWPOLYLINE
  5
155A
330
18
100
AcDbEntity
  8
TEXT
100
AcDbPolyline
 90
        4
 70
     0
 43
0.0
 10
2.836619853957595
 20
5.510698425962861
 10
2.836619853957595
 20
5.316055876797226
 10
2.905098137245452
 20
5.316055876797226
 10
2.905098137245452
 20
5.359546821747664
 42
-1.714843617202739
  0
LWPOLYLINE
  5
155B
330
18
100
AcDbEntity
  8
TEXT
100
AcDbPolyline
 90
        2
 70
     0
 43
0.0
 10
2.871754204501804
 20
5.58252890978574
 42
-0.3277054968067132
 10
2.907535895214969
 20
5.554206364016097
 42
6.667889725900311
  0
LWPOLYLINE
  5
155C
330
18
100
AcDbEntity
  8
TEXT
100
AcDbPolyline
 90
        2
 70
     0
 43
0.0
 10
2.700320631922577
 20
5.518252215128971
 42
-0.4142135623731017
 10
2.707874421088691
 20
5.510698425962861
 42
-0.9999999999999998
  0
LINE
  5
155D
330
18
100
AcDbEntity
  8
TEXT
100
AcDbLine
 10
2.717672354972598
 20
5.582528909785737
 30
0.0
 11
2.583654299041461
 21
5.582528909785737
 31
0.0
  0
LINE
  5
155E
330
18
100
AcDbEntity
  8
TEXT
100
AcDbLine
 10
2.650485352099431
 20
5.316055876797226
 30
0.0
 11
2.650485352099431
 21
5.518252215128971
 31
0.0
  0
LINE
  5
155F
330
18
100
AcDbEntity
  8
TEXT
100
AcDbLine
 10
2.583654299041461
 20
5.582528909785737
 30
0.0
 11
2.583654299041461
 21
5.381664703053329
 31
0.0
  0
LINE
  5
1560
330
18
100
AcDbEntity
  8
TEXT
100
AcDbLine
 10
2.551342444903801
 20
5.398443714900225
 30
0.0
 11
2.551342444903801
 21
5.650540387524547
 31
0.0
  0
LINE
  5
1561
330
18
100
AcDbEntity
  8
TEXT
100
AcDbLine
 10
2.552482018399996
 20
5.316055876797226
 30
0.0
 11
2.650485352099431
 21
5.316055876797226
 31
0.0
  0
LINE
  5
1562
330
18
100
AcDbEntity
  8
TEXT
100
AcDbLine
 10
2.583654299041461
 20
5.381664703053329
 30
0.0
 11
2.56666066215686
 21
5.381664703053329
 31
0.0
  0
ARC
  5
1563
330
18
100
AcDbEntity
  8
TEXT
100
AcDbCircle
 10
2.566660662156859
 20
5.397046509296754
 30
0.0
 40
0.0153818062434269
100
AcDbArc
 50
174.7883570302258
 51
270.0
  0
LINE
  5
1564
330
18
100
AcDbEntity
  8
TEXT
100
AcDbLine
 10
2.650485352099431
 20
5.518252215128971
 30
0.0
 11
2.700320631922578
 21
5.518252215128971
 31
0.0
  0
LINE
  5
1565
330
18
100
AcDbEntity
  8
TEXT
100
AcDbLine
 10
2.707874421088692
 20
5.510698425962861
 30
0.0
 11
2.707874421088692
 21
5.316055876797226
 31
0.0
  0
LINE
  5
1566
330
18
100
AcDbEntity
  8
TEXT
100
AcDbLine
 10
2.774932467870532
 20
5.316055876797226
 30
0.0
 11
2.774932467870532
 21
5.518252215128971
 31
0.0
  0
LINE
  5
1567
330
18
100
AcDbEntity
  8
TEXT
100
AcDbLine
 10
2.707874421088692
 20
5.316055876797226
 30
0.0
 11
2.774932467870532
 21
5.316055876797226
 31
0.0
  0
LWPOLYLINE
  5
1568
330
18
100
AcDbEntity
  8
TEXT
100
AcDbPolyline
 90
        3
 70
     0
 43
0.0
 10
2.871754204501804
 20
5.58252890978574
 10
2.75345404568576
 20
5.58252890978574
 10
2.75345404568576
 20
5.555361413024844
 42
-1.960274751411753
  0
LINE
  5
1569
330
18
100
AcDbEntity
  8
TEXT
100
AcDbLine
 10
2.774932467870532
 20
5.518252215128971
 30
0.0
 11
2.829066064791482
 21
5.518252215128971
 31
0.0
  0
LWPOLYLINE
  5
156A
330
18
100
AcDbEntity
  8
TEXT
100
AcDbPolyline
 90
        2
 70
     0
 43
0.0
 10
2.717672354972599
 20
5.58252890978574
 42
-0.3328679258950098
 10
2.75345404568576
 20
5.555361413024844
 42
6.772930709997214
  0
LWPOLYLINE
  5
156B
330
18
100
AcDbEntity
  8
TEXT
100
AcDbPolyline
 90
        2
 70
     0
 43
0.0
 10
2.829066064791481
 20
5.518252215128971
 42
-0.4142135623731017
 10
2.836619853957595
 20
5.510698425962861
 42
-0.9999999999999998
  0
ARC
  5
156C
330
18
100
AcDbEntity
  8
TEXT
100
AcDbCircle
 10
3.040340864654961
 20
5.540945342664834
 30
0.0
 40
0.0416329381542859
100
AcDbArc
 50
26.56974201007528
 51
87.20939649401342
  0
LWPOLYLINE
  5
156D
330
18
100
AcDbEntity
  8
TEXT
100
AcDbPolyline
 90
        2
 70
     0
 43
0.0
 10
2.948174070113088
 20
5.316055876797226
 10
3.082191487744465
 20
5.316055876797226
 42
0.9999999999999998
  0
LWPOLYLINE
  5
156E
330
18
100
AcDbEntity
  8
TEXT
100
AcDbPolyline
 90
        4
 70
     1
 43
0.0
 10
3.062069022674572
 20
5.419019854781251
 10
2.973408704014714
 20
5.419019854781251
 42
0.9999999999999998
 10
2.973408704014714
 20
5.37662131427739
 10
3.062069022674572
 20
5.37662131427739
 42
1.0
  0
LWPOLYLINE
  5
156F
330
18
100
AcDbEntity
  8
TEXT
100
AcDbPolyline
 90
        2
 70
     0
 43
0.0
 10
2.905098137245452
 20
5.359546821747664
 42
0.2901071551932823
 10
2.948174070113088
 20
5.316055876797226
 42
5.328517124445801
  0
LINE
  5
1570
330
18
100
AcDbEntity
  8
TEXT
100
AcDbLine
 10
3.042367804432029
 20
5.582528909785737
 30
0.0
 11
2.90753589521497
 21
5.582528909785737
 31
0.0
  0
LINE
  5
1571
330
18
100
AcDbEntity
  8
TEXT
100
AcDbLine
 10
2.966849991608289
 20
5.480977241666839
 30
0.0
 11
3.049137981391672
 21
5.480977241666839
 31
0.0
  0
LINE
  5
1572
330
18
100
AcDbEntity
  8
TEXT
100
AcDbLine
 10
3.013336906087551
 20
5.518252215128971
 30
0.0
 11
2.906130632700262
 21
5.518252215128971
 31
0.0
  0
LINE
  5
1573
330
18
100
AcDbEntity
  8
TEXT
100
AcDbLine
 10
2.90753589521497
 20
5.582528909785737
 30
0.0
 11
2.90753589521497
 21
5.554206364016093
 31
0.0
  0
ARC
  5
1574
330
18
100
AcDbEntity
  8
TEXT
100
AcDbCircle
 10
2.966849991608288
 20
5.413291660522721
 30
0.0
 40
0.0676855811441166
100
AcDbArc
 50
90.0
 51
153.7768192527749
  0
LINE
  5
1575
330
18
100
AcDbEntity
  8
TEXT
100
AcDbLine
 10
2.906130632700262
 20
5.518252215128971
 30
0.0
 11
2.906130632700262
 21
5.443199809054765
 31
0.0
  0
LINE
  5
1576
330
18
100
AcDbEntity
  8
TEXT
100
AcDbLine
 10
3.049137981391672
 20
5.480977241666839
 30
0.0
 11
3.038873220978108
 21
5.502227781239533
 31
0.0
  0
ARC
  5
1577
330
18
100
AcDbEntity
  8
TEXT
100
AcDbCircle
 10
3.01333690608755
 20
5.489892840128974
 30
0.0
 40
0.028359375
100
AcDbArc
 50
25.78218179591245
 51
90.0
  0
LINE
  5
1578
330
18
100
AcDbEntity
  8
TEXT
100
AcDbLine
 10
3.183622634447444
 20
5.316055876797226
 30
0.0
 11
3.183622634447439
 21
5.493346382228694
 31
0.0
  0
LWPOLYLINE
  5
1579
330
18
100
AcDbEntity
  8
TEXT
100
AcDbPolyline
 90
        2
 70
     0
 43
0.0
 10
3.125267420612109
 20
5.316055876797226
 10
3.183622634447443
 20
5.316055876797226
  0
LWPOLYLINE
  5
157A
330
18
100
AcDbEntity
  8
TEXT
100
AcDbPolyline
 90
        2
 70
     0
 43
0.0
 10
3.125267420612109
 20
5.359546821747664
 42
-0.2901071551932486
 10
3.082191487744465
 20
5.316055876797226
 42
-5.328517124445184
  0
LWPOLYLINE
  5
157B
330
18
100
AcDbEntity
  8
TEXT
100
AcDbPolyline
 90
        2
 70
     0
 43
0.0
 10
3.125267420612109
 20
5.359546821747664
 10
3.125267420612109
 20
5.316055876797226
  0
LINE
  5
157C
330
18
100
AcDbEntity
  8
TEXT
100
AcDbLine
 10
3.185224649606571
 20
5.582528909785737
 30
0.0
 11
3.12132774330707
 21
5.582528909785737
 31
0.0
  0
LINE
  5
157D
330
18
100
AcDbEntity
  8
TEXT
100
AcDbLine
 10
3.12132774330707
 20
5.582528909785737
 30
0.0
 11
3.12132774330707
 21
5.47731693123231
 31
0.0
  0
LINE
  5
157E
330
18
100
AcDbEntity
  8
TEXT
100
AcDbLine
 10
3.12132774330707
 20
5.47731693123231
 30
0.0
 11
3.077576972125169
 21
5.559567207228455
 31
0.0
  0
ARC
  5
157F
330
18
100
AcDbEntity
  8
TEXT
100
AcDbCircle
 10
3.208528509730102
 20
5.493346339846309
 30
0.0
 40
0.0249058752826653
100
AcDbArc
 50
89.99971217465335
 51
179.9999999999985
  0
ARC
  5
1580
330
18
100
AcDbEntity
  8
TEXT
100
AcDbCircle
 10
3.21641746666968
 20
5.551283182503472
 30
0.0
 40
0.0314112657011332
100
AcDbArc
 50
95.88484768694724
 51
173.2388340632136
  0
LINE
  5
1581
330
18
100
AcDbEntity
  8
TEXT
100
AcDbLine
 10
3.185224649606571
 20
5.554981259924862
 30
0.0
 11
3.185224649606571
 21
5.582528909785737
 31
0.0
  0
TEXT
  5
1582
330
18
100
AcDbEntity
  8
TEXT
100
AcDbText
 10
3.654100169028362
 20
5.408941685442722
 30
0.0
 40
0.0522247191011236
  1
Minneapolis, MN 55432-0008
 41
1.11444212721585
 72
     5
 11
4.983032753298026
 21
5.408941685442722
 31
0.0
100
AcDbText
  0
TEXT
  5
1583
330
18
100
AcDbEntity
  8
TEXT
100
AcDbText
 10
3.654100169028362
 20
5.502200112409014
 30
0.0
 40
0.0522247191011236
  1
6536 Main St. N.E. * P.O. Box 32008
 41
0.8388932496075355
 72
     5
 11
4.983032753298026
 21
5.502200112409014
 31
0.0
100
AcDbText
  0
TEXT
  5
1584
330
18
100
AcDbEntity
  8
TEXT
100
AcDbText
 10
3.654100169028362
 20
5.595458539375306
 30
0.0
 40
0.0522247191011236
  1
Stylmark  Incorporated
 41
1.221428571428571
 72
     5
 11
4.983032753298026
 21
5.595458539375306
 31
0.0
100
AcDbText
  0
TEXT
  5
1585
330
18
100
AcDbEntity
  8
TEXT
100
AcDbText
 10
3.654100169028362
 20
5.31568325847643
 30
0.0
 40
0.0522247191011236
  1
Phone  1-800-328-2495
 41
1.272321428571429
 72
     5
 11
4.983032753298026
 21
5.31568325847643
 31
0.0
100
AcDbText
  0
LINE
  5
1586
330
18
100
AcDbEntity
  8
TEXT
100
AcDbLine
 10
3.406544357565347
 20
5.472635666844763
 30
0.0
 11
3.471101473531052
 21
5.582528909785737
 31
0.0
  0
LINE
  5
1587
330
18
100
AcDbEntity
  8
TEXT
100
AcDbLine
 10
3.471101473531052
 20
5.582528909785737
 30
0.0
 11
3.396109640801426
 21
5.582528909785737
 31
0.0
  0
LINE
  5
1588
330
18
100
AcDbEntity
  8
TEXT
100
AcDbLine
 10
3.425458208552751
 20
5.316055876797226
 30
0.0
 11
3.502036580928957
 21
5.316055876797226
 31
0.0
  0
LINE
  5
1589
330
18
100
AcDbEntity
  8
TEXT
100
AcDbLine
 10
3.502036580928957
 20
5.316055876797226
 30
0.0
 11
3.406544357565347
 21
5.472635666844763
 31
0.0
  0
LINE
  5
158A
330
18
100
AcDbEntity
  8
TEXT
100
AcDbLine
 10
3.349554675341287
 20
5.316055876797226
 30
0.0
 11
3.349554675341287
 21
5.447635445273406
 31
0.0
  0
LINE
  5
158B
330
18
100
AcDbEntity
  8
TEXT
100
AcDbLine
 10
3.349554675341287
 20
5.447635445273406
 30
0.0
 11
3.425458208552751
 21
5.316055876797226
 31
0.0
  0
LINE
  5
158C
330
18
100
AcDbEntity
  8
TEXT
100
AcDbLine
 10
3.285176491022661
 20
5.518252215128971
 30
0.0
 11
3.285176491022666
 21
5.316055876797226
 31
0.0
  0
LINE
  5
158D
330
18
100
AcDbEntity
  8
TEXT
100
AcDbLine
 10
3.285176491022666
 20
5.316055876797226
 30
0.0
 11
3.349554675341287
 21
5.316055876797226
 31
0.0
  0
LINE
  5
158E
330
18
100
AcDbEntity
  8
TEXT
100
AcDbLine
 10
3.349011482245439
 20
5.647993115553338
 30
0.0
 11
3.280696603696166
 21
5.647993115553338
 31
0.0
  0
LINE
  5
158F
330
18
100
AcDbEntity
  8
TEXT
100
AcDbLine
 10
3.280696603696166
 20
5.647993115553338
 30
0.0
 11
3.280696603696161
 21
5.582528909785737
 31
0.0
  0
LINE
  5
1590
330
18
100
AcDbEntity
  8
TEXT
100
AcDbLine
 10
3.396109640801424
 20
5.582528909785737
 30
0.0
 11
3.349011482245439
 21
5.506663583374199
 31
0.0
  0
LINE
  5
1591
330
18
100
AcDbEntity
  8
TEXT
100
AcDbLine
 10
3.349011482245439
 20
5.506663583374199
 30
0.0
 11
3.349011482245439
 21
5.647993115553338
 31
0.0
  0
ENDSEC
  0
SECTION
  2
OBJECTS
  0
DICTIONARY
  5
C
330
0
100
AcDbDictionary
  3
ACAD_GROUP
350
D
  3
ACAD_LAYOUT
350
1596
  3
ACAD_MLINESTYLE
350
E
  3
ACAD_PLOTSETTINGS
350
1597
  3
ACAD_PLOTSTYLENAME
350
1594
  3
ACDBHEADERROUNDTRIPXREC
350
15A1
  3
ACDBVARIABLEDICTIONARY
350
159E
  0
DICTIONARY
  5
15C3
330
18
100
AcDbDictionary
280
     1
  3
ACAD_LAYOUTSELFREF
360
15C4
  0
DICTIONARY
  5
15C1
330
15
100
AcDbDictionary
280
     1
  3
ACAD_LAYOUTSELFREF
360
15C2
  0
DICTIONARY
  5
D
102
{ACAD_REACTORS
330
C
102
}
330
C
100
AcDbDictionary
  3
*A1
350
CD4
  3
*A2
350
103D
  3
*A3
350
1464
  0
DICTIONARY
  5
1596
102
{ACAD_REACTORS
330
C
102
}
330
C
100
AcDbDictionary
  0
DICTIONARY
  5
E
102
{ACAD_REACTORS
330
C
102
}
330
C
100
AcDbDictionary
  3
STANDARD
350
1B
  0
DICTIONARY
  5
1597
102
{ACAD_REACTORS
330
C
102
}
330
C
100
AcDbDictionary
  0
ACDBDICTIONARYWDFLT
  5
1594
102
{ACAD_REACTORS
330
C
102
}
330
C
100
AcDbDictionary
281
     1
  3
Normal
350
1595
100
AcDbDictionaryWithDefault
340
1595
  0
DICTIONARY
  5
15A1
102
{ACAD_REACTORS
330
C
102
}
330
C
100
AcDbDictionary
  3
CEPSNTYPE
350
15AB
  3
FINGERPRINTGUID
350
15AC
  3
HYPERLINKBASE
350
15A4
  3
INSUNITS
350
15AA
  3
LAYOUTDICT
350
15A6
  3
LWETCUNION
350
15A9
  3
PLOTSETDICT
350
15A7
  3
PLOTSTYLNAMDICT
350
15A8
  3
PSVPSCALE
350
15AE
  3
PUCSBASE
350
15B1
  3
PUCSORGBACK
350
15B7
  3
PUCSORGBOTTOM
350
15B3
  3
PUCSORGFRONT
350
15B6
  3
PUCSORGLEFT
350
15B4
  3
PUCSORGRIGHT
350
15B5
  3
PUCSORGTOP
350
15B2
  3
PUCSORTHOREF
350
15AF
  3
PUCSORTHOVIEW
350
15B0
  3
STYLESHEET
350
15A5
  3
TSTACKALIGN
350
15A2
  3
TSTACKSIZE
350
15A3
  3
UCSBASE
350
15BA
  3
UCSORGBACK
350
15C0
  3
UCSORGBOTTOM
350
15BC
  3
UCSORGFRONT
350
15BF
  3
UCSORGLEFT
350
15BD
  3
UCSORGRIGHT
350
15BE
  3
UCSORGTOP
350
15BB
  3
UCSORTHOREF
350
15B8
  3
UCSORTHOVIEW
350
15B9
  3
VERSIONGUID
350
15AD
  0
DICTIONARY
  5
159E
102
{ACAD_REACTORS
330
C
102
}
330
C
100
AcDbDictionary
  3
DIMASSOC
350
159F
  0
XRECORD
  5
15C4
102
{ACAD_REACTORS
330
15C3
102
}
330
15C3
100
AcDbXrecord
340
18
  0
XRECORD
  5
15C2
102
{ACAD_REACTORS
330
15C1
102
}
330
15C1
100
AcDbXrecord
340
15
  0
GROUP
  5
CD4
102
{ACAD_REACTORS
330
D
102
}
330
D
100
AcDbGroup
300
BORDER FRAME 10-1-95
 70
     3
 71
     1
  0
GROUP
  5
103D
102
{ACAD_REACTORS
330
D
102
}
330
D
100
AcDbGroup
300

 70
     1
 71
     1
  0
GROUP
  5
1464
102
{ACAD_REACTORS
330
D
102
}
330
D
100
AcDbGroup
300

 70
     1
 71
     1
  0
MLINESTYLE
  5
1B
102
{ACAD_REACTORS
330
E
102
}
330
E
100
AcDbMlineStyle
  2
STANDARD
 70
     0
  3

 62
     0
 51
90.0
 52
90.0
 71
     2
 49
0.5
 62
   256
  6
BYLAYER
 49
-0.5
 62
   256
  6
BYLAYER
  0
ACDBPLACEHOLDER
  5
1595
102
{ACAD_REACTORS
330
1594
102
}
330
1594
100
AcDbPlaceHolder
280
     0
  0
XRECORD
  5
15AB
102
{ACAD_REACTORS
330
15A1
102
}
330
15A1
100
AcDbXrecord
 90
        0
  0
XRECORD
  5
15AC
102
{ACAD_REACTORS
330
15A1
102
}
330
15A1
100
AcDbXrecord
  1
{946CCBC0-8DB8-11D6-88E6-0090279574E7}
  0
XRECORD
  5
15A4
102
{ACAD_REACTORS
330
15A1
102
}
330
15A1
100
AcDbXrecord
  1

  0
XRECORD
  5
15AA
102
{ACAD_REACTORS
330
15A1
102
}
330
15A1
100
AcDbXrecord
 90
        0
  0
XRECORD
  5
15A6
102
{ACAD_REACTORS
330
15A1
102
}
330
15A1
100
AcDbXrecord
340
1596
  0
XRECORD
  5
15A9
102
{ACAD_REACTORS
330
15A1
102
}
330
15A1
100
AcDbXrecord
 90
    14877
  0
XRECORD
  5
15A7
102
{ACAD_REACTORS
330
15A1
102
}
330
15A1
100
AcDbXrecord
340
1597
  0
XRECORD
  5
15A8
102
{ACAD_REACTORS
330
15A1
102
}
330
15A1
100
AcDbXrecord
340
1594
  0
XRECORD
  5
15AE
102
{ACAD_REACTORS
330
15A1
102
}
330
15A1
100
AcDbXrecord
 40
0.0
  0
XRECORD
  5
15B1
102
{ACAD_REACTORS
330
15A1
102
}
330
15A1
100
AcDbXrecord
340
0
  0
XRECORD
  5
15B7
102
{ACAD_REACTORS
330
15A1
102
}
330
15A1
100
AcDbXrecord
 10
0.0
 20
0.0
 30
0.0
  0
XRECORD
  5
15B3
102
{ACAD_REACTORS
330
15A1
102
}
330
15A1
100
AcDbXrecord
 10
0.0
 20
0.0
 30
0.0
  0
XRECORD
  5
15B6
102
{ACAD_REACTORS
330
15A1
102
}
330
15A1
100
AcDbXrecord
 10
0.0
 20
0.0
 30
0.0
  0
XRECORD
  5
15B4
102
{ACAD_REACTORS
330
15A1
102
}
330
15A1
100
AcDbXrecord
 10
0.0
 20
0.0
 30
0.0
  0
XRECORD
  5
15B5
102
{ACAD_REACTORS
330
15A1
102
}
330
15A1
100
AcDbXrecord
 10
0.0
 20
0.0
 30
0.0
  0
XRECORD
  5
15B2
102
{ACAD_REACTORS
330
15A1
102
}
330
15A1
100
AcDbXrecord
 10
0.0
 20
0.0
 30
0.0
  0
XRECORD
  5
15AF
102
{ACAD_REACTORS
330
15A1
102
}
330
15A1
100
AcDbXrecord
340
0
  0
XRECORD
  5
15B0
102
{ACAD_REACTORS
330
15A1
102
}
330
15A1
100
AcDbXrecord
 70
     0
  0
XRECORD
  5
15A5
102
{ACAD_REACTORS
330
15A1
102
}
330
15A1
100
AcDbXrecord
  1

  0
XRECORD
  5
15A2
102
{ACAD_REACTORS
330
15A1
102
}
330
15A1
100
AcDbXrecord
 90
        1
  0
XRECORD
  5
15A3
102
{ACAD_REACTORS
330
15A1
102
}
330
15A1
100
AcDbXrecord
 90
       70
  0
XRECORD
  5
15BA
102
{ACAD_REACTORS
330
15A1
102
}
330
15A1
100
AcDbXrecord
340
0
  0
XRECORD
  5
15C0
102
{ACAD_REACTORS
330
15A1
102
}
330
15A1
100
AcDbXrecord
 10
0.0
 20
0.0
 30
0.0
  0
XRECORD
  5
15BC
102
{ACAD_REACTORS
330
15A1
102
}
330
15A1
100
AcDbXrecord
 10
0.0
 20
0.0
 30
0.0
  0
XRECORD
  5
15BF
102
{ACAD_REACTORS
330
15A1
102
}
330
15A1
100
AcDbXrecord
 10
0.0
 20
0.0
 30
0.0
  0
XRECORD
  5
15BD
102
{ACAD_REACTORS
330
15A1
102
}
330
15A1
100
AcDbXrecord
 10
0.0
 20
0.0
 30
0.0
  0
XRECORD
  5
15BE
102
{ACAD_REACTORS
330
15A1
102
}
330
15A1
100
AcDbXrecord
 10
0.0
 20
0.0
 30
0.0
  0
XRECORD
  5
15BB
102
{ACAD_REACTORS
330
15A1
102
}
330
15A1
100
AcDbXrecord
 10
0.0
 20
0.0
 30
0.0
  0
XRECORD
  5
15B8
102
{ACAD_REACTORS
330
15A1
102
}
330
15A1
100
AcDbXrecord
340
0
  0
XRECORD
  5
15B9
102
{ACAD_REACTORS
330
15A1
102
}
330
15A1
100
AcDbXrecord
 70
     0
  0
XRECORD
  5
15AD
102
{ACAD_REACTORS
330
15A1
102
}
330
15A1
100
AcDbXrecord
  1
{946CCBC2-8DB8-11D6-88E6-0090279574E7}
  0
DICTIONARYVAR
  5
159F
102
{ACAD_REACTORS
330
159E
102
}
330
159E
100
DictionaryVariables
280
     0
  1
1
  0
ENDSEC
  0
EOF
