  0
SECTION
  2
HEADER
  9
$ACADVER
  1
AC1014
  9
$ACADMAINTVER
 70
     9
  9
$DWGCODEPAGE
  3
ANSI_1252
  9
$INSBASE
 10
0.0
 20
0.0
 30
0.0
  9
$EXTMIN
 10
1.837269985869578
 20
5.096102666490001
 30
0.0
  9
$EXTMAX
 10
5.322489307616714
 20
7.104708500591087
 30
0.0
  9
$LIMMIN
 10
0.0
 20
0.0
  9
$LIMMAX
 10
18.0
 20
12.0
  9
$ORTHOMODE
 70
     0
  9
$REGENMODE
 70
     1
  9
$FILLMODE
 70
     1
  9
$QTEXTMODE
 70
     0
  9
$MIRRTEXT
 70
     0
  9
$DRAGMODE
 70
     2
  9
$LTSCALE
 40
1.0
  9
$OSMODE
 70
    39
  9
$ATTMODE
 70
     1
  9
$TEXTSIZE
 40
0.125
  9
$TRACEWID
 40
0.05
  9
$TEXTSTYLE
  7
ROMANS
  9
$CLAYER
  8
TEXT
  9
$CELTYPE
  6
CONTINUOUS
  9
$CECOLOR
 62
   256
  9
$CELTSCALE
 40
1.0
  9
$DELOBJ
 70
     1
  9
$DISPSILH
 70
     1
  9
$DIMSCALE
 40
1.0
  9
$DIMASZ
 40
0.125
  9
$DIMEXO
 40
0.125
  9
$DIMDLI
 40
0.375
  9
$DIMRND
 40
0.0
  9
$DIMDLE
 40
0.0
  9
$DIMEXE
 40
0.125
  9
$DIMTP
 40
0.015
  9
$DIMTM
 40
0.015
  9
$DIMTXT
 40
0.125
  9
$DIMCEN
 40
-0.125
  9
$DIMTSZ
 40
0.0
  9
$DIMTOL
 70
     1
  9
$DIMLIM
 70
     0
  9
$DIMTIH
 70
     1
  9
$DIMTOH
 70
     1
  9
$DIMSE1
 70
     0
  9
$DIMSE2
 70
     0
  9
$DIMTAD
 70
     0
  9
$DIMZIN
 70
     4
  9
$DIMBLK
  1

  9
$DIMASO
 70
     1
  9
$DIMSHO
 70
     1
  9
$DIMPOST
  1

  9
$DIMAPOST
  1

  9
$DIMALT
 70
     0
  9
$DIMALTD
 70
     2
  9
$DIMALTF
 40
25.4
  9
$DIMLFAC
 40
1.0
  9
$DIMTOFL
 70
     0
  9
$DIMTVP
 40
0.0
  9
$DIMTIX
 70
     1
  9
$DIMSOXD
 70
     0
  9
$DIMSAH
 70
     0
  9
$DIMBLK1
  1

  9
$DIMBLK2
  1

  9
$DIMSTYLE
  2
STANDARD
  9
$DIMCLRD
 70
   256
  9
$DIMCLRE
 70
   256
  9
$DIMCLRT
 70
   256
  9
$DIMTFAC
 40
1.0
  9
$DIMGAP
 40
0.09
  9
$DIMJUST
 70
     0
  9
$DIMSD1
 70
     0
  9
$DIMSD2
 70
     0
  9
$DIMTOLJ
 70
     1
  9
$DIMTZIN
 70
     4
  9
$DIMALTZ
 70
     0
  9
$DIMALTTZ
 70
     0
  9
$DIMFIT
 70
     3
  9
$DIMUPT
 70
     0
  9
$DIMUNIT
 70
     2
  9
$DIMDEC
 70
     3
  9
$DIMTDEC
 70
     3
  9
$DIMALTU
 70
     2
  9
$DIMALTTD
 70
     2
  9
$DIMTXSTY
  7
ROMANS
  9
$DIMAUNIT
 70
     0
  9
$LUNITS
 70
     2
  9
$LUPREC
 70
     3
  9
$SKETCHINC
 40
0.1
  9
$FILLETRAD
 40
0.0
  9
$AUNITS
 70
     0
  9
$AUPREC
 70
     1
  9
$MENU
  1
acad
  9
$ELEVATION
 40
0.0
  9
$PELEVATION
 40
0.0
  9
$THICKNESS
 40
0.0
  9
$LIMCHECK
 70
     0
  9
$BLIPMODE
 70
     0
  9
$CHAMFERA
 40
0.03
  9
$CHAMFERB
 40
0.03
  9
$CHAMFERC
 40
0.0
  9
$CHAMFERD
 40
0.0
  9
$SKPOLY
 70
     0
  9
$TDCREATE
 40
2450086.414259387
  9
$TDUPDATE
 40
2452458.318177396
  9
$TDINDWG
 40
0.0941492708
  9
$TDUSRTIMER
 40
0.0941492708
  9
$USRTIMER
 70
     1
  9
$ANGBASE
 50
0.0
  9
$ANGDIR
 70
     0
  9
$PDMODE
 70
     0
  9
$PDSIZE
 40
0.0
  9
$PLINEWID
 40
0.0
  9
$COORDS
 70
     2
  9
$SPLFRAME
 70
     0
  9
$SPLINETYPE
 70
     6
  9
$SPLINESEGS
 70
     8
  9
$ATTDIA
 70
     0
  9
$ATTREQ
 70
     1
  9
$HANDLING
 70
 22529
  9
$HANDSEED
  5
3B9
  9
$SURFTAB1
 70
     6
  9
$SURFTAB2
 70
     6
  9
$SURFTYPE
 70
     6
  9
$SURFU
 70
     6
  9
$SURFV
 70
     6
  9
$UCSNAME
  2

  9
$UCSORG
 10
0.0
 20
0.0
 30
0.0
  9
$UCSXDIR
 10
1.0
 20
0.0
 30
0.0
  9
$UCSYDIR
 10
0.0
 20
1.0
 30
0.0
  9
$PUCSNAME
  2

  9
$PUCSORG
 10
0.0
 20
0.0
 30
0.0
  9
$PUCSXDIR
 10
1.0
 20
0.0
 30
0.0
  9
$PUCSYDIR
 10
0.0
 20
1.0
 30
0.0
  9
$USERI1
 70
     0
  9
$USERI2
 70
     0
  9
$USERI3
 70
     0
  9
$USERI4
 70
     0
  9
$USERI5
 70
     0
  9
$USERR1
 40
0.0
  9
$USERR2
 40
0.0
  9
$USERR3
 40
0.0
  9
$USERR4
 40
0.0
  9
$USERR5
 40
0.0
  9
$WORLDVIEW
 70
     1
  9
$SHADEDGE
 70
     3
  9
$SHADEDIF
 70
    70
  9
$TILEMODE
 70
     1
  9
$MAXACTVP
 70
    16
  9
$PINSBASE
 10
0.0
 20
0.0
 30
0.0
  9
$PLIMCHECK
 70
     0
  9
$PEXTMIN
 10
1.000000000000000E+20
 20
1.000000000000000E+20
 30
1.000000000000000E+20
  9
$PEXTMAX
 10
-1.000000000000000E+20
 20
-1.000000000000000E+20
 30
-1.000000000000000E+20
  9
$PLIMMIN
 10
0.0
 20
0.0
  9
$PLIMMAX
 10
12.0
 20
9.0
  9
$UNITMODE
 70
     0
  9
$VISRETAIN
 70
     0
  9
$PLINEGEN
 70
     1
  9
$PSLTSCALE
 70
     0
  9
$TREEDEPTH
 70
  3020
  9
$PICKSTYLE
 70
     1
  9
$CMLSTYLE
  2
STANDARD
  9
$CMLJUST
 70
     1
  9
$CMLSCALE
 40
1.0
  9
$PROXYGRAPHICS
 70
     1
  9
$MEASUREMENT
 70
     0
  0
ENDSEC
  0
SECTION
  2
CLASSES
  0
CLASS
  1
LWPOLYLINE
  2
AcDbPolyline
  3
AutoCAD 2000
 90
        0
280
     0
281
     1
  0
CLASS
  1
ACDBDICTIONARYWDFLT
  2
AcDbDictionaryWithDefault
  3
AutoCAD 2000
 90
        0
280
     0
281
     0
  0
CLASS
  1
ACDBPLACEHOLDER
  2
AcDbPlaceHolder
  3
AutoCAD 2000
 90
        0
280
     0
281
     0
  0
CLASS
  1
LAYOUT
  2
AcDbLayout
  3
AutoCAD 2000
 90
        0
280
     0
281
     0
  0
CLASS
  1
DICTIONARYVAR
  2
AcDbDictionaryVar
  3
AutoCAD 2000
 90
        0
280
     0
281
     0
  0
CLASS
  1
LONG_TRANSACTION
  2
AcDbLongTransaction
  3
AutoCAD 2000
 90
        0
280
     0
281
     0
  0
CLASS
  1
LWPOLYLINE
  2
AcDbPolyline
  3
AutoCAD 2000
 90
        0
280
     0
281
     1
  0
CLASS
  1
HATCH
  2
AcDbHatch
  3
AutoCAD 2000
 90
        0
280
     0
281
     1
  0
CLASS
  1
XRECORD
  2
AcDbXrecord
  3
AutoCAD 2000
 90
        0
280
     0
281
     0
  0
ENDSEC
  0
SECTION
  2
TABLES
  0
TABLE
  2
VPORT
  5
12
330
0
100
AcDbSymbolTable
 70
     2
  0
VPORT
  5
394
330
12
100
AcDbSymbolTableRecord
100
AcDbViewportTableRecord
  2
*ACTIVE
 70
     0
 10
0.0
 20
0.0
 11
1.0
 21
1.0
 12
6.503035935956863
 22
6.100373410653984
 13
0.0
 23
0.0
 14
0.01
 24
0.01
 15
0.0
 25
0.0
 16
0.0
 26
0.0
 36
1.0
 17
0.0
 27
0.0
 37
0.0
 40
2.164480906781282
 41
4.320930232558139
 42
50.0
 43
0.0
 44
0.0
 50
0.0
 51
0.0
 71
     0
 72
  2000
 73
     1
 74
     1
 75
     0
 76
     0
 77
     0
 78
     0
  0
ENDTAB
  0
TABLE
  2
LTYPE
  5
E
330
0
100
AcDbSymbolTable
 70
     1
  0
LTYPE
  5
F
330
E
100
AcDbSymbolTableRecord
100
AcDbLinetypeTableRecord
  2
BYBLOCK
 70
     0
  3

 72
    65
 73
     0
 40
0.0
  0
LTYPE
  5
9
330
E
100
AcDbSymbolTableRecord
100
AcDbLinetypeTableRecord
  2
BYLAYER
 70
     0
  3

 72
    65
 73
     0
 40
0.0
  0
LTYPE
  5
A
330
E
100
AcDbSymbolTableRecord
100
AcDbLinetypeTableRecord
  2
CONTINUOUS
 70
     0
  3
Solid line
 72
    65
 73
     0
 40
0.0
  0
ENDTAB
  0
TABLE
  2
LAYER
  5
B
330
0
100
AcDbSymbolTable
 70
     2
  0
LAYER
  5
8
330
B
100
AcDbSymbolTableRecord
100
AcDbLayerTableRecord
  2
0
 70
     0
 62
     7
  6
CONTINUOUS
  0
LAYER
  5
1B
330
B
100
AcDbSymbolTableRecord
100
AcDbLayerTableRecord
  2
TEXT
 70
     0
 62
     3
  6
CONTINUOUS
  0
ENDTAB
  0
TABLE
  2
STYLE
  5
C
330
0
100
AcDbSymbolTable
 70
     3
  0
STYLE
  5
D
330
C
100
AcDbSymbolTableRecord
100
AcDbTextStyleTableRecord
  2
STANDARD
 70
     0
 40
0.0
 41
1.0
 50
0.0
 71
     0
 42
0.125
  3
txt
  4

  0
STYLE
  5
1D
330
C
100
AcDbSymbolTableRecord
100
AcDbTextStyleTableRecord
  2
ROMANS
 70
     0
 40
0.0
 41
1.0
 50
0.0
 71
     0
 42
0.125
  3
romans.shx
  4

  0
STYLE
  5
282
330
C
100
AcDbSymbolTableRecord
100
AcDbTextStyleTableRecord
  2
ITALICC
 70
     0
 40
0.0
 41
1.0
 50
0.0
 71
     0
 42
0.125
  3
italicc
  4

  0
ENDTAB
  0
TABLE
  2
VIEW
  5
10
330
0
100
AcDbSymbolTable
 70
     0
  0
ENDTAB
  0
TABLE
  2
UCS
  5
11
330
0
100
AcDbSymbolTable
 70
     0
  0
ENDTAB
  0
TABLE
  2
APPID
  5
14
330
0
100
AcDbSymbolTable
 70
     1
  0
APPID
  5
15
330
14
100
AcDbSymbolTableRecord
100
AcDbRegAppTableRecord
  2
ACAD
 70
     0
  0
ENDTAB
  0
TABLE
  2
DIMSTYLE
  5
16
330
0
100
AcDbSymbolTable
 70
     1
  0
DIMSTYLE
105
1C
330
16
100
AcDbSymbolTableRecord
100
AcDbDimStyleTableRecord
  2
STANDARD
 70
     0
  3

  4

  5

  6

  7

 40
1.0
 41
0.125
 42
0.125
 43
0.375
 44
0.125
 45
0.0
 46
0.0
 47
0.015
 48
0.015
140
0.125
141
-0.125
142
0.0
143
25.4
144
1.0
145
0.0
146
1.0
147
0.09
 71
     1
 72
     0
 73
     1
 74
     1
 75
     0
 76
     0
 77
     0
 78
     4
170
     0
171
     2
172
     0
173
     0
174
     1
175
     0
176
   256
177
   256
178
   256
270
     2
271
     3
272
     3
273
     2
274
     2
340
1D
275
     0
280
     0
281
     0
282
     0
283
     1
284
     4
285
     0
286
     0
287
     3
288
     0
  0
ENDTAB
  0
TABLE
  2
BLOCK_RECORD
  5
1
330
0
100
AcDbSymbolTable
 70
     0
  0
BLOCK_RECORD
  5
2
102
{ACAD_XDICTIONARY
360
3B5
102
}
330
1
100
AcDbSymbolTableRecord
100
AcDbBlockTableRecord
  2
*MODEL_SPACE
  0
BLOCK_RECORD
  5
3
102
{ACAD_XDICTIONARY
360
3B7
102
}
330
1
100
AcDbSymbolTableRecord
100
AcDbBlockTableRecord
  2
*PAPER_SPACE
  0
ENDTAB
  0
ENDSEC
  0
SECTION
  2
BLOCKS
  0
BLOCK
  5
4
330
2
100
AcDbEntity
  8
0
100
AcDbBlockBegin
  2
*MODEL_SPACE
 70
     0
 10
0.0
 20
0.0
 30
0.0
  3
*MODEL_SPACE
  1

  0
ENDBLK
  5
5
330
2
100
AcDbEntity
  8
0
100
AcDbBlockEnd
  0
BLOCK
  5
6
330
3
100
AcDbEntity
 67
     1
  8
0
100
AcDbBlockBegin
  2
*PAPER_SPACE
 70
     0
 10
0.0
 20
0.0
 30
0.0
  3
*PAPER_SPACE
  1

  0
ENDBLK
  5
7
330
3
100
AcDbEntity
 67
     1
  8
0
100
AcDbBlockEnd
  0
ENDSEC
  0
SECTION
  2
ENTITIES
  0
LWPOLYLINE
  5
1EA
330
2
100
AcDbEntity
  8
0
100
AcDbPolyline
 90
       15
 70
     1
 43
0.0
 10
3.059543747811751
 20
7.104708500591087
 10
2.934543747811751
 20
7.104708500591087
 10
2.934543747811751
 20
5.979708500591087
 10
2.809543747811758
 20
5.979708500591087
 10
2.809543747811751
 20
5.854708500591088
 10
4.559543747811751
 20
5.854708500591087
 10
4.559543747811758
 20
5.979708500591087
 10
4.434543747811758
 20
5.979708500591002
 10
4.434543747811758
 20
7.104708500591002
 10
4.309543747811758
 20
7.104708500591002
 10
4.309543747811758
 20
5.979708500591002
 10
3.694543747811756
 20
5.979708500591087
 10
3.684543747811751
 20
5.969708500591087
 10
3.674543747811753
 20
5.979708500591087
 10
3.059543747811751
 20
5.979708500591087
  0
TEXT
  5
307
330
2
100
AcDbEntity
  8
TEXT
100
AcDbText
 10
2.82727537462053
 20
5.554121270572583
 30
0.0
 40
0.125
  1
PART #110569
  7
ITALICC
 72
     1
 11
3.580251565096721
 21
5.554121270572583
 31
0.0
100
AcDbText
  0
LINE
  5
308
330
2
100
AcDbEntity
  8
TEXT
100
AcDbLine
 10
3.547985064048783
 20
5.309767584552749
 30
0.0
 11
3.624633045341341
 21
5.309767584552749
 31
0.0
  0
LINE
  5
309
330
2
100
AcDbEntity
  8
TEXT
100
AcDbLine
 10
3.620153158014841
 20
5.374044279209514
 30
0.0
 11
3.552653440365324
 21
5.374044279209514
 31
0.0
  0
LWPOLYLINE
  5
30A
330
2
100
AcDbEntity
  8
TEXT
100
AcDbPolyline
 90
        5
 70
     0
 43
0.0001332181640625
 10
1.910873021514108
 20
5.250817477451701
 10
1.924194837920357
 20
5.250817477451701
 10
1.924194837920357
 20
5.287452472568891
 10
1.960829833037547
 20
5.287452472568891
 10
1.960829833037547
 20
5.300774288975138
  0
LWPOLYLINE
  5
30B
330
2
100
AcDbEntity
  8
TEXT
100
AcDbPolyline
 90
        3
 70
     0
 43
0.0006660908203125
 10
1.950838470732856
 20
5.347400646397017
 10
1.864246664092231
 20
5.347400646397017
 10
1.864246664092231
 20
5.26080883975639
  0
LWPOLYLINE
  5
30C
330
2
100
AcDbEntity
  8
TEXT
100
AcDbPolyline
 90
        3
 70
     0
 43
0.0006660908203125
 10
1.950838470732856
 20
5.374044279209518
 10
1.837603031279734
 20
5.374044279209518
 10
1.837603031279734
 20
5.26080883975639
  0
LWPOLYLINE
  5
30D
330
2
100
AcDbEntity
  8
TEXT
100
AcDbPolyline
 90
        5
 70
     0
 43
0.0001332181640625
 10
1.960829833037547
 20
5.180877941318891
 10
1.960829833037547
 20
5.194199757725141
 10
1.924194837920359
 20
5.194199757725141
 10
1.924194837920359
 20
5.230834752842327
 10
1.910873021514108
 20
5.230834752842327
  0
LWPOLYLINE
  5
30E
330
2
100
AcDbEntity
  8
TEXT
100
AcDbPolyline
 90
        3
 70
     0
 43
0.0006660908203125
 10
1.864246664092231
 20
5.220843390537642
 10
1.864246664092231
 20
5.134251583897015
 10
1.950838470732856
 20
5.134251583897015
  0
LWPOLYLINE
  5
30F
330
2
100
AcDbEntity
  8
TEXT
100
AcDbPolyline
 90
        3
 70
     0
 43
0.0006660908203125
 10
1.837603031279734
 20
5.220843390537642
 10
1.837603031279734
 20
5.107607951084514
 10
1.950838470732856
 20
5.107607951084514
  0
LWPOLYLINE
  5
310
330
2
100
AcDbEntity
  8
TEXT
100
AcDbPolyline
 90
        2
 70
     0
 43
0.0001332181640625
 10
1.864246664092231
 20
5.220843390537642
 10
1.924194837920359
 20
5.230834752842327
  0
LWPOLYLINE
  5
311
330
2
100
AcDbEntity
  8
TEXT
100
AcDbPolyline
 90
        2
 70
     0
 43
0.0001332181640625
 10
1.910873021514108
 20
5.230834752842327
 10
1.837603031279734
 20
5.220843390537642
  0
LWPOLYLINE
  5
312
330
2
100
AcDbEntity
  8
TEXT
100
AcDbPolyline
 90
        2
 70
     0
 43
0.0006660908203125
 10
1.864246664092231
 20
5.220843390537642
 10
1.837603031279734
 20
5.220843390537642
  0
LWPOLYLINE
  5
313
330
2
100
AcDbEntity
  8
TEXT
100
AcDbPolyline
 90
        2
 70
     0
 43
0.0001332181640625
 10
1.864246664092231
 20
5.134251583897015
 10
1.924194837920359
 20
5.194199757725141
  0
LWPOLYLINE
  5
314
330
2
100
AcDbEntity
  8
TEXT
100
AcDbPolyline
 90
        2
 70
     0
 43
0.0006660908203125
 10
1.864246664092231
 20
5.26080883975639
 10
1.837603031279734
 20
5.26080883975639
  0
LWPOLYLINE
  5
315
330
2
100
AcDbEntity
  8
TEXT
100
AcDbPolyline
 90
        2
 70
     0
 43
0.0001332181640625
 10
1.837603031279734
 20
5.26080883975639
 10
1.910873021514108
 20
5.250817477451701
  0
LWPOLYLINE
  5
316
330
2
100
AcDbEntity
  8
TEXT
100
AcDbPolyline
 90
        2
 70
     0
 43
0.0001332181640625
 10
1.864246664092231
 20
5.26080883975639
 10
1.924194837920357
 20
5.250817477451701
  0
LWPOLYLINE
  5
317
330
2
100
AcDbEntity
  8
TEXT
100
AcDbPolyline
 90
        2
 70
     0
 43
0.0001332181640625
 10
1.864246664092231
 20
5.347400646397017
 10
1.924194837920357
 20
5.287452472568891
  0
LWPOLYLINE
  5
318
330
2
100
AcDbEntity
  8
TEXT
100
AcDbPolyline
 90
        5
 70
     0
 43
0.0001332181640625
 10
2.030769369170358
 20
5.230834752842327
 10
2.017447552764109
 20
5.230834752842327
 10
2.017447552764109
 20
5.194199757725141
 10
1.980812557646919
 20
5.194199757725141
 10
1.980812557646919
 20
5.180877941318891
  0
LWPOLYLINE
  5
319
330
2
100
AcDbEntity
  8
TEXT
100
AcDbPolyline
 90
        2
 70
     0
 43
0.0001332181640625
 10
2.077395726592233
 20
5.220843390537642
 10
2.017447552764109
 20
5.230834752842327
  0
LWPOLYLINE
  5
31A
330
2
100
AcDbEntity
  8
TEXT
100
AcDbPolyline
 90
        2
 70
     0
 43
0.0001332181640625
 10
2.104039359404734
 20
5.220843390537642
 10
2.030769369170358
 20
5.230834752842327
  0
LWPOLYLINE
  5
31B
330
2
100
AcDbEntity
  8
TEXT
100
AcDbPolyline
 90
        3
 70
     0
 43
0.0006660908203125
 10
1.990803919951608
 20
5.107607951084514
 10
2.104039359404734
 20
5.107607951084514
 10
2.104039359404734
 20
5.220843390537642
  0
LWPOLYLINE
  5
31C
330
2
100
AcDbEntity
  8
TEXT
100
AcDbPolyline
 90
        3
 70
     0
 43
0.0006660908203125
 10
1.990803919951608
 20
5.134251583897015
 10
2.077395726592233
 20
5.134251583897015
 10
2.077395726592233
 20
5.220843390537642
  0
LWPOLYLINE
  5
31D
330
2
100
AcDbEntity
  8
TEXT
100
AcDbPolyline
 90
        2
 70
     0
 43
0.0001332181640625
 10
2.077395726592233
 20
5.134251583897015
 10
2.017447552764109
 20
5.194199757725141
  0
LWPOLYLINE
  5
31E
330
2
100
AcDbEntity
  8
TEXT
100
AcDbPolyline
 90
        2
 70
     0
 43
0.0006660908203125
 10
1.990803919951608
 20
5.134251583897015
 10
1.990803919951608
 20
5.107607951084514
  0
LWPOLYLINE
  5
31F
330
2
100
AcDbEntity
  8
TEXT
100
AcDbPolyline
 90
        2
 70
     0
 43
0.0001332181640625
 10
1.980812557646919
 20
5.180877941318891
 10
1.990803919951608
 20
5.107607951084514
  0
LWPOLYLINE
  5
320
330
2
100
AcDbEntity
  8
TEXT
100
AcDbPolyline
 90
        2
 70
     0
 43
0.0001332181640625
 10
1.990803919951608
 20
5.134251583897015
 10
1.980812557646919
 20
5.194199757725141
  0
LWPOLYLINE
  5
321
330
2
100
AcDbEntity
  8
TEXT
100
AcDbPolyline
 90
        2
 70
     0
 43
0.0001332181640625
 10
1.950838470732856
 20
5.107607951084514
 10
1.960829833037547
 20
5.180877941318891
  0
LWPOLYLINE
  5
322
330
2
100
AcDbEntity
  8
TEXT
100
AcDbPolyline
 90
        2
 70
     0
 43
0.0001332181640625
 10
1.950838470732856
 20
5.134251583897015
 10
1.960829833037547
 20
5.194199757725141
  0
LWPOLYLINE
  5
323
330
2
100
AcDbEntity
  8
TEXT
100
AcDbPolyline
 90
        2
 70
     0
 43
0.0006660908203125
 10
1.950838470732856
 20
5.134251583897015
 10
1.950838470732856
 20
5.107607951084514
  0
LWPOLYLINE
  5
324
330
2
100
AcDbEntity
  8
TEXT
100
AcDbPolyline
 90
        2
 70
     0
 43
0.0006660908203125
 10
2.077395726592233
 20
5.220843390537642
 10
2.104039359404734
 20
5.220843390537642
  0
LWPOLYLINE
  5
325
330
2
100
AcDbEntity
  8
TEXT
100
AcDbPolyline
 90
        2
 70
     0
 43
0.0001332181640625
 10
2.077395726592233
 20
5.347400646397017
 10
2.017447552764109
 20
5.287452472568891
  0
LWPOLYLINE
  5
326
330
2
100
AcDbEntity
  8
TEXT
100
AcDbPolyline
 90
        2
 70
     0
 43
0.0001332181640625
 10
2.077395726592233
 20
5.26080883975639
 10
2.017447552764109
 20
5.250817477451701
  0
LWPOLYLINE
  5
327
330
2
100
AcDbEntity
  8
TEXT
100
AcDbPolyline
 90
        2
 70
     0
 43
0.0001332181640625
 10
2.030769369170358
 20
5.250817477451701
 10
2.104039359404734
 20
5.26080883975639
  0
LWPOLYLINE
  5
328
330
2
100
AcDbEntity
  8
TEXT
100
AcDbPolyline
 90
        3
 70
     0
 43
0.0006660908203125
 10
2.077395726592233
 20
5.26080883975639
 10
2.077395726592233
 20
5.347400646397017
 10
1.990803919951608
 20
5.347400646397017
  0
LWPOLYLINE
  5
329
330
2
100
AcDbEntity
  8
TEXT
100
AcDbPolyline
 90
        3
 70
     0
 43
0.0006660908203125
 10
2.104039359404734
 20
5.26080883975639
 10
2.104039359404734
 20
5.374044279209518
 10
1.990803919951608
 20
5.374044279209518
  0
LWPOLYLINE
  5
32A
330
2
100
AcDbEntity
  8
TEXT
100
AcDbPolyline
 90
        2
 70
     0
 43
0.0001332181640625
 10
1.990803919951608
 20
5.374044279209518
 10
1.980812557646919
 20
5.300774288975138
  0
LWPOLYLINE
  5
32B
330
2
100
AcDbEntity
  8
TEXT
100
AcDbPolyline
 90
        2
 70
     0
 43
0.0001332181640625
 10
1.990803919951608
 20
5.347400646397017
 10
1.980812557646919
 20
5.287452472568891
  0
LWPOLYLINE
  5
32C
330
2
100
AcDbEntity
  8
TEXT
100
AcDbPolyline
 90
        2
 70
     0
 43
0.0006660908203125
 10
1.990803919951608
 20
5.347400646397017
 10
1.990803919951608
 20
5.374044279209518
  0
LWPOLYLINE
  5
32D
330
2
100
AcDbEntity
  8
TEXT
100
AcDbPolyline
 90
        5
 70
     0
 43
0.0001332181640625
 10
1.980812557646919
 20
5.300774288975138
 10
1.980812557646919
 20
5.287452472568891
 10
2.017447552764109
 20
5.287452472568891
 10
2.017447552764109
 20
5.250817477451701
 10
2.030769369170358
 20
5.250817477451701
  0
LWPOLYLINE
  5
32E
330
2
100
AcDbEntity
  8
TEXT
100
AcDbPolyline
 90
        2
 70
     0
 43
0.0001332181640625
 10
1.950838470732856
 20
5.347400646397017
 10
1.960829833037547
 20
5.287452472568891
  0
LWPOLYLINE
  5
32F
330
2
100
AcDbEntity
  8
TEXT
100
AcDbPolyline
 90
        2
 70
     0
 43
0.0001332181640625
 10
1.960829833037547
 20
5.300774288975138
 10
1.950838470732856
 20
5.374044279209518
  0
LWPOLYLINE
  5
330
330
2
100
AcDbEntity
  8
TEXT
100
AcDbPolyline
 90
        2
 70
     0
 43
0.0006660908203125
 10
1.950838470732856
 20
5.347400646397017
 10
1.950838470732856
 20
5.374044279209518
  0
LWPOLYLINE
  5
331
330
2
100
AcDbEntity
  8
TEXT
100
AcDbPolyline
 90
        2
 70
     0
 43
0.0006660908203125
 10
2.077395726592233
 20
5.26080883975639
 10
2.104039359404734
 20
5.26080883975639
  0
LWPOLYLINE
  5
332
330
2
100
AcDbEntity
  8
TEXT
100
AcDbPolyline
 90
        2
 70
     0
 43
0.0
 10
2.822819280153364
 20
5.159122588435931
 42
0.3318488747599744
 10
2.891938572718677
 20
5.107571246221003
 42
-6.868794160588311
  0
LINE
  5
333
330
2
100
AcDbEntity
  8
TEXT
100
AcDbLine
 10
2.890798999222481
 20
5.442055756948325
 30
0.0
 11
2.823990286656116
 21
5.442055756948325
 31
0.0
  0
LINE
  5
334
330
2
100
AcDbEntity
  8
TEXT
100
AcDbLine
 10
2.544647919037022
 20
5.374044279209514
 30
0.0
 11
2.368916166138511
 21
5.374044279209514
 31
0.0
  0
ARC
  5
335
330
2
100
AcDbEntity
  8
TEXT
100
AcDbCircle
 10
2.439753632497061
 20
5.19076705458156
 30
0.0
 40
0.0831958083605586
100
AcDbArc
 50
270.0
 51
90.0
  0
LINE
  5
336
330
2
100
AcDbEntity
  8
TEXT
100
AcDbLine
 10
2.374153496252759
 20
5.309767584552749
 30
0.0
 11
2.541059150281729
 21
5.309767584552749
 31
0.0
  0
LINE
  5
337
330
2
100
AcDbEntity
  8
TEXT
100
AcDbLine
 10
2.44469400640334
 20
5.175928252554442
 30
0.0
 11
2.286828706692006
 21
5.175928252554442
 31
0.0
  0
LINE
  5
338
330
2
100
AcDbEntity
  8
TEXT
100
AcDbLine
 10
2.286828706692007
 20
5.107571246221003
 30
0.0
 11
2.43975363249706
 21
5.107571246221003
 31
0.0
  0
ARC
  5
339
330
2
100
AcDbEntity
  8
TEXT
100
AcDbCircle
 10
2.368916166138511
 20
5.291956819763012
 30
0.0
 40
0.0820874594465043
100
AcDbArc
 50
90.0
 51
270.0
  0
LINE
  5
33A
330
2
100
AcDbEntity
  8
TEXT
100
AcDbLine
 10
2.286828706692006
 20
5.175928252554442
 30
0.0
 11
2.286828706692007
 21
5.107571246221003
 31
0.0
  0
LINE
  5
33B
330
2
100
AcDbEntity
  8
TEXT
100
AcDbLine
 10
2.368916166138511
 20
5.209869360316507
 30
0.0
 11
2.44469400640334
 21
5.209869360316507
 31
0.0
  0
ARC
  5
33C
330
2
100
AcDbEntity
  8
TEXT
100
AcDbCircle
 10
2.44469400640334
 20
5.192898806435477
 30
0.0
 40
0.0169705538810321
100
AcDbArc
 50
270.0
 51
90.0
  0
LINE
  5
33D
330
2
100
AcDbEntity
  8
TEXT
100
AcDbLine
 10
2.43975363249706
 20
5.273962862942121
 30
0.0
 11
2.374153496252759
 21
5.273962862942121
 31
0.0
  0
ARC
  5
33E
330
2
100
AcDbEntity
  8
TEXT
100
AcDbCircle
 10
2.374153496252759
 20
5.291865223747437
 30
0.0
 40
0.017902360805315
100
AcDbArc
 50
90.0
 51
270.0
  0
LINE
  5
33F
330
2
100
AcDbEntity
  8
TEXT
100
AcDbLine
 10
2.735119811056875
 20
5.273172283096394
 30
0.0
 11
2.676489490024937
 21
5.374044279209514
 31
0.0
  0
LINE
  5
340
330
2
100
AcDbEntity
  8
TEXT
100
AcDbLine
 10
2.594945757761835
 20
5.107571246221003
 30
0.0
 11
2.691586008836829
 21
5.107841885319285
 31
0.0
  0
LWPOLYLINE
  5
341
330
2
100
AcDbEntity
  8
TEXT
100
AcDbPolyline
 90
        6
 70
     1
 43
0.0
 10
2.637469561336985
 20
5.309767584552749
 10
2.607152967116777
 20
5.309767584552749
 10
2.607152967116777
 20
5.186656586497854
 42
0.407328721240804
 10
2.618696618278253
 20
5.174837671821468
 10
2.679318317322984
 20
5.174837671821468
 10
2.696783657730302
 20
5.207649900864947
  0
LINE
  5
342
330
2
100
AcDbEntity
  8
TEXT
100
AcDbLine
 10
2.541059150281729
 20
5.309767584552749
 30
0.0
 11
2.541059150281729
 21
5.167363637559053
 31
0.0
  0
ARC
  5
343
330
2
100
AcDbEntity
  8
TEXT
100
AcDbCircle
 10
2.601175168255482
 20
5.167363637559053
 30
0.0
 40
0.0601160179737537
100
AcDbArc
 50
180.0000000000003
 51
264.0521544866073
  0
LINE
  5
344
330
2
100
AcDbEntity
  8
TEXT
100
AcDbLine
 10
2.604690523881029
 20
5.408432196803652
 30
0.0
 11
2.544647919037022
 21
5.408432196803652
 31
0.0
  0
LINE
  5
345
330
2
100
AcDbEntity
  8
TEXT
100
AcDbLine
 10
2.544647919037022
 20
5.408432196803652
 30
0.0
 11
2.544647919037022
 21
5.374044279209514
 31
0.0
  0
LINE
  5
346
330
2
100
AcDbEntity
  8
TEXT
100
AcDbLine
 10
2.604690523881029
 20
5.374044279209514
 30
0.0
 11
2.604690523881029
 21
5.408432196803652
 31
0.0
  0
LINE
  5
347
330
2
100
AcDbEntity
  8
TEXT
100
AcDbLine
 10
2.676489490024937
 20
5.374044279209514
 30
0.0
 11
2.604690523881029
 21
5.374044279209514
 31
0.0
  0
LINE
  5
348
330
2
100
AcDbEntity
  8
TEXT
100
AcDbLine
 10
2.72551957405992
 20
5.127529752326016
 30
0.0
 11
2.822819280153365
 21
5.291879963261284
 31
0.0
  0
LINE
  5
349
330
2
100
AcDbEntity
  8
TEXT
100
AcDbLine
 10
2.822819280153365
 20
5.291879963261284
 30
0.0
 11
2.822819280153365
 21
5.159122588435928
 31
0.0
  0
ARC
  5
34A
330
2
100
AcDbEntity
  8
TEXT
100
AcDbCircle
 10
2.691476014147707
 20
5.147118968494699
 30
0.0
 40
0.0392772371940762
100
AcDbArc
 50
270.1604552698595
 51
330.0831797321295
  0
LINE
  5
34B
330
2
100
AcDbEntity
  8
TEXT
100
AcDbLine
 10
2.79386837386274
 20
5.374044279209514
 30
0.0
 11
2.735119811056875
 21
5.273172283096394
 31
0.0
  0
LINE
  5
34C
330
2
100
AcDbEntity
  8
TEXT
100
AcDbLine
 10
2.823990286656116
 20
5.442055756948325
 30
0.0
 11
2.823990286656116
 21
5.374044279209514
 31
0.0
  0
LINE
  5
34D
330
2
100
AcDbEntity
  8
TEXT
100
AcDbLine
 10
2.823990286656116
 20
5.374044279209514
 30
0.0
 11
2.79386837386274
 21
5.374044279209514
 31
0.0
  0
LWPOLYLINE
  5
34E
330
2
100
AcDbEntity
  8
TEXT
100
AcDbPolyline
 90
        4
 70
     0
 43
0.0
 10
3.176076408276275
 20
5.302213795386639
 10
3.176076408276275
 20
5.107571246221003
 10
3.244554691564133
 20
5.107571246221003
 10
3.244554691564133
 20
5.151062191171441
 42
-1.714843617202739
  0
LWPOLYLINE
  5
34F
330
2
100
AcDbEntity
  8
TEXT
100
AcDbPolyline
 90
        2
 70
     0
 43
0.0
 10
3.211210758820485
 20
5.374044279209518
 42
-0.3277054968067132
 10
3.246992449533649
 20
5.345721733439874
 42
6.667889725900311
  0
LWPOLYLINE
  5
350
330
2
100
AcDbEntity
  8
TEXT
100
AcDbPolyline
 90
        2
 70
     0
 43
0.0
 10
3.039777186241257
 20
5.309767584552749
 42
-0.4142135623731017
 10
3.047330975407371
 20
5.302213795386639
 42
-0.9999999999999998
  0
LINE
  5
351
330
2
100
AcDbEntity
  8
TEXT
100
AcDbLine
 10
3.057128909291278
 20
5.374044279209514
 30
0.0
 11
2.923110853360141
 21
5.374044279209514
 31
0.0
  0
LINE
  5
352
330
2
100
AcDbEntity
  8
TEXT
100
AcDbLine
 10
2.989941906418111
 20
5.107571246221003
 30
0.0
 11
2.989941906418111
 21
5.309767584552749
 31
0.0
  0
LINE
  5
353
330
2
100
AcDbEntity
  8
TEXT
100
AcDbLine
 10
2.923110853360141
 20
5.374044279209514
 30
0.0
 11
2.923110853360141
 21
5.173180072477106
 31
0.0
  0
LINE
  5
354
330
2
100
AcDbEntity
  8
TEXT
100
AcDbLine
 10
2.890798999222481
 20
5.189959084324002
 30
0.0
 11
2.890798999222481
 21
5.442055756948325
 31
0.0
  0
LINE
  5
355
330
2
100
AcDbEntity
  8
TEXT
100
AcDbLine
 10
2.891938572718676
 20
5.107571246221003
 30
0.0
 11
2.989941906418111
 21
5.107571246221003
 31
0.0
  0
LINE
  5
356
330
2
100
AcDbEntity
  8
TEXT
100
AcDbLine
 10
2.923110853360141
 20
5.173180072477106
 30
0.0
 11
2.90611721647554
 21
5.173180072477106
 31
0.0
  0
ARC
  5
357
330
2
100
AcDbEntity
  8
TEXT
100
AcDbCircle
 10
2.906117216475539
 20
5.188561878720531
 30
0.0
 40
0.0153818062434269
100
AcDbArc
 50
174.7883570302258
 51
270.0
  0
LINE
  5
358
330
2
100
AcDbEntity
  8
TEXT
100
AcDbLine
 10
2.989941906418111
 20
5.309767584552749
 30
0.0
 11
3.039777186241258
 21
5.309767584552749
 31
0.0
  0
LINE
  5
359
330
2
100
AcDbEntity
  8
TEXT
100
AcDbLine
 10
3.047330975407372
 20
5.302213795386639
 30
0.0
 11
3.047330975407372
 21
5.107571246221003
 31
0.0
  0
LINE
  5
35A
330
2
100
AcDbEntity
  8
TEXT
100
AcDbLine
 10
3.114389022189212
 20
5.107571246221003
 30
0.0
 11
3.114389022189212
 21
5.309767584552749
 31
0.0
  0
LINE
  5
35B
330
2
100
AcDbEntity
  8
TEXT
100
AcDbLine
 10
3.047330975407372
 20
5.107571246221003
 30
0.0
 11
3.114389022189212
 21
5.107571246221003
 31
0.0
  0
LWPOLYLINE
  5
35C
330
2
100
AcDbEntity
  8
TEXT
100
AcDbPolyline
 90
        3
 70
     0
 43
0.0
 10
3.211210758820485
 20
5.374044279209518
 10
3.09291060000444
 20
5.374044279209518
 10
3.09291060000444
 20
5.346876782448622
 42
-1.960274751411753
  0
LINE
  5
35D
330
2
100
AcDbEntity
  8
TEXT
100
AcDbLine
 10
3.114389022189212
 20
5.309767584552749
 30
0.0
 11
3.168522619110162
 21
5.309767584552749
 31
0.0
  0
LWPOLYLINE
  5
35E
330
2
100
AcDbEntity
  8
TEXT
100
AcDbPolyline
 90
        2
 70
     0
 43
0.0
 10
3.057128909291279
 20
5.374044279209518
 42
-0.3328679258950098
 10
3.09291060000444
 20
5.346876782448622
 42
6.772930709997214
  0
LWPOLYLINE
  5
35F
330
2
100
AcDbEntity
  8
TEXT
100
AcDbPolyline
 90
        2
 70
     0
 43
0.0
 10
3.168522619110161
 20
5.309767584552749
 42
-0.4142135623731017
 10
3.176076408276275
 20
5.302213795386639
 42
-0.9999999999999998
  0
ARC
  5
360
330
2
100
AcDbEntity
  8
TEXT
100
AcDbCircle
 10
3.379797418973641
 20
5.332460712088612
 30
0.0
 40
0.0416329381542859
100
AcDbArc
 50
26.56974201007528
 51
87.20939649401342
  0
LWPOLYLINE
  5
361
330
2
100
AcDbEntity
  8
TEXT
100
AcDbPolyline
 90
        2
 70
     0
 43
0.0
 10
3.287630624431768
 20
5.107571246221003
 10
3.421648042063145
 20
5.107571246221003
 42
0.9999999999999998
  0
LWPOLYLINE
  5
362
330
2
100
AcDbEntity
  8
TEXT
100
AcDbPolyline
 90
        4
 70
     1
 43
0.0
 10
3.401525576993252
 20
5.210535224205028
 10
3.312865258333394
 20
5.210535224205028
 42
0.9999999999999998
 10
3.312865258333394
 20
5.168136683701168
 10
3.401525576993252
 20
5.168136683701168
 42
1.0
  0
LWPOLYLINE
  5
363
330
2
100
AcDbEntity
  8
TEXT
100
AcDbPolyline
 90
        2
 70
     0
 43
0.0
 10
3.244554691564133
 20
5.151062191171441
 42
0.2901071551932823
 10
3.287630624431768
 20
5.107571246221003
 42
5.328517124445801
  0
LINE
  5
364
330
2
100
AcDbEntity
  8
TEXT
100
AcDbLine
 10
3.381824358750709
 20
5.374044279209514
 30
0.0
 11
3.24699244953365
 21
5.374044279209514
 31
0.0
  0
LINE
  5
365
330
2
100
AcDbEntity
  8
TEXT
100
AcDbLine
 10
3.306306545926969
 20
5.272492611090616
 30
0.0
 11
3.388594535710352
 21
5.272492611090616
 31
0.0
  0
LINE
  5
366
330
2
100
AcDbEntity
  8
TEXT
100
AcDbLine
 10
3.352793460406231
 20
5.309767584552749
 30
0.0
 11
3.245587187018942
 21
5.309767584552749
 31
0.0
  0
LINE
  5
367
330
2
100
AcDbEntity
  8
TEXT
100
AcDbLine
 10
3.24699244953365
 20
5.374044279209514
 30
0.0
 11
3.24699244953365
 21
5.34572173343987
 31
0.0
  0
ARC
  5
368
330
2
100
AcDbEntity
  8
TEXT
100
AcDbCircle
 10
3.306306545926968
 20
5.204807029946498
 30
0.0
 40
0.0676855811441166
100
AcDbArc
 50
90.0
 51
153.7768192527749
  0
LINE
  5
369
330
2
100
AcDbEntity
  8
TEXT
100
AcDbLine
 10
3.245587187018942
 20
5.309767584552749
 30
0.0
 11
3.245587187018942
 21
5.234715178478542
 31
0.0
  0
LINE
  5
36A
330
2
100
AcDbEntity
  8
TEXT
100
AcDbLine
 10
3.388594535710352
 20
5.272492611090616
 30
0.0
 11
3.378329775296788
 21
5.293743150663311
 31
0.0
  0
ARC
  5
36B
330
2
100
AcDbEntity
  8
TEXT
100
AcDbCircle
 10
3.35279346040623
 20
5.281408209552751
 30
0.0
 40
0.028359375
100
AcDbArc
 50
25.78218179591245
 51
90.0
  0
LINE
  5
36C
330
2
100
AcDbEntity
  8
TEXT
100
AcDbLine
 10
3.523079188766124
 20
5.107571246221003
 30
0.0
 11
3.523079188766119
 21
5.284861751652472
 31
0.0
  0
LWPOLYLINE
  5
36D
330
2
100
AcDbEntity
  8
TEXT
100
AcDbPolyline
 90
        2
 70
     0
 43
0.0
 10
3.464723974930789
 20
5.107571246221003
 10
3.523079188766123
 20
5.107571246221003
  0
LWPOLYLINE
  5
36E
330
2
100
AcDbEntity
  8
TEXT
100
AcDbPolyline
 90
        2
 70
     0
 43
0.0
 10
3.464723974930789
 20
5.151062191171441
 42
-0.2901071551932486
 10
3.421648042063145
 20
5.107571246221003
 42
-5.328517124445184
  0
LWPOLYLINE
  5
36F
330
2
100
AcDbEntity
  8
TEXT
100
AcDbPolyline
 90
        2
 70
     0
 43
0.0
 10
3.464723974930789
 20
5.151062191171441
 10
3.464723974930789
 20
5.107571246221003
  0
LINE
  5
370
330
2
100
AcDbEntity
  8
TEXT
100
AcDbLine
 10
3.524681203925251
 20
5.374044279209514
 30
0.0
 11
3.460784297625751
 21
5.374044279209514
 31
0.0
  0
LINE
  5
371
330
2
100
AcDbEntity
  8
TEXT
100
AcDbLine
 10
3.460784297625751
 20
5.374044279209514
 30
0.0
 11
3.460784297625751
 21
5.268832300656087
 31
0.0
  0
LINE
  5
372
330
2
100
AcDbEntity
  8
TEXT
100
AcDbLine
 10
3.460784297625751
 20
5.268832300656087
 30
0.0
 11
3.417033526443849
 21
5.351082576652232
 31
0.0
  0
ARC
  5
373
330
2
100
AcDbEntity
  8
TEXT
100
AcDbCircle
 10
3.547985064048782
 20
5.284861709270086
 30
0.0
 40
0.0249058752826653
100
AcDbArc
 50
89.99971217465335
 51
179.9999999999985
  0
ARC
  5
374
330
2
100
AcDbEntity
  8
TEXT
100
AcDbCircle
 10
3.55587402098836
 20
5.342798551927249
 30
0.0
 40
0.0314112657011332
100
AcDbArc
 50
95.88484768694724
 51
173.2388340632136
  0
LINE
  5
375
330
2
100
AcDbEntity
  8
TEXT
100
AcDbLine
 10
3.524681203925251
 20
5.34649662934864
 30
0.0
 11
3.524681203925251
 21
5.374044279209514
 31
0.0
  0
TEXT
  5
376
330
2
100
AcDbEntity
  8
TEXT
100
AcDbText
 10
3.993556723347042
 20
5.200457054866499
 30
0.0
 40
0.0522247191011236
  1
Minneapolis, MN 55432-0008
 41
1.11444212721585
 72
     5
 11
5.322489307616706
 21
5.200457054866499
 31
0.0
100
AcDbText
  0
TEXT
  5
377
330
2
100
AcDbEntity
  8
TEXT
100
AcDbText
 10
3.993556723347042
 20
5.293715481832792
 30
0.0
 40
0.0522247191011236
  1
6536 Main St. N.E. * P.O. Box 32008
 41
0.8388932496075355
 72
     5
 11
5.322489307616706
 21
5.293715481832792
 31
0.0
100
AcDbText
  0
TEXT
  5
378
330
2
100
AcDbEntity
  8
TEXT
100
AcDbText
 10
3.993556723347042
 20
5.386973908799084
 30
0.0
 40
0.0522247191011236
  1
Stylmark  Incorporated
 41
1.221428571428571
 72
     5
 11
5.322489307616706
 21
5.386973908799084
 31
0.0
100
AcDbText
  0
TEXT
  5
379
330
2
100
AcDbEntity
  8
TEXT
100
AcDbText
 10
3.993556723347042
 20
5.107198627900207
 30
0.0
 40
0.0522247191011236
  1
Phone  1-800-328-2495
 41
1.272321428571429
 72
     5
 11
5.322489307616706
 21
5.107198627900207
 31
0.0
100
AcDbText
  0
LINE
  5
37A
330
2
100
AcDbEntity
  8
TEXT
100
AcDbLine
 10
3.746000911884027
 20
5.264151036268541
 30
0.0
 11
3.810558027849732
 21
5.374044279209514
 31
0.0
  0
LINE
  5
37B
330
2
100
AcDbEntity
  8
TEXT
100
AcDbLine
 10
3.810558027849732
 20
5.374044279209514
 30
0.0
 11
3.735566195120106
 21
5.374044279209514
 31
0.0
  0
LINE
  5
37C
330
2
100
AcDbEntity
  8
TEXT
100
AcDbLine
 10
3.764914762871431
 20
5.107571246221003
 30
0.0
 11
3.841493135247637
 21
5.107571246221003
 31
0.0
  0
LINE
  5
37D
330
2
100
AcDbEntity
  8
TEXT
100
AcDbLine
 10
3.841493135247637
 20
5.107571246221003
 30
0.0
 11
3.746000911884027
 21
5.264151036268541
 31
0.0
  0
LINE
  5
37E
330
2
100
AcDbEntity
  8
TEXT
100
AcDbLine
 10
3.689011229659967
 20
5.107571246221003
 30
0.0
 11
3.689011229659967
 21
5.239150814697183
 31
0.0
  0
LINE
  5
37F
330
2
100
AcDbEntity
  8
TEXT
100
AcDbLine
 10
3.689011229659967
 20
5.239150814697183
 30
0.0
 11
3.764914762871431
 21
5.107571246221003
 31
0.0
  0
LINE
  5
380
330
2
100
AcDbEntity
  8
TEXT
100
AcDbLine
 10
3.624633045341341
 20
5.309767584552749
 30
0.0
 11
3.624633045341346
 21
5.107571246221003
 31
0.0
  0
LINE
  5
381
330
2
100
AcDbEntity
  8
TEXT
100
AcDbLine
 10
3.624633045341346
 20
5.107571246221003
 30
0.0
 11
3.689011229659967
 21
5.107571246221003
 31
0.0
  0
LINE
  5
382
330
2
100
AcDbEntity
  8
TEXT
100
AcDbLine
 10
3.68846803656412
 20
5.439508484977115
 30
0.0
 11
3.620153158014846
 21
5.439508484977115
 31
0.0
  0
LINE
  5
383
330
2
100
AcDbEntity
  8
TEXT
100
AcDbLine
 10
3.620153158014846
 20
5.439508484977115
 30
0.0
 11
3.620153158014841
 21
5.374044279209514
 31
0.0
  0
LINE
  5
384
330
2
100
AcDbEntity
  8
TEXT
100
AcDbLine
 10
3.735566195120104
 20
5.374044279209514
 30
0.0
 11
3.68846803656412
 21
5.298178952797976
 31
0.0
  0
LINE
  5
385
330
2
100
AcDbEntity
  8
TEXT
100
AcDbLine
 10
3.68846803656412
 20
5.298178952797976
 30
0.0
 11
3.68846803656412
 21
5.439508484977115
 31
0.0
  0
ENDSEC
  0
SECTION
  2
OBJECTS
  0
DICTIONARY
  5
1A
330
0
100
AcDbDictionary
  3
ACAD_GROUP
350
18
  3
ACAD_LAYOUT
350
38A
  3
ACAD_MLINESTYLE
350
19
  3
ACAD_PLOTSETTINGS
350
38B
  3
ACAD_PLOTSTYLENAME
350
388
  3
ACDBHEADERROUNDTRIPXREC
350
395
  3
ACDBVARIABLEDICTIONARY
350
392
  0
DICTIONARY
  5
3B5
330
2
100
AcDbDictionary
280
     1
  3
ACAD_LAYOUTSELFREF
360
3B6
  0
DICTIONARY
  5
3B7
330
3
100
AcDbDictionary
280
     1
  3
ACAD_LAYOUTSELFREF
360
3B8
  0
DICTIONARY
  5
18
102
{ACAD_REACTORS
330
1A
102
}
330
1A
100
AcDbDictionary
  0
DICTIONARY
  5
38A
102
{ACAD_REACTORS
330
1A
102
}
330
1A
100
AcDbDictionary
  0
DICTIONARY
  5
19
102
{ACAD_REACTORS
330
1A
102
}
330
1A
100
AcDbDictionary
  3
STANDARD
350
1E
  0
DICTIONARY
  5
38B
102
{ACAD_REACTORS
330
1A
102
}
330
1A
100
AcDbDictionary
  0
ACDBDICTIONARYWDFLT
  5
388
102
{ACAD_REACTORS
330
1A
102
}
330
1A
100
AcDbDictionary
281
     1
  3
Normal
350
389
100
AcDbDictionaryWithDefault
340
389
  0
DICTIONARY
  5
395
102
{ACAD_REACTORS
330
1A
102
}
330
1A
100
AcDbDictionary
  3
CEPSNTYPE
350
39F
  3
FINGERPRINTGUID
350
3A0
  3
HYPERLINKBASE
350
398
  3
INSUNITS
350
39E
  3
LAYOUTDICT
350
39A
  3
LWETCUNION
350
39D
  3
PLOTSETDICT
350
39B
  3
PLOTSTYLNAMDICT
350
39C
  3
PSVPSCALE
350
3A2
  3
PUCSBASE
350
3A5
  3
PUCSORGBACK
350
3AB
  3
PUCSORGBOTTOM
350
3A7
  3
PUCSORGFRONT
350
3AA
  3
PUCSORGLEFT
350
3A8
  3
PUCSORGRIGHT
350
3A9
  3
PUCSORGTOP
350
3A6
  3
PUCSORTHOREF
350
3A3
  3
PUCSORTHOVIEW
350
3A4
  3
STYLESHEET
350
399
  3
TSTACKALIGN
350
396
  3
TSTACKSIZE
350
397
  3
UCSBASE
350
3AE
  3
UCSORGBACK
350
3B4
  3
UCSORGBOTTOM
350
3B0
  3
UCSORGFRONT
350
3B3
  3
UCSORGLEFT
350
3B1
  3
UCSORGRIGHT
350
3B2
  3
UCSORGTOP
350
3AF
  3
UCSORTHOREF
350
3AC
  3
UCSORTHOVIEW
350
3AD
  3
VERSIONGUID
350
3A1
  0
DICTIONARY
  5
392
102
{ACAD_REACTORS
330
1A
102
}
330
1A
100
AcDbDictionary
  3
DIMASSOC
350
393
  0
XRECORD
  5
3B6
102
{ACAD_REACTORS
330
3B5
102
}
330
3B5
100
AcDbXrecord
340
2
  0
XRECORD
  5
3B8
102
{ACAD_REACTORS
330
3B7
102
}
330
3B7
100
AcDbXrecord
340
3
  0
MLINESTYLE
  5
1E
102
{ACAD_REACTORS
330
19
102
}
330
19
100
AcDbMlineStyle
  2
STANDARD
 70
     0
  3

 62
     0
 51
90.0
 52
90.0
 71
     2
 49
0.5
 62
   256
  6
BYLAYER
 49
-0.5
 62
   256
  6
BYLAYER
  0
ACDBPLACEHOLDER
  5
389
102
{ACAD_REACTORS
330
388
102
}
330
388
100
AcDbPlaceHolder
280
     0
  0
XRECORD
  5
39F
102
{ACAD_REACTORS
330
395
102
}
330
395
100
AcDbXrecord
 90
        0
  0
XRECORD
  5
3A0
102
{ACAD_REACTORS
330
395
102
}
330
395
100
AcDbXrecord
  1
{8F93FF80-8DB8-11D6-88E6-0090279574E7}
  0
XRECORD
  5
398
102
{ACAD_REACTORS
330
395
102
}
330
395
100
AcDbXrecord
  1

  0
XRECORD
  5
39E
102
{ACAD_REACTORS
330
395
102
}
330
395
100
AcDbXrecord
 90
        0
  0
XRECORD
  5
39A
102
{ACAD_REACTORS
330
395
102
}
330
395
100
AcDbXrecord
340
38A
  0
XRECORD
  5
39D
102
{ACAD_REACTORS
330
395
102
}
330
395
100
AcDbXrecord
 90
    14877
  0
XRECORD
  5
39B
102
{ACAD_REACTORS
330
395
102
}
330
395
100
AcDbXrecord
340
38B
  0
XRECORD
  5
39C
102
{ACAD_REACTORS
330
395
102
}
330
395
100
AcDbXrecord
340
388
  0
XRECORD
  5
3A2
102
{ACAD_REACTORS
330
395
102
}
330
395
100
AcDbXrecord
 40
0.0
  0
XRECORD
  5
3A5
102
{ACAD_REACTORS
330
395
102
}
330
395
100
AcDbXrecord
340
0
  0
XRECORD
  5
3AB
102
{ACAD_REACTORS
330
395
102
}
330
395
100
AcDbXrecord
 10
0.0
 20
0.0
 30
0.0
  0
XRECORD
  5
3A7
102
{ACAD_REACTORS
330
395
102
}
330
395
100
AcDbXrecord
 10
0.0
 20
0.0
 30
0.0
  0
XRECORD
  5
3AA
102
{ACAD_REACTORS
330
395
102
}
330
395
100
AcDbXrecord
 10
0.0
 20
0.0
 30
0.0
  0
XRECORD
  5
3A8
102
{ACAD_REACTORS
330
395
102
}
330
395
100
AcDbXrecord
 10
0.0
 20
0.0
 30
0.0
  0
XRECORD
  5
3A9
102
{ACAD_REACTORS
330
395
102
}
330
395
100
AcDbXrecord
 10
0.0
 20
0.0
 30
0.0
  0
XRECORD
  5
3A6
102
{ACAD_REACTORS
330
395
102
}
330
395
100
AcDbXrecord
 10
0.0
 20
0.0
 30
0.0
  0
XRECORD
  5
3A3
102
{ACAD_REACTORS
330
395
102
}
330
395
100
AcDbXrecord
340
0
  0
XRECORD
  5
3A4
102
{ACAD_REACTORS
330
395
102
}
330
395
100
AcDbXrecord
 70
     0
  0
XRECORD
  5
399
102
{ACAD_REACTORS
330
395
102
}
330
395
100
AcDbXrecord
  1

  0
XRECORD
  5
396
102
{ACAD_REACTORS
330
395
102
}
330
395
100
AcDbXrecord
 90
        1
  0
XRECORD
  5
397
102
{ACAD_REACTORS
330
395
102
}
330
395
100
AcDbXrecord
 90
       70
  0
XRECORD
  5
3AE
102
{ACAD_REACTORS
330
395
102
}
330
395
100
AcDbXrecord
340
0
  0
XRECORD
  5
3B4
102
{ACAD_REACTORS
330
395
102
}
330
395
100
AcDbXrecord
 10
0.0
 20
0.0
 30
0.0
  0
XRECORD
  5
3B0
102
{ACAD_REACTORS
330
395
102
}
330
395
100
AcDbXrecord
 10
0.0
 20
0.0
 30
0.0
  0
XRECORD
  5
3B3
102
{ACAD_REACTORS
330
395
102
}
330
395
100
AcDbXrecord
 10
0.0
 20
0.0
 30
0.0
  0
XRECORD
  5
3B1
102
{ACAD_REACTORS
330
395
102
}
330
395
100
AcDbXrecord
 10
0.0
 20
0.0
 30
0.0
  0
XRECORD
  5
3B2
102
{ACAD_REACTORS
330
395
102
}
330
395
100
AcDbXrecord
 10
0.0
 20
0.0
 30
0.0
  0
XRECORD
  5
3AF
102
{ACAD_REACTORS
330
395
102
}
330
395
100
AcDbXrecord
 10
0.0
 20
0.0
 30
0.0
  0
XRECORD
  5
3AC
102
{ACAD_REACTORS
330
395
102
}
330
395
100
AcDbXrecord
340
0
  0
XRECORD
  5
3AD
102
{ACAD_REACTORS
330
395
102
}
330
395
100
AcDbXrecord
 70
     0
  0
XRECORD
  5
3A1
102
{ACAD_REACTORS
330
395
102
}
330
395
100
AcDbXrecord
  1
{8F93FF82-8DB8-11D6-88E6-0090279574E7}
  0
DICTIONARYVAR
  5
393
102
{ACAD_REACTORS
330
392
102
}
330
392
100
DictionaryVariables
280
     0
  1
1
  0
ENDSEC
  0
EOF
