  0
SECTION
  2
HEADER
  9
$ACADVER
  1
AC1014
  9
$ACADMAINTVER
 70
     9
  9
$DWGCODEPAGE
  3
ANSI_1252
  9
$INSBASE
 10
0.0
 20
0.0
 30
0.0
  9
$EXTMIN
 10
-6.645870360460102
 20
3.770273058510372
 30
0.0
  9
$EXTMAX
 10
-3.160651038712972
 20
6.663960943395704
 30
0.0
  9
$LIMMIN
 10
0.0
 20
0.0
  9
$LIMMAX
 10
12.0
 20
9.0
  9
$ORTHOMODE
 70
     1
  9
$REGENMODE
 70
     1
  9
$FILLMODE
 70
     1
  9
$QTEXTMODE
 70
     0
  9
$MIRRTEXT
 70
     0
  9
$DRAGMODE
 70
     2
  9
$LTSCALE
 40
1.0
  9
$OSMODE
 70
    39
  9
$ATTMODE
 70
     1
  9
$TEXTSIZE
 40
0.125
  9
$TRACEWID
 40
0.05
  9
$TEXTSTYLE
  7
ROMANS
  9
$CLAYER
  8
0
  9
$CELTYPE
  6
BYLAYER
  9
$CECOLOR
 62
   256
  9
$CELTSCALE
 40
1.0
  9
$DELOBJ
 70
     1
  9
$DISPSILH
 70
     1
  9
$DIMSCALE
 40
1.0
  9
$DIMASZ
 40
0.125
  9
$DIMEXO
 40
0.125
  9
$DIMDLI
 40
0.38
  9
$DIMRND
 40
0.0
  9
$DIMDLE
 40
0.0
  9
$DIMEXE
 40
0.125
  9
$DIMTP
 40
0.0
  9
$DIMTM
 40
0.0
  9
$DIMTXT
 40
0.125
  9
$DIMCEN
 40
-0.125
  9
$DIMTSZ
 40
0.0
  9
$DIMTOL
 70
     0
  9
$DIMLIM
 70
     0
  9
$DIMTIH
 70
     1
  9
$DIMTOH
 70
     1
  9
$DIMSE1
 70
     0
  9
$DIMSE2
 70
     0
  9
$DIMTAD
 70
     0
  9
$DIMZIN
 70
     4
  9
$DIMBLK
  1

  9
$DIMASO
 70
     1
  9
$DIMSHO
 70
     1
  9
$DIMPOST
  1

  9
$DIMAPOST
  1

  9
$DIMALT
 70
     0
  9
$DIMALTD
 70
     2
  9
$DIMALTF
 40
25.4
  9
$DIMLFAC
 40
1.0
  9
$DIMTOFL
 70
     0
  9
$DIMTVP
 40
0.0
  9
$DIMTIX
 70
     0
  9
$DIMSOXD
 70
     0
  9
$DIMSAH
 70
     0
  9
$DIMBLK1
  1

  9
$DIMBLK2
  1

  9
$DIMSTYLE
  2
STANDARD
  9
$DIMCLRD
 70
     0
  9
$DIMCLRE
 70
     0
  9
$DIMCLRT
 70
     0
  9
$DIMTFAC
 40
1.0
  9
$DIMGAP
 40
0.09
  9
$DIMJUST
 70
     0
  9
$DIMSD1
 70
     0
  9
$DIMSD2
 70
     0
  9
$DIMTOLJ
 70
     1
  9
$DIMTZIN
 70
     4
  9
$DIMALTZ
 70
     0
  9
$DIMALTTZ
 70
     0
  9
$DIMFIT
 70
     3
  9
$DIMUPT
 70
     0
  9
$DIMUNIT
 70
     2
  9
$DIMDEC
 70
     3
  9
$DIMTDEC
 70
     3
  9
$DIMALTU
 70
     2
  9
$DIMALTTD
 70
     2
  9
$DIMTXSTY
  7
ROMANS
  9
$DIMAUNIT
 70
     0
  9
$LUNITS
 70
     2
  9
$LUPREC
 70
     4
  9
$SKETCHINC
 40
0.1
  9
$FILLETRAD
 40
0.0
  9
$AUNITS
 70
     0
  9
$AUPREC
 70
     0
  9
$MENU
  1
acad
  9
$ELEVATION
 40
0.0
  9
$PELEVATION
 40
0.0
  9
$THICKNESS
 40
0.0
  9
$LIMCHECK
 70
     0
  9
$BLIPMODE
 70
     0
  9
$CHAMFERA
 40
0.0
  9
$CHAMFERB
 40
0.0
  9
$CHAMFERC
 40
0.0
  9
$CHAMFERD
 40
0.0
  9
$SKPOLY
 70
     0
  9
$TDCREATE
 40
2450010.600520602
  9
$TDUPDATE
 40
2452458.317855984
  9
$TDINDWG
 40
0.1258469097
  9
$TDUSRTIMER
 40
0.1258469097
  9
$USRTIMER
 70
     1
  9
$ANGBASE
 50
0.0
  9
$ANGDIR
 70
     0
  9
$PDMODE
 70
     0
  9
$PDSIZE
 40
0.0
  9
$PLINEWID
 40
0.0
  9
$COORDS
 70
     2
  9
$SPLFRAME
 70
     0
  9
$SPLINETYPE
 70
     6
  9
$SPLINESEGS
 70
     8
  9
$ATTDIA
 70
     0
  9
$ATTREQ
 70
     1
  9
$HANDLING
 70
 22529
  9
$HANDSEED
  5
4F8
  9
$SURFTAB1
 70
     6
  9
$SURFTAB2
 70
     6
  9
$SURFTYPE
 70
     6
  9
$SURFU
 70
     6
  9
$SURFV
 70
     6
  9
$UCSNAME
  2

  9
$UCSORG
 10
0.0
 20
0.0
 30
0.0
  9
$UCSXDIR
 10
1.0
 20
0.0
 30
0.0
  9
$UCSYDIR
 10
0.0
 20
1.0
 30
0.0
  9
$PUCSNAME
  2

  9
$PUCSORG
 10
0.0
 20
0.0
 30
0.0
  9
$PUCSXDIR
 10
1.0
 20
0.0
 30
0.0
  9
$PUCSYDIR
 10
0.0
 20
1.0
 30
0.0
  9
$USERI1
 70
     0
  9
$USERI2
 70
     0
  9
$USERI3
 70
     0
  9
$USERI4
 70
     0
  9
$USERI5
 70
     0
  9
$USERR1
 40
0.0
  9
$USERR2
 40
0.0
  9
$USERR3
 40
0.0
  9
$USERR4
 40
0.0
  9
$USERR5
 40
0.0
  9
$WORLDVIEW
 70
     1
  9
$SHADEDGE
 70
     3
  9
$SHADEDIF
 70
    70
  9
$TILEMODE
 70
     1
  9
$MAXACTVP
 70
    16
  9
$PINSBASE
 10
0.0
 20
0.0
 30
0.0
  9
$PLIMCHECK
 70
     0
  9
$PEXTMIN
 10
1.000000000000000E+20
 20
1.000000000000000E+20
 30
1.000000000000000E+20
  9
$PEXTMAX
 10
-1.000000000000000E+20
 20
-1.000000000000000E+20
 30
-1.000000000000000E+20
  9
$PLIMMIN
 10
0.0
 20
0.0
  9
$PLIMMAX
 10
12.0
 20
9.0
  9
$UNITMODE
 70
     0
  9
$VISRETAIN
 70
     0
  9
$PLINEGEN
 70
     1
  9
$PSLTSCALE
 70
     1
  9
$TREEDEPTH
 70
  3020
  9
$PICKSTYLE
 70
     1
  9
$CMLSTYLE
  2
STANDARD
  9
$CMLJUST
 70
     0
  9
$CMLSCALE
 40
1.0
  9
$PROXYGRAPHICS
 70
     1
  9
$MEASUREMENT
 70
     0
  0
ENDSEC
  0
SECTION
  2
CLASSES
  0
CLASS
  1
LWPOLYLINE
  2
AcDbPolyline
  3
AutoCAD 2000
 90
        0
280
     0
281
     1
  0
CLASS
  1
ACDBDICTIONARYWDFLT
  2
AcDbDictionaryWithDefault
  3
AutoCAD 2000
 90
        0
280
     0
281
     0
  0
CLASS
  1
ACDBPLACEHOLDER
  2
AcDbPlaceHolder
  3
AutoCAD 2000
 90
        0
280
     0
281
     0
  0
CLASS
  1
LAYOUT
  2
AcDbLayout
  3
AutoCAD 2000
 90
        0
280
     0
281
     0
  0
CLASS
  1
DICTIONARYVAR
  2
AcDbDictionaryVar
  3
AutoCAD 2000
 90
        0
280
     0
281
     0
  0
CLASS
  1
LONG_TRANSACTION
  2
AcDbLongTransaction
  3
AutoCAD 2000
 90
        0
280
     0
281
     0
  0
CLASS
  1
LWPOLYLINE
  2
AcDbPolyline
  3
AutoCAD 2000
 90
        0
280
     0
281
     1
  0
CLASS
  1
HATCH
  2
AcDbHatch
  3
AutoCAD 2000
 90
        0
280
     0
281
     1
  0
CLASS
  1
XRECORD
  2
AcDbXrecord
  3
AutoCAD 2000
 90
        0
280
     0
281
     0
  0
ENDSEC
  0
SECTION
  2
TABLES
  0
TABLE
  2
VPORT
  5
8
330
0
100
AcDbSymbolTable
 70
     2
  0
VPORT
  5
4D3
330
8
100
AcDbSymbolTableRecord
100
AcDbViewportTableRecord
  2
*ACTIVE
 70
     0
 10
0.0
 20
0.0
 11
1.0
 21
1.0
 12
-0.9601117434217494
 22
5.217207055635757
 13
0.0
 23
0.0
 14
1.0
 24
1.0
 15
0.0
 25
0.0
 16
0.0
 26
0.0
 36
1.0
 17
0.0
 27
0.0
 37
0.0
 40
2.919761659944507
 41
4.320930232558139
 42
50.0
 43
0.0
 44
0.0
 50
0.0
 51
0.0
 71
     0
 72
  2000
 73
     1
 74
     1
 75
     0
 76
     0
 77
     0
 78
     0
  0
ENDTAB
  0
TABLE
  2
LTYPE
  5
5
330
0
100
AcDbSymbolTable
 70
     1
  0
LTYPE
  5
12
330
5
100
AcDbSymbolTableRecord
100
AcDbLinetypeTableRecord
  2
BYBLOCK
 70
     0
  3

 72
    65
 73
     0
 40
0.0
  0
LTYPE
  5
13
330
5
100
AcDbSymbolTableRecord
100
AcDbLinetypeTableRecord
  2
BYLAYER
 70
     0
  3

 72
    65
 73
     0
 40
0.0
  0
LTYPE
  5
14
330
5
100
AcDbSymbolTableRecord
100
AcDbLinetypeTableRecord
  2
CONTINUOUS
 70
     0
  3
Solid line
 72
    65
 73
     0
 40
0.0
  0
ENDTAB
  0
TABLE
  2
LAYER
  5
2
330
0
100
AcDbSymbolTable
 70
     2
  0
LAYER
  5
F
330
2
100
AcDbSymbolTableRecord
100
AcDbLayerTableRecord
  2
0
 70
     0
 62
     7
  6
CONTINUOUS
  0
LAYER
  5
20
330
2
100
AcDbSymbolTableRecord
100
AcDbLayerTableRecord
  2
TEXT
 70
     0
 62
     3
  6
CONTINUOUS
  0
ENDTAB
  0
TABLE
  2
STYLE
  5
3
330
0
100
AcDbSymbolTable
 70
     3
  0
STYLE
  5
10
330
3
100
AcDbSymbolTableRecord
100
AcDbTextStyleTableRecord
  2
STANDARD
 70
     0
 40
0.0
 41
1.0
 50
0.0
 71
     0
 42
0.125
  3
txt
  4

  0
STYLE
  5
1D
330
3
100
AcDbSymbolTableRecord
100
AcDbTextStyleTableRecord
  2
ROMANS
 70
     0
 40
0.0
 41
1.0
 50
0.0
 71
     0
 42
0.125
  3
romans.shx
  4

  0
STYLE
  5
3C1
330
3
100
AcDbSymbolTableRecord
100
AcDbTextStyleTableRecord
  2
ITALICC
 70
     0
 40
0.0
 41
1.0
 50
0.0
 71
     0
 42
0.125
  3
italicc
  4

  0
ENDTAB
  0
TABLE
  2
VIEW
  5
6
330
0
100
AcDbSymbolTable
 70
     0
  0
ENDTAB
  0
TABLE
  2
UCS
  5
7
330
0
100
AcDbSymbolTable
 70
     0
  0
ENDTAB
  0
TABLE
  2
APPID
  5
9
330
0
100
AcDbSymbolTable
 70
     1
  0
APPID
  5
11
330
9
100
AcDbSymbolTableRecord
100
AcDbRegAppTableRecord
  2
ACAD
 70
     0
  0
ENDTAB
  0
TABLE
  2
DIMSTYLE
  5
A
330
0
100
AcDbSymbolTable
 70
     1
  0
DIMSTYLE
105
1CE
330
A
100
AcDbSymbolTableRecord
100
AcDbDimStyleTableRecord
  2
STANDARD
 70
     0
  3

  4

  5

  6

  7

 40
1.0
 41
0.125
 42
0.125
 43
0.38
 44
0.125
 45
0.0
 46
0.0
 47
0.0
 48
0.0
140
0.125
141
-0.125
142
0.0
143
25.4
144
1.0
145
0.0
146
1.0
147
0.09
 71
     0
 72
     0
 73
     1
 74
     1
 75
     0
 76
     0
 77
     0
 78
     4
170
     0
171
     2
172
     0
173
     0
174
     0
175
     0
176
     0
177
     0
178
     0
270
     2
271
     3
272
     3
273
     2
274
     2
340
1D
275
     0
280
     0
281
     0
282
     0
283
     1
284
     4
285
     0
286
     0
287
     3
288
     0
  0
ENDTAB
  0
TABLE
  2
BLOCK_RECORD
  5
1
330
0
100
AcDbSymbolTable
 70
     0
  0
BLOCK_RECORD
  5
18
102
{ACAD_XDICTIONARY
360
4F6
102
}
330
1
100
AcDbSymbolTableRecord
100
AcDbBlockTableRecord
  2
*MODEL_SPACE
  0
BLOCK_RECORD
  5
15
102
{ACAD_XDICTIONARY
360
4F4
102
}
330
1
100
AcDbSymbolTableRecord
100
AcDbBlockTableRecord
  2
*PAPER_SPACE
  0
ENDTAB
  0
ENDSEC
  0
SECTION
  2
BLOCKS
  0
BLOCK
  5
28
330
18
100
AcDbEntity
  8
0
100
AcDbBlockBegin
  2
*MODEL_SPACE
 70
     0
 10
0.0
 20
0.0
 30
0.0
  3
*MODEL_SPACE
  1

  0
ENDBLK
  5
29
330
18
100
AcDbEntity
  8
0
100
AcDbBlockEnd
  0
BLOCK
  5
26
330
15
100
AcDbEntity
 67
     1
  8
0
100
AcDbBlockBegin
  2
*PAPER_SPACE
 70
     0
 10
0.0
 20
0.0
 30
0.0
  3
*PAPER_SPACE
  1

  0
ENDBLK
  5
27
330
15
100
AcDbEntity
 67
     1
  8
0
100
AcDbBlockEnd
  0
ENDSEC
  0
SECTION
  2
ENTITIES
  0
CIRCLE
  5
3A3
330
18
100
AcDbEntity
  8
0
100
AcDbCircle
 10
-4.794223941952769
 20
5.638960943395703
 30
0.0
 40
1.024999999999999
  0
LINE
  5
446
330
18
100
AcDbEntity
  8
TEXT
100
AcDbLine
 10
-4.794672309765559
 20
3.972349344818347
 30
0.0
 11
-4.794672309765559
 21
4.113678876997486
 31
0.0
  0
LINE
  5
447
330
18
100
AcDbEntity
  8
TEXT
100
AcDbLine
 10
-4.747574151209576
 20
4.048214671229885
 30
0.0
 11
-4.794672309765559
 21
3.972349344818347
 31
0.0
  0
LINE
  5
448
330
18
100
AcDbEntity
  8
TEXT
100
AcDbLine
 10
-4.737139434445651
 20
3.938321428288912
 30
0.0
 11
-4.672582318479946
 21
4.048214671229885
 31
0.0
  0
TEXT
  5
449
330
18
100
AcDbEntity
  8
TEXT
100
AcDbText
 10
-4.489583622982637
 20
3.967885873853163
 30
0.0
 40
0.0522247191011236
  1
6536 Main St. N.E. * P.O. Box 32008
 41
0.8388932496075355
 72
     5
 11
-3.160651038712973
 21
3.967885873853163
 31
0.0
100
AcDbText
  0
ARC
  5
44A
330
18
100
AcDbEntity
  8
TEXT
100
AcDbCircle
 10
-4.935155282280897
 20
3.959032101290457
 30
0.0
 40
0.0249058752826653
100
AcDbArc
 50
89.99971217465335
 51
179.9999999999985
  0
LINE
  5
44B
330
18
100
AcDbEntity
  8
TEXT
100
AcDbLine
 10
-5.02235604870393
 20
3.943002692676458
 30
0.0
 11
-5.066106819885831
 21
4.025252968672603
 31
0.0
  0
LINE
  5
44C
330
18
100
AcDbEntity
  8
TEXT
100
AcDbLine
 10
-5.02235604870393
 20
4.048214671229885
 30
0.0
 11
-5.02235604870393
 21
3.943002692676458
 31
0.0
  0
ARC
  5
44D
330
18
100
AcDbEntity
  8
TEXT
100
AcDbCircle
 10
-5.130346885923449
 20
3.955578601573122
 30
0.0
 40
0.028359375
100
AcDbArc
 50
25.78218179591245
 51
90.0
  0
LINE
  5
44E
330
18
100
AcDbEntity
  8
TEXT
100
AcDbLine
 10
-5.592341347107197
 20
3.864129476344373
 30
0.0
 11
-5.592341347107197
 21
4.116226148968696
 31
0.0
  0
LINE
  5
44F
330
18
100
AcDbEntity
  8
TEXT
100
AcDbLine
 10
-5.560029492969537
 20
4.048214671229885
 30
0.0
 11
-5.560029492969537
 21
3.847350464497477
 31
0.0
  0
LINE
  5
450
330
18
100
AcDbEntity
  8
TEXT
100
AcDbLine
 10
-5.68927197246694
 20
4.048214671229885
 30
0.0
 11
-5.748020535272804
 21
3.947342675116765
 31
0.0
  0
LINE
  5
451
330
18
100
AcDbEntity
  8
TEXT
100
AcDbLine
 10
-5.748020535272804
 20
3.947342675116765
 30
0.0
 11
-5.806650856304742
 21
4.048214671229885
 31
0.0
  0
ARC
  5
452
330
18
100
AcDbEntity
  8
TEXT
100
AcDbCircle
 10
-6.114224180191168
 20
3.966127211783383
 30
0.0
 40
0.0820874594465043
100
AcDbArc
 50
90.0
 51
270.0
  0
LWPOLYLINE
  5
453
330
18
100
AcDbEntity
  8
TEXT
100
AcDbPolyline
 90
        2
 70
     0
 43
0.0001332181640625
 10
-6.522310513292133
 20
3.974944680995509
 10
-6.532301875596823
 20
4.048214671229889
  0
LWPOLYLINE
  5
454
330
18
100
AcDbEntity
  8
TEXT
100
AcDbPolyline
 90
        2
 70
     0
 43
0.0001332181640625
 10
-6.532301875596823
 20
4.021571038417388
 10
-6.522310513292133
 20
3.961622864589262
  0
LWPOLYLINE
  5
455
330
18
100
AcDbEntity
  8
TEXT
100
AcDbPolyline
 90
        2
 70
     0
 43
0.0001332181640625
 10
-6.492336426378072
 20
4.021571038417388
 10
-6.502327788682761
 20
3.961622864589262
  0
LWPOLYLINE
  5
456
330
18
100
AcDbEntity
  8
TEXT
100
AcDbPolyline
 90
        2
 70
     0
 43
0.0001332181640625
 10
-6.492336426378072
 20
4.048214671229889
 10
-6.502327788682761
 20
3.974944680995509
  0
LWPOLYLINE
  5
457
330
18
100
AcDbEntity
  8
TEXT
100
AcDbPolyline
 90
        3
 70
     0
 43
0.0006660908203125
 10
-6.379100986924946
 20
3.934979231776761
 10
-6.379100986924946
 20
4.048214671229889
 10
-6.492336426378072
 20
4.048214671229889
  0
LWPOLYLINE
  5
458
330
18
100
AcDbEntity
  8
TEXT
100
AcDbPolyline
 90
        3
 70
     0
 43
0.0006660908203125
 10
-6.405744619737447
 20
3.934979231776761
 10
-6.405744619737447
 20
4.021571038417388
 10
-6.492336426378072
 20
4.021571038417388
  0
LWPOLYLINE
  5
459
330
18
100
AcDbEntity
  8
TEXT
100
AcDbPolyline
 90
        2
 70
     0
 43
0.0001332181640625
 10
-6.405744619737447
 20
4.021571038417388
 10
-6.465692793565571
 20
3.961622864589262
  0
LWPOLYLINE
  5
45A
330
18
100
AcDbEntity
  8
TEXT
100
AcDbPolyline
 90
        2
 70
     0
 43
0.0001332181640625
 10
-6.618893682237448
 20
4.021571038417388
 10
-6.558945508409323
 20
3.961622864589262
  0
LWPOLYLINE
  5
45B
330
18
100
AcDbEntity
  8
TEXT
100
AcDbPolyline
 90
        3
 70
     0
 43
0.0006660908203125
 10
-6.532301875596823
 20
4.048214671229889
 10
-6.645537315049946
 20
4.048214671229889
 10
-6.645537315049946
 20
3.934979231776761
  0
LWPOLYLINE
  5
45C
330
18
100
AcDbEntity
  8
TEXT
100
AcDbPolyline
 90
        3
 70
     0
 43
0.0006660908203125
 10
-6.532301875596823
 20
4.021571038417388
 10
-6.618893682237448
 20
4.021571038417388
 10
-6.618893682237448
 20
3.934979231776761
  0
LINE
  5
45D
330
18
100
AcDbEntity
  8
TEXT
100
AcDbLine
 10
-6.043386713832619
 20
3.948133254962492
 30
0.0
 11
-6.10898685007692
 21
3.948133254962492
 31
0.0
  0
LINE
  5
45E
330
18
100
AcDbEntity
  8
TEXT
100
AcDbLine
 10
-6.114224180191168
 20
3.884039752336878
 30
0.0
 11
-6.038446339926339
 21
3.884039752336878
 31
0.0
  0
LINE
  5
45F
330
18
100
AcDbEntity
  8
TEXT
100
AcDbLine
 10
-6.196311639637672
 20
3.781741638241374
 30
0.0
 11
-6.043386713832619
 21
3.781741638241374
 31
0.0
  0
LINE
  5
460
330
18
100
AcDbEntity
  8
TEXT
100
AcDbLine
 10
-6.038446339926339
 20
3.850098644574813
 30
0.0
 11
-6.196311639637674
 21
3.850098644574813
 31
0.0
  0
LINE
  5
461
330
18
100
AcDbEntity
  8
TEXT
100
AcDbLine
 10
-6.10898685007692
 20
3.98393797657312
 30
0.0
 11
-5.942081196047951
 21
3.98393797657312
 31
0.0
  0
LWPOLYLINE
  5
462
330
18
100
AcDbEntity
  8
TEXT
100
AcDbPolyline
 90
        2
 70
     0
 43
0.0006660908203125
 10
-6.405744619737447
 20
3.934979231776761
 10
-6.379100986924946
 20
3.934979231776761
  0
LWPOLYLINE
  5
463
330
18
100
AcDbEntity
  8
TEXT
100
AcDbPolyline
 90
        2
 70
     0
 43
0.0001332181640625
 10
-6.452370977159322
 20
3.924987869472072
 10
-6.379100986924946
 20
3.934979231776761
  0
LWPOLYLINE
  5
464
330
18
100
AcDbEntity
  8
TEXT
100
AcDbPolyline
 90
        2
 70
     0
 43
0.0006660908203125
 10
-6.405744619737447
 20
3.895013782558013
 10
-6.379100986924946
 20
3.895013782558013
  0
LWPOLYLINE
  5
465
330
18
100
AcDbEntity
  8
TEXT
100
AcDbPolyline
 90
        3
 70
     0
 43
0.0006660908203125
 10
-6.492336426378072
 20
3.781778343104885
 10
-6.379100986924946
 20
3.781778343104885
 10
-6.379100986924946
 20
3.895013782558013
  0
LWPOLYLINE
  5
466
330
18
100
AcDbEntity
  8
TEXT
100
AcDbPolyline
 90
        2
 70
     0
 43
0.0001332181640625
 10
-6.379100986924946
 20
3.895013782558013
 10
-6.452370977159322
 20
3.905005144862698
  0
LWPOLYLINE
  5
467
330
18
100
AcDbEntity
  8
TEXT
100
AcDbPolyline
 90
        3
 70
     0
 43
0.0006660908203125
 10
-6.645537315049946
 20
3.895013782558013
 10
-6.645537315049946
 20
3.781778343104885
 10
-6.532301875596823
 20
3.781778343104885
  0
LWPOLYLINE
  5
468
330
18
100
AcDbEntity
  8
TEXT
100
AcDbPolyline
 90
        3
 70
     0
 43
0.0006660908203125
 10
-6.618893682237448
 20
3.895013782558013
 10
-6.618893682237448
 20
3.808421975917386
 10
-6.532301875596823
 20
3.808421975917386
  0
LWPOLYLINE
  5
469
330
18
100
AcDbEntity
  8
TEXT
100
AcDbPolyline
 90
        5
 70
     0
 43
0.0001332181640625
 10
-6.522310513292133
 20
3.855048333339262
 10
-6.522310513292133
 20
3.868370149745512
 10
-6.558945508409321
 20
3.868370149745512
 10
-6.558945508409321
 20
3.905005144862698
 10
-6.572267324815571
 20
3.905005144862698
  0
LWPOLYLINE
  5
46A
330
18
100
AcDbEntity
  8
TEXT
100
AcDbPolyline
 90
        5
 70
     0
 43
0.0001332181640625
 10
-6.572267324815571
 20
3.924987869472072
 10
-6.558945508409323
 20
3.924987869472072
 10
-6.558945508409323
 20
3.961622864589262
 10
-6.522310513292133
 20
3.961622864589262
 10
-6.522310513292133
 20
3.974944680995509
  0
LWPOLYLINE
  5
46B
330
18
100
AcDbEntity
  8
TEXT
100
AcDbPolyline
 90
        2
 70
     0
 43
0.0001332181640625
 10
-6.618893682237448
 20
3.934979231776761
 10
-6.558945508409323
 20
3.924987869472072
  0
LWPOLYLINE
  5
46C
330
18
100
AcDbEntity
  8
TEXT
100
AcDbPolyline
 90
        2
 70
     0
 43
0.0001332181640625
 10
-6.645537315049946
 20
3.934979231776761
 10
-6.572267324815571
 20
3.924987869472072
  0
LWPOLYLINE
  5
46D
330
18
100
AcDbEntity
  8
TEXT
100
AcDbPolyline
 90
        2
 70
     0
 43
0.0006660908203125
 10
-6.618893682237448
 20
3.934979231776761
 10
-6.645537315049946
 20
3.934979231776761
  0
LWPOLYLINE
  5
46E
330
18
100
AcDbEntity
  8
TEXT
100
AcDbPolyline
 90
        2
 70
     0
 43
0.0001332181640625
 10
-6.618893682237448
 20
3.808421975917386
 10
-6.558945508409321
 20
3.868370149745512
  0
LWPOLYLINE
  5
46F
330
18
100
AcDbEntity
  8
TEXT
100
AcDbPolyline
 90
        2
 70
     0
 43
0.0006660908203125
 10
-6.618893682237448
 20
3.895013782558013
 10
-6.645537315049946
 20
3.895013782558013
  0
LWPOLYLINE
  5
470
330
18
100
AcDbEntity
  8
TEXT
100
AcDbPolyline
 90
        2
 70
     0
 43
0.0001332181640625
 10
-6.572267324815571
 20
3.905005144862698
 10
-6.645537315049946
 20
3.895013782558013
  0
LWPOLYLINE
  5
471
330
18
100
AcDbEntity
  8
TEXT
100
AcDbPolyline
 90
        2
 70
     0
 43
0.0001332181640625
 10
-6.618893682237448
 20
3.895013782558013
 10
-6.558945508409321
 20
3.905005144862698
  0
LWPOLYLINE
  5
472
330
18
100
AcDbEntity
  8
TEXT
100
AcDbPolyline
 90
        5
 70
     0
 43
0.0001332181640625
 10
-6.502327788682761
 20
3.974944680995509
 10
-6.502327788682761
 20
3.961622864589262
 10
-6.465692793565571
 20
3.961622864589262
 10
-6.465692793565571
 20
3.924987869472072
 10
-6.452370977159322
 20
3.924987869472072
  0
LWPOLYLINE
  5
473
330
18
100
AcDbEntity
  8
TEXT
100
AcDbPolyline
 90
        2
 70
     0
 43
0.0001332181640625
 10
-6.405744619737447
 20
3.934979231776761
 10
-6.465692793565571
 20
3.924987869472072
  0
LWPOLYLINE
  5
474
330
18
100
AcDbEntity
  8
TEXT
100
AcDbPolyline
 90
        2
 70
     0
 43
0.0006660908203125
 10
-6.532301875596823
 20
3.808421975917386
 10
-6.532301875596823
 20
3.781778343104885
  0
LWPOLYLINE
  5
475
330
18
100
AcDbEntity
  8
TEXT
100
AcDbPolyline
 90
        2
 70
     0
 43
0.0001332181640625
 10
-6.532301875596823
 20
3.808421975917386
 10
-6.522310513292133
 20
3.868370149745512
  0
LWPOLYLINE
  5
476
330
18
100
AcDbEntity
  8
TEXT
100
AcDbPolyline
 90
        2
 70
     0
 43
0.0001332181640625
 10
-6.532301875596823
 20
3.781778343104885
 10
-6.522310513292133
 20
3.855048333339262
  0
LWPOLYLINE
  5
477
330
18
100
AcDbEntity
  8
TEXT
100
AcDbPolyline
 90
        2
 70
     0
 43
0.0001332181640625
 10
-6.492336426378072
 20
3.808421975917386
 10
-6.502327788682761
 20
3.868370149745512
  0
LWPOLYLINE
  5
478
330
18
100
AcDbEntity
  8
TEXT
100
AcDbPolyline
 90
        2
 70
     0
 43
0.0001332181640625
 10
-6.502327788682761
 20
3.855048333339262
 10
-6.492336426378072
 20
3.781778343104885
  0
LWPOLYLINE
  5
479
330
18
100
AcDbEntity
  8
TEXT
100
AcDbPolyline
 90
        2
 70
     0
 43
0.0006660908203125
 10
-6.492336426378072
 20
3.808421975917386
 10
-6.492336426378072
 20
3.781778343104885
  0
LWPOLYLINE
  5
47A
330
18
100
AcDbEntity
  8
TEXT
100
AcDbPolyline
 90
        2
 70
     0
 43
0.0001332181640625
 10
-6.405744619737447
 20
3.808421975917386
 10
-6.465692793565571
 20
3.868370149745512
  0
LWPOLYLINE
  5
47B
330
18
100
AcDbEntity
  8
TEXT
100
AcDbPolyline
 90
        3
 70
     0
 43
0.0006660908203125
 10
-6.492336426378072
 20
3.808421975917386
 10
-6.405744619737447
 20
3.808421975917386
 10
-6.405744619737447
 20
3.895013782558013
  0
LWPOLYLINE
  5
47C
330
18
100
AcDbEntity
  8
TEXT
100
AcDbPolyline
 90
        2
 70
     0
 43
0.0001332181640625
 10
-6.405744619737447
 20
3.895013782558013
 10
-6.465692793565571
 20
3.905005144862698
  0
LWPOLYLINE
  5
47D
330
18
100
AcDbEntity
  8
TEXT
100
AcDbPolyline
 90
        5
 70
     0
 43
0.0001332181640625
 10
-6.452370977159322
 20
3.905005144862698
 10
-6.465692793565571
 20
3.905005144862698
 10
-6.465692793565571
 20
3.868370149745512
 10
-6.502327788682761
 20
3.868370149745512
 10
-6.502327788682761
 20
3.855048333339262
  0
ARC
  5
47E
330
18
100
AcDbEntity
  8
TEXT
100
AcDbCircle
 10
-6.10898685007692
 20
3.966035615767808
 30
0.0
 40
0.017902360805315
100
AcDbArc
 50
90.0
 51
270.0
  0
LINE
  5
47F
330
18
100
AcDbEntity
  8
TEXT
100
AcDbLine
 10
-6.196311639637674
 20
3.850098644574813
 30
0.0
 11
-6.196311639637672
 21
3.781741638241374
 31
0.0
  0
TEXT
  5
480
330
18
100
AcDbEntity
  8
TEXT
100
AcDbText
 10
-4.489583622982637
 20
3.781369019920578
 30
0.0
 40
0.0522247191011236
  1
Phone  1-800-328-2495
 41
1.272321428571429
 72
     5
 11
-3.160651038712973
 21
3.781369019920578
 31
0.0
100
AcDbText
  0
TEXT
  5
481
330
18
100
AcDbEntity
  8
TEXT
100
AcDbText
 10
-4.489583622982637
 20
3.87462744688687
 30
0.0
 40
0.0522247191011236
  1
Minneapolis, MN 55432-0008
 41
1.11444212721585
 72
     5
 11
-3.160651038712973
 21
3.87462744688687
 31
0.0
100
AcDbText
  0
LINE
  5
482
330
18
100
AcDbEntity
  8
TEXT
100
AcDbLine
 10
-4.935155282280895
 20
3.98393797657312
 30
0.0
 11
-4.858507300988339
 21
3.98393797657312
 31
0.0
  0
LINE
  5
483
330
18
100
AcDbEntity
  8
TEXT
100
AcDbLine
 10
-5.493198439911569
 20
3.98393797657312
 30
0.0
 11
-5.44336316008842
 21
3.98393797657312
 31
0.0
  0
ARC
  5
484
330
18
100
AcDbEntity
  8
TEXT
100
AcDbCircle
 10
-5.791664332181973
 20
3.82128936051507
 30
0.0
 40
0.0392772371940762
100
AcDbArc
 50
270.1604552698595
 51
330.0831797321295
  0
ARC
  5
485
330
18
100
AcDbEntity
  8
TEXT
100
AcDbCircle
 10
-5.881965178074198
 20
3.841534029579424
 30
0.0
 40
0.0601160179737537
100
AcDbArc
 50
180.0000000000003
 51
264.0521544866073
  0
LINE
  5
486
330
18
100
AcDbEntity
  8
TEXT
100
AcDbLine
 10
-5.942081196047951
 20
3.98393797657312
 30
0.0
 11
-5.942081196047951
 21
3.841534029579424
 31
0.0
  0
ARC
  5
487
330
18
100
AcDbEntity
  8
TEXT
100
AcDbCircle
 10
-6.038446339926339
 20
3.867069198455848
 30
0.0
 40
0.0169705538810321
100
AcDbArc
 50
270.0
 51
90.0
  0
ARC
  5
488
330
18
100
AcDbEntity
  8
TEXT
100
AcDbCircle
 10
-6.043386713832619
 20
3.864937446601931
 30
0.0
 40
0.0831958083605586
100
AcDbArc
 50
270.0
 51
90.0
  0
LWPOLYLINE
  5
489
330
18
100
AcDbEntity
  8
TEXT
100
AcDbPolyline
 90
        6
 70
     1
 43
0.0
 10
-5.845670784992694
 20
3.98393797657312
 10
-5.875987379212903
 20
3.98393797657312
 10
-5.875987379212903
 20
3.860826978518225
 42
0.407328721240804
 10
-5.864443728051426
 20
3.849008063841839
 10
-5.803822029006695
 20
3.849008063841839
 10
-5.786356688599378
 20
3.881820292885318
  0
LINE
  5
48A
330
18
100
AcDbEntity
  8
TEXT
100
AcDbLine
 10
-5.888194588567845
 20
3.781741638241374
 30
0.0
 11
-5.791554337492851
 21
3.782012277339656
 31
0.0
  0
LWPOLYLINE
  5
48B
330
18
100
AcDbEntity
  8
TEXT
100
AcDbPolyline
 90
        2
 70
     0
 43
0.0
 10
-5.660321066176315
 20
3.833292980456302
 42
0.3318488747599744
 10
-5.591201773611002
 20
3.781741638241374
 42
-6.868794160588311
  0
LINE
  5
48C
330
18
100
AcDbEntity
  8
TEXT
100
AcDbLine
 10
-5.660321066176315
 20
3.966050355281655
 30
0.0
 11
-5.660321066176315
 21
3.833292980456299
 31
0.0
  0
LINE
  5
48D
330
18
100
AcDbEntity
  8
TEXT
100
AcDbLine
 10
-5.75762077226976
 20
3.801700144346387
 30
0.0
 11
-5.660321066176315
 21
3.966050355281655
 31
0.0
  0
ARC
  5
48E
330
18
100
AcDbEntity
  8
TEXT
100
AcDbCircle
 10
-5.57702312985414
 20
3.862732270740902
 30
0.0
 40
0.0153818062434269
100
AcDbArc
 50
174.7883570302258
 51
270.0
  0
LINE
  5
48F
330
18
100
AcDbEntity
  8
TEXT
100
AcDbLine
 10
-5.560029492969537
 20
3.847350464497477
 30
0.0
 11
-5.57702312985414
 21
3.847350464497477
 31
0.0
  0
LINE
  5
490
330
18
100
AcDbEntity
  8
TEXT
100
AcDbLine
 10
-5.591201773611004
 20
3.781741638241374
 30
0.0
 11
-5.493198439911569
 21
3.781741638241374
 31
0.0
  0
LINE
  5
491
330
18
100
AcDbEntity
  8
TEXT
100
AcDbLine
 10
-5.493198439911569
 20
3.781741638241374
 30
0.0
 11
-5.493198439911569
 21
3.98393797657312
 31
0.0
  0
LINE
  5
492
330
18
100
AcDbEntity
  8
TEXT
100
AcDbLine
 10
-5.130346885923447
 20
3.98393797657312
 30
0.0
 11
-5.237553159310738
 21
3.98393797657312
 31
0.0
  0
LINE
  5
493
330
18
100
AcDbEntity
  8
TEXT
100
AcDbLine
 10
-5.176833800402711
 20
3.946663003110987
 30
0.0
 11
-5.094545810619326
 21
3.946663003110987
 31
0.0
  0
LWPOLYLINE
  5
494
330
18
100
AcDbEntity
  8
TEXT
100
AcDbPolyline
 90
        4
 70
     1
 43
0.0
 10
-5.081614769336427
 20
3.884705616225399
 10
-5.170275087996285
 20
3.884705616225399
 42
0.9999999999999998
 10
-5.170275087996285
 20
3.842307075721539
 10
-5.081614769336427
 20
3.842307075721539
 42
1.0
  0
LWPOLYLINE
  5
495
330
18
100
AcDbEntity
  8
TEXT
100
AcDbPolyline
 90
        2
 70
     0
 43
0.0
 10
-5.195509721897911
 20
3.781741638241374
 10
-5.061492304266534
 20
3.781741638241374
 42
0.9999999999999998
  0
LINE
  5
496
330
18
100
AcDbEntity
  8
TEXT
100
AcDbLine
 10
-5.368751324140468
 20
3.98393797657312
 30
0.0
 11
-5.314617727219516
 21
3.98393797657312
 31
0.0
  0
LINE
  5
497
330
18
100
AcDbEntity
  8
TEXT
100
AcDbLine
 10
-5.435809370922306
 20
3.781741638241374
 30
0.0
 11
-5.368751324140468
 21
3.781741638241374
 31
0.0
  0
LINE
  5
498
330
18
100
AcDbEntity
  8
TEXT
100
AcDbLine
 10
-5.368751324140468
 20
3.781741638241374
 30
0.0
 11
-5.368751324140468
 21
3.98393797657312
 31
0.0
  0
LINE
  5
499
330
18
100
AcDbEntity
  8
TEXT
100
AcDbLine
 10
-5.435809370922306
 20
3.97638418740701
 30
0.0
 11
-5.435809370922306
 21
3.781741638241374
 31
0.0
  0
LWPOLYLINE
  5
49A
330
18
100
AcDbEntity
  8
TEXT
100
AcDbPolyline
 90
        2
 70
     0
 43
0.0
 10
-5.443363160088422
 20
3.98393797657312
 42
-0.4142135623731017
 10
-5.435809370922308
 20
3.97638418740701
 42
-0.9999999999999998
  0
LINE
  5
49B
330
18
100
AcDbEntity
  8
TEXT
100
AcDbLine
 10
-5.237553159310738
 20
3.98393797657312
 30
0.0
 11
-5.237553159310738
 21
3.908885570498913
 31
0.0
  0
ARC
  5
49C
330
18
100
AcDbEntity
  8
TEXT
100
AcDbCircle
 10
-5.176833800402711
 20
3.878977421966869
 30
0.0
 40
0.0676855811441166
100
AcDbArc
 50
90.0
 51
153.7768192527749
  0
LWPOLYLINE
  5
49D
330
18
100
AcDbEntity
  8
TEXT
100
AcDbPolyline
 90
        2
 70
     0
 43
0.0
 10
-5.238585654765547
 20
3.825232583191812
 42
0.2901071551932823
 10
-5.195509721897911
 20
3.781741638241374
 42
5.328517124445801
  0
LWPOLYLINE
  5
49E
330
18
100
AcDbEntity
  8
TEXT
100
AcDbPolyline
 90
        2
 70
     0
 43
0.0
 10
-5.314617727219518
 20
3.98393797657312
 42
-0.4142135623731017
 10
-5.307063938053405
 20
3.97638418740701
 42
-0.9999999999999998
  0
LWPOLYLINE
  5
49F
330
18
100
AcDbEntity
  8
TEXT
100
AcDbPolyline
 90
        4
 70
     0
 43
0.0
 10
-5.307063938053405
 20
3.97638418740701
 10
-5.307063938053405
 20
3.781741638241374
 10
-5.238585654765547
 20
3.781741638241374
 10
-5.238585654765547
 20
3.825232583191812
 42
-1.714843617202739
  0
LWPOLYLINE
  5
4A0
330
18
100
AcDbEntity
  8
TEXT
100
AcDbPolyline
 90
        2
 70
     0
 43
0.0
 10
-5.01841637139889
 20
3.825232583191812
 42
-0.2901071551932486
 10
-5.061492304266534
 20
3.781741638241374
 42
-5.328517124445184
  0
LWPOLYLINE
  5
4A1
330
18
100
AcDbEntity
  8
TEXT
100
AcDbPolyline
 90
        2
 70
     0
 43
0.0
 10
-5.01841637139889
 20
3.781741638241374
 10
-4.960061157563556
 20
3.781741638241374
  0
LWPOLYLINE
  5
4A2
330
18
100
AcDbEntity
  8
TEXT
100
AcDbPolyline
 90
        2
 70
     0
 43
0.0
 10
-5.01841637139889
 20
3.825232583191812
 10
-5.01841637139889
 20
3.781741638241374
  0
LINE
  5
4A3
330
18
100
AcDbEntity
  8
TEXT
100
AcDbLine
 10
-5.094545810619326
 20
3.946663003110987
 30
0.0
 11
-5.104810571032892
 21
3.967913542683682
 31
0.0
  0
LINE
  5
4A4
330
18
100
AcDbEntity
  8
TEXT
100
AcDbLine
 10
-4.960061157563554
 20
3.781741638241374
 30
0.0
 11
-4.960061157563561
 21
3.959032143672843
 31
0.0
  0
LINE
  5
4A5
330
18
100
AcDbEntity
  8
TEXT
100
AcDbLine
 10
-4.641647211082041
 20
3.781741638241374
 30
0.0
 11
-4.737139434445651
 21
3.938321428288912
 31
0.0
  0
LINE
  5
4A6
330
18
100
AcDbEntity
  8
TEXT
100
AcDbLine
 10
-4.718225583458249
 20
3.781741638241374
 30
0.0
 11
-4.641647211082041
 21
3.781741638241374
 31
0.0
  0
LINE
  5
4A7
330
18
100
AcDbEntity
  8
TEXT
100
AcDbLine
 10
-4.858507300988332
 20
3.781741638241374
 30
0.0
 11
-4.794129116669711
 21
3.781741638241374
 31
0.0
  0
LINE
  5
4A8
330
18
100
AcDbEntity
  8
TEXT
100
AcDbLine
 10
-4.858507300988339
 20
3.98393797657312
 30
0.0
 11
-4.858507300988332
 21
3.781741638241374
 31
0.0
  0
LINE
  5
4A9
330
18
100
AcDbEntity
  8
TEXT
100
AcDbLine
 10
-4.794129116669711
 20
3.913321206717554
 30
0.0
 11
-4.718225583458249
 21
3.781741638241374
 31
0.0
  0
LINE
  5
4AA
330
18
100
AcDbEntity
  8
TEXT
100
AcDbLine
 10
-4.794129116669711
 20
3.781741638241374
 30
0.0
 11
-4.794129116669711
 21
3.913321206717554
 31
0.0
  0
LINE
  5
4AB
330
18
100
AcDbEntity
  8
TEXT
100
AcDbLine
 10
-5.938492427292658
 20
4.048214671229885
 30
0.0
 11
-6.114224180191168
 21
4.048214671229885
 31
0.0
  0
LWPOLYLINE
  5
4AC
330
18
100
AcDbEntity
  8
TEXT
100
AcDbPolyline
 90
        2
 70
     0
 43
0.0006660908203125
 10
-6.532301875596823
 20
4.021571038417388
 10
-6.532301875596823
 20
4.048214671229889
  0
LWPOLYLINE
  5
4AD
330
18
100
AcDbEntity
  8
TEXT
100
AcDbPolyline
 90
        2
 70
     0
 43
0.0006660908203125
 10
-6.492336426378072
 20
4.021571038417388
 10
-6.492336426378072
 20
4.048214671229889
  0
TEXT
  5
4AE
330
18
100
AcDbEntity
  8
TEXT
100
AcDbText
 10
-4.489583622982637
 20
4.061144300819455
 30
0.0
 40
0.0522247191011236
  1
Stylmark  Incorporated
 41
1.221428571428571
 72
     5
 11
-3.160651038712973
 21
4.061144300819455
 31
0.0
100
AcDbText
  0
LINE
  5
4AF
330
18
100
AcDbEntity
  8
TEXT
100
AcDbLine
 10
-4.862987188314839
 20
4.048214671229885
 30
0.0
 11
-4.930486905964354
 21
4.048214671229885
 31
0.0
  0
TEXT
  5
4B0
330
18
100
AcDbEntity
  8
TEXT
100
AcDbText
 10
-5.65586497170915
 20
4.228291662592954
 30
0.0
 40
0.125
  1
PART #110563
  7
ITALICC
 72
     1
 11
-4.90288878123296
 21
4.228291662592954
 31
0.0
100
AcDbText
  0
LINE
  5
4B1
330
18
100
AcDbEntity
  8
TEXT
100
AcDbLine
 10
-5.4260114370384
 20
4.048214671229885
 30
0.0
 11
-5.560029492969537
 21
4.048214671229885
 31
0.0
  0
LINE
  5
4B2
330
18
100
AcDbEntity
  8
TEXT
100
AcDbLine
 10
-5.878449822448651
 20
4.082602588824023
 30
0.0
 11
-5.938492427292658
 21
4.082602588824023
 31
0.0
  0
LINE
  5
4B3
330
18
100
AcDbEntity
  8
TEXT
100
AcDbLine
 10
-5.938492427292658
 20
4.082602588824023
 30
0.0
 11
-5.938492427292658
 21
4.048214671229885
 31
0.0
  0
LINE
  5
4B4
330
18
100
AcDbEntity
  8
TEXT
100
AcDbLine
 10
-5.806650856304742
 20
4.048214671229885
 30
0.0
 11
-5.878449822448651
 21
4.048214671229885
 31
0.0
  0
LINE
  5
4B5
330
18
100
AcDbEntity
  8
TEXT
100
AcDbLine
 10
-5.878449822448651
 20
4.048214671229885
 30
0.0
 11
-5.878449822448651
 21
4.082602588824023
 31
0.0
  0
LINE
  5
4B6
330
18
100
AcDbEntity
  8
TEXT
100
AcDbLine
 10
-5.592341347107197
 20
4.116226148968696
 30
0.0
 11
-5.659150059673564
 21
4.116226148968696
 31
0.0
  0
LINE
  5
4B7
330
18
100
AcDbEntity
  8
TEXT
100
AcDbLine
 10
-5.659150059673564
 20
4.048214671229885
 30
0.0
 11
-5.68927197246694
 21
4.048214671229885
 31
0.0
  0
LINE
  5
4B8
330
18
100
AcDbEntity
  8
TEXT
100
AcDbLine
 10
-5.659150059673564
 20
4.116226148968696
 30
0.0
 11
-5.659150059673564
 21
4.048214671229885
 31
0.0
  0
LINE
  5
4B9
330
18
100
AcDbEntity
  8
TEXT
100
AcDbLine
 10
-5.101315987578971
 20
4.048214671229885
 30
0.0
 11
-5.23614789679603
 21
4.048214671229885
 31
0.0
  0
LWPOLYLINE
  5
4BA
330
18
100
AcDbEntity
  8
TEXT
100
AcDbPolyline
 90
        3
 70
     0
 43
0.0
 10
-5.271929587509195
 20
4.048214671229889
 10
-5.390229746325239
 20
4.048214671229889
 10
-5.390229746325239
 20
4.021047174468993
 42
-1.960274751411753
  0
LWPOLYLINE
  5
4BB
330
18
100
AcDbEntity
  8
TEXT
100
AcDbPolyline
 90
        2
 70
     0
 43
0.0
 10
-5.4260114370384
 20
4.048214671229889
 42
-0.3328679258950098
 10
-5.390229746325239
 20
4.021047174468993
 42
6.772930709997214
  0
LINE
  5
4BC
330
18
100
AcDbEntity
  8
TEXT
100
AcDbLine
 10
-5.23614789679603
 20
4.048214671229885
 30
0.0
 11
-5.23614789679603
 21
4.019892125460241
 31
0.0
  0
LWPOLYLINE
  5
4BD
330
18
100
AcDbEntity
  8
TEXT
100
AcDbPolyline
 90
        2
 70
     0
 43
0.0
 10
-5.271929587509195
 20
4.048214671229889
 42
-0.3277054968067132
 10
-5.23614789679603
 20
4.019892125460245
 42
6.667889725900311
  0
LINE
  5
4BE
330
18
100
AcDbEntity
  8
TEXT
100
AcDbLine
 10
-4.958459142404429
 20
4.048214671229885
 30
0.0
 11
-5.02235604870393
 21
4.048214671229885
 31
0.0
  0
ARC
  5
4BF
330
18
100
AcDbEntity
  8
TEXT
100
AcDbCircle
 10
-5.103342927356038
 20
4.006631104108983
 30
0.0
 40
0.0416329381542859
100
AcDbArc
 50
26.56974201007528
 51
87.20939649401342
  0
LINE
  5
4C0
330
18
100
AcDbEntity
  8
TEXT
100
AcDbLine
 10
-4.958459142404429
 20
4.02066702136901
 30
0.0
 11
-4.958459142404429
 21
4.048214671229885
 31
0.0
  0
ARC
  5
4C1
330
18
100
AcDbEntity
  8
TEXT
100
AcDbCircle
 10
-4.927266325341319
 20
4.01696894394762
 30
0.0
 40
0.0314112657011332
100
AcDbArc
 50
95.88484768694724
 51
173.2388340632136
  0
LINE
  5
4C2
330
18
100
AcDbEntity
  8
TEXT
100
AcDbLine
 10
-4.672582318479946
 20
4.048214671229885
 30
0.0
 11
-4.747574151209573
 21
4.048214671229885
 31
0.0
  0
LINE
  5
4C3
330
18
100
AcDbEntity
  8
TEXT
100
AcDbLine
 10
-4.862987188314832
 20
4.113678876997486
 30
0.0
 11
-4.862987188314839
 21
4.048214671229885
 31
0.0
  0
LINE
  5
4C4
330
18
100
AcDbEntity
  8
TEXT
100
AcDbLine
 10
-4.794672309765559
 20
4.113678876997486
 30
0.0
 11
-4.862987188314832
 21
4.113678876997486
 31
0.0
  0
ENDSEC
  0
SECTION
  2
OBJECTS
  0
DICTIONARY
  5
C
330
0
100
AcDbDictionary
  3
ACAD_GROUP
350
D
  3
ACAD_LAYOUT
350
4C9
  3
ACAD_MLINESTYLE
350
E
  3
ACAD_PLOTSETTINGS
350
4CA
  3
ACAD_PLOTSTYLENAME
350
4C7
  3
ACDBHEADERROUNDTRIPXREC
350
4D4
  3
ACDBVARIABLEDICTIONARY
350
4D1
  0
DICTIONARY
  5
4F6
330
18
100
AcDbDictionary
280
     1
  3
ACAD_LAYOUTSELFREF
360
4F7
  0
DICTIONARY
  5
4F4
330
15
100
AcDbDictionary
280
     1
  3
ACAD_LAYOUTSELFREF
360
4F5
  0
DICTIONARY
  5
D
102
{ACAD_REACTORS
330
C
102
}
330
C
100
AcDbDictionary
  3
*A1
350
1D8
  3
*A2
350
391
  0
DICTIONARY
  5
4C9
102
{ACAD_REACTORS
330
C
102
}
330
C
100
AcDbDictionary
  0
DICTIONARY
  5
E
102
{ACAD_REACTORS
330
C
102
}
330
C
100
AcDbDictionary
  3
STANDARD
350
1B
  0
DICTIONARY
  5
4CA
102
{ACAD_REACTORS
330
C
102
}
330
C
100
AcDbDictionary
  0
ACDBDICTIONARYWDFLT
  5
4C7
102
{ACAD_REACTORS
330
C
102
}
330
C
100
AcDbDictionary
281
     1
  3
Normal
350
4C8
100
AcDbDictionaryWithDefault
340
4C8
  0
DICTIONARY
  5
4D4
102
{ACAD_REACTORS
330
C
102
}
330
C
100
AcDbDictionary
  3
CEPSNTYPE
350
4DE
  3
FINGERPRINTGUID
350
4DF
  3
HYPERLINKBASE
350
4D7
  3
INSUNITS
350
4DD
  3
LAYOUTDICT
350
4D9
  3
LWETCUNION
350
4DC
  3
PLOTSETDICT
350
4DA
  3
PLOTSTYLNAMDICT
350
4DB
  3
PSVPSCALE
350
4E1
  3
PUCSBASE
350
4E4
  3
PUCSORGBACK
350
4EA
  3
PUCSORGBOTTOM
350
4E6
  3
PUCSORGFRONT
350
4E9
  3
PUCSORGLEFT
350
4E7
  3
PUCSORGRIGHT
350
4E8
  3
PUCSORGTOP
350
4E5
  3
PUCSORTHOREF
350
4E2
  3
PUCSORTHOVIEW
350
4E3
  3
STYLESHEET
350
4D8
  3
TSTACKALIGN
350
4D5
  3
TSTACKSIZE
350
4D6
  3
UCSBASE
350
4ED
  3
UCSORGBACK
350
4F3
  3
UCSORGBOTTOM
350
4EF
  3
UCSORGFRONT
350
4F2
  3
UCSORGLEFT
350
4F0
  3
UCSORGRIGHT
350
4F1
  3
UCSORGTOP
350
4EE
  3
UCSORTHOREF
350
4EB
  3
UCSORTHOVIEW
350
4EC
  3
VERSIONGUID
350
4E0
  0
DICTIONARY
  5
4D1
102
{ACAD_REACTORS
330
C
102
}
330
C
100
AcDbDictionary
  3
DIMASSOC
350
4D2
  0
XRECORD
  5
4F7
102
{ACAD_REACTORS
330
4F6
102
}
330
4F6
100
AcDbXrecord
340
18
  0
XRECORD
  5
4F5
102
{ACAD_REACTORS
330
4F4
102
}
330
4F4
100
AcDbXrecord
340
15
  0
GROUP
  5
1D8
102
{ACAD_REACTORS
330
D
102
}
330
D
100
AcDbGroup
300
BORDER FRAME 10-1-95
 70
     3
 71
     1
  0
GROUP
  5
391
102
{ACAD_REACTORS
330
D
102
}
330
D
100
AcDbGroup
300

 70
     1
 71
     1
  0
MLINESTYLE
  5
1B
102
{ACAD_REACTORS
330
E
102
}
330
E
100
AcDbMlineStyle
  2
STANDARD
 70
     0
  3

 62
     0
 51
90.0
 52
90.0
 71
     2
 49
0.5
 62
   256
  6
BYLAYER
 49
-0.5
 62
   256
  6
BYLAYER
  0
ACDBPLACEHOLDER
  5
4C8
102
{ACAD_REACTORS
330
4C7
102
}
330
4C7
100
AcDbPlaceHolder
280
     0
  0
XRECORD
  5
4DE
102
{ACAD_REACTORS
330
4D4
102
}
330
4D4
100
AcDbXrecord
 90
        0
  0
XRECORD
  5
4DF
102
{ACAD_REACTORS
330
4D4
102
}
330
4D4
100
AcDbXrecord
  1
{7F12DE10-8DB8-11D6-88E6-0090279574E7}
  0
XRECORD
  5
4D7
102
{ACAD_REACTORS
330
4D4
102
}
330
4D4
100
AcDbXrecord
  1

  0
XRECORD
  5
4DD
102
{ACAD_REACTORS
330
4D4
102
}
330
4D4
100
AcDbXrecord
 90
        0
  0
XRECORD
  5
4D9
102
{ACAD_REACTORS
330
4D4
102
}
330
4D4
100
AcDbXrecord
340
4C9
  0
XRECORD
  5
4DC
102
{ACAD_REACTORS
330
4D4
102
}
330
4D4
100
AcDbXrecord
 90
    14877
  0
XRECORD
  5
4DA
102
{ACAD_REACTORS
330
4D4
102
}
330
4D4
100
AcDbXrecord
340
4CA
  0
XRECORD
  5
4DB
102
{ACAD_REACTORS
330
4D4
102
}
330
4D4
100
AcDbXrecord
340
4C7
  0
XRECORD
  5
4E1
102
{ACAD_REACTORS
330
4D4
102
}
330
4D4
100
AcDbXrecord
 40
0.0
  0
XRECORD
  5
4E4
102
{ACAD_REACTORS
330
4D4
102
}
330
4D4
100
AcDbXrecord
340
0
  0
XRECORD
  5
4EA
102
{ACAD_REACTORS
330
4D4
102
}
330
4D4
100
AcDbXrecord
 10
0.0
 20
0.0
 30
0.0
  0
XRECORD
  5
4E6
102
{ACAD_REACTORS
330
4D4
102
}
330
4D4
100
AcDbXrecord
 10
0.0
 20
0.0
 30
0.0
  0
XRECORD
  5
4E9
102
{ACAD_REACTORS
330
4D4
102
}
330
4D4
100
AcDbXrecord
 10
0.0
 20
0.0
 30
0.0
  0
XRECORD
  5
4E7
102
{ACAD_REACTORS
330
4D4
102
}
330
4D4
100
AcDbXrecord
 10
0.0
 20
0.0
 30
0.0
  0
XRECORD
  5
4E8
102
{ACAD_REACTORS
330
4D4
102
}
330
4D4
100
AcDbXrecord
 10
0.0
 20
0.0
 30
0.0
  0
XRECORD
  5
4E5
102
{ACAD_REACTORS
330
4D4
102
}
330
4D4
100
AcDbXrecord
 10
0.0
 20
0.0
 30
0.0
  0
XRECORD
  5
4E2
102
{ACAD_REACTORS
330
4D4
102
}
330
4D4
100
AcDbXrecord
340
0
  0
XRECORD
  5
4E3
102
{ACAD_REACTORS
330
4D4
102
}
330
4D4
100
AcDbXrecord
 70
     0
  0
XRECORD
  5
4D8
102
{ACAD_REACTORS
330
4D4
102
}
330
4D4
100
AcDbXrecord
  1

  0
XRECORD
  5
4D5
102
{ACAD_REACTORS
330
4D4
102
}
330
4D4
100
AcDbXrecord
 90
        1
  0
XRECORD
  5
4D6
102
{ACAD_REACTORS
330
4D4
102
}
330
4D4
100
AcDbXrecord
 90
       70
  0
XRECORD
  5
4ED
102
{ACAD_REACTORS
330
4D4
102
}
330
4D4
100
AcDbXrecord
340
0
  0
XRECORD
  5
4F3
102
{ACAD_REACTORS
330
4D4
102
}
330
4D4
100
AcDbXrecord
 10
0.0
 20
0.0
 30
0.0
  0
XRECORD
  5
4EF
102
{ACAD_REACTORS
330
4D4
102
}
330
4D4
100
AcDbXrecord
 10
0.0
 20
0.0
 30
0.0
  0
XRECORD
  5
4F2
102
{ACAD_REACTORS
330
4D4
102
}
330
4D4
100
AcDbXrecord
 10
0.0
 20
0.0
 30
0.0
  0
XRECORD
  5
4F0
102
{ACAD_REACTORS
330
4D4
102
}
330
4D4
100
AcDbXrecord
 10
0.0
 20
0.0
 30
0.0
  0
XRECORD
  5
4F1
102
{ACAD_REACTORS
330
4D4
102
}
330
4D4
100
AcDbXrecord
 10
0.0
 20
0.0
 30
0.0
  0
XRECORD
  5
4EE
102
{ACAD_REACTORS
330
4D4
102
}
330
4D4
100
AcDbXrecord
 10
0.0
 20
0.0
 30
0.0
  0
XRECORD
  5
4EB
102
{ACAD_REACTORS
330
4D4
102
}
330
4D4
100
AcDbXrecord
340
0
  0
XRECORD
  5
4EC
102
{ACAD_REACTORS
330
4D4
102
}
330
4D4
100
AcDbXrecord
 70
     0
  0
XRECORD
  5
4E0
102
{ACAD_REACTORS
330
4D4
102
}
330
4D4
100
AcDbXrecord
  1
{7F12DE12-8DB8-11D6-88E6-0090279574E7}
  0
DICTIONARYVAR
  5
4D2
102
{ACAD_REACTORS
330
4D1
102
}
330
4D1
100
DictionaryVariables
280
     0
  1
1
  0
ENDSEC
  0
EOF
