  0
SECTION
  2
HEADER
  9
$ACADVER
  1
AC1014
  9
$ACADMAINTVER
 70
     9
  9
$DWGCODEPAGE
  3
ANSI_1252
  9
$INSBASE
 10
-18.23846058984773
 20
12.03802113579646
 30
0.0
  9
$EXTMIN
 10
0.0000000018558725
 20
0.0826540399714795
 30
0.0
  9
$EXTMAX
 10
3.485219323603001
 20
1.410224911753275
 30
0.0
  9
$LIMMIN
 10
0.0
 20
0.0
  9
$LIMMAX
 10
18.0
 20
12.0
  9
$ORTHOMODE
 70
     1
  9
$REGENMODE
 70
     1
  9
$FILLMODE
 70
     1
  9
$QTEXTMODE
 70
     0
  9
$MIRRTEXT
 70
     0
  9
$DRAGMODE
 70
     2
  9
$LTSCALE
 40
1.0
  9
$OSMODE
 70
    39
  9
$ATTMODE
 70
     1
  9
$TEXTSIZE
 40
0.125
  9
$TRACEWID
 40
0.05
  9
$TEXTSTYLE
  7
ROMANS
  9
$CLAYER
  8
0
  9
$CELTYPE
  6
BYLAYER
  9
$CECOLOR
 62
   256
  9
$CELTSCALE
 40
1.0
  9
$DELOBJ
 70
     1
  9
$DISPSILH
 70
     1
  9
$DIMSCALE
 40
1.0
  9
$DIMASZ
 40
0.125
  9
$DIMEXO
 40
0.125
  9
$DIMDLI
 40
0.375
  9
$DIMRND
 40
0.0
  9
$DIMDLE
 40
0.0
  9
$DIMEXE
 40
0.125
  9
$DIMTP
 40
0.0
  9
$DIMTM
 40
0.0
  9
$DIMTXT
 40
0.125
  9
$DIMCEN
 40
-0.125
  9
$DIMTSZ
 40
0.0
  9
$DIMTOL
 70
     0
  9
$DIMLIM
 70
     0
  9
$DIMTIH
 70
     1
  9
$DIMTOH
 70
     1
  9
$DIMSE1
 70
     0
  9
$DIMSE2
 70
     0
  9
$DIMTAD
 70
     0
  9
$DIMZIN
 70
     4
  9
$DIMBLK
  1

  9
$DIMASO
 70
     1
  9
$DIMSHO
 70
     1
  9
$DIMPOST
  1

  9
$DIMAPOST
  1

  9
$DIMALT
 70
     0
  9
$DIMALTD
 70
     2
  9
$DIMALTF
 40
25.4
  9
$DIMLFAC
 40
0.25
  9
$DIMTOFL
 70
     0
  9
$DIMTVP
 40
0.0
  9
$DIMTIX
 70
     1
  9
$DIMSOXD
 70
     0
  9
$DIMSAH
 70
     0
  9
$DIMBLK1
  1

  9
$DIMBLK2
  1

  9
$DIMSTYLE
  2
STANDARD
  9
$DIMCLRD
 70
     0
  9
$DIMCLRE
 70
     0
  9
$DIMCLRT
 70
     0
  9
$DIMTFAC
 40
1.0
  9
$DIMGAP
 40
0.09375
  9
$DIMJUST
 70
     0
  9
$DIMSD1
 70
     0
  9
$DIMSD2
 70
     0
  9
$DIMTOLJ
 70
     1
  9
$DIMTZIN
 70
     0
  9
$DIMALTZ
 70
     0
  9
$DIMALTTZ
 70
     0
  9
$DIMFIT
 70
     3
  9
$DIMUPT
 70
     0
  9
$DIMUNIT
 70
     2
  9
$DIMDEC
 70
     3
  9
$DIMTDEC
 70
     4
  9
$DIMALTU
 70
     2
  9
$DIMALTTD
 70
     2
  9
$DIMTXSTY
  7
ROMANS
  9
$DIMAUNIT
 70
     0
  9
$LUNITS
 70
     2
  9
$LUPREC
 70
     3
  9
$SKETCHINC
 40
0.1
  9
$FILLETRAD
 40
0.015
  9
$AUNITS
 70
     0
  9
$AUPREC
 70
     2
  9
$MENU
  1
ACAD
  9
$ELEVATION
 40
0.0
  9
$PELEVATION
 40
0.0
  9
$THICKNESS
 40
0.0
  9
$LIMCHECK
 70
     0
  9
$BLIPMODE
 70
     0
  9
$CHAMFERA
 40
0.0
  9
$CHAMFERB
 40
0.0
  9
$CHAMFERC
 40
0.0
  9
$CHAMFERD
 40
0.0
  9
$SKPOLY
 70
     0
  9
$TDCREATE
 40
2449576.370221296
  9
$TDUPDATE
 40
2452458.317569351
  9
$TDINDWG
 40
0.0633167824
  9
$TDUSRTIMER
 40
0.0633167824
  9
$USRTIMER
 70
     1
  9
$ANGBASE
 50
0.0
  9
$ANGDIR
 70
     0
  9
$PDMODE
 70
     0
  9
$PDSIZE
 40
0.0
  9
$PLINEWID
 40
0.0
  9
$COORDS
 70
     2
  9
$SPLFRAME
 70
     0
  9
$SPLINETYPE
 70
     6
  9
$SPLINESEGS
 70
     8
  9
$ATTDIA
 70
     0
  9
$ATTREQ
 70
     1
  9
$HANDLING
 70
 22529
  9
$HANDSEED
  5
B4595A0C407B7440
  9
$SURFTAB1
 70
     6
  9
$SURFTAB2
 70
     6
  9
$SURFTYPE
 70
     6
  9
$SURFU
 70
     6
  9
$SURFV
 70
     6
  9
$UCSNAME
  2

  9
$UCSORG
 10
0.0
 20
0.0
 30
0.0
  9
$UCSXDIR
 10
1.0
 20
0.0
 30
0.0
  9
$UCSYDIR
 10
0.0
 20
1.0
 30
0.0
  9
$PUCSNAME
  2

  9
$PUCSORG
 10
0.0
 20
0.0
 30
0.0
  9
$PUCSXDIR
 10
1.0
 20
0.0
 30
0.0
  9
$PUCSYDIR
 10
0.0
 20
1.0
 30
0.0
  9
$USERI1
 70
     0
  9
$USERI2
 70
     0
  9
$USERI3
 70
     0
  9
$USERI4
 70
     0
  9
$USERI5
 70
     0
  9
$USERR1
 40
0.0
  9
$USERR2
 40
0.0
  9
$USERR3
 40
0.0
  9
$USERR4
 40
0.0
  9
$USERR5
 40
0.0
  9
$WORLDVIEW
 70
     1
  9
$SHADEDGE
 70
     3
  9
$SHADEDIF
 70
    70
  9
$TILEMODE
 70
     1
  9
$MAXACTVP
 70
    16
  9
$PINSBASE
 10
0.0
 20
0.0
 30
0.0
  9
$PLIMCHECK
 70
     0
  9
$PEXTMIN
 10
1.000000000000000E+20
 20
1.000000000000000E+20
 30
1.000000000000000E+20
  9
$PEXTMAX
 10
-1.000000000000000E+20
 20
-1.000000000000000E+20
 30
-1.000000000000000E+20
  9
$PLIMMIN
 10
0.0
 20
0.0
  9
$PLIMMAX
 10
12.0
 20
9.0
  9
$UNITMODE
 70
     0
  9
$VISRETAIN
 70
     0
  9
$PLINEGEN
 70
     1
  9
$PSLTSCALE
 70
     0
  9
$TREEDEPTH
 70
  3020
  9
$PICKSTYLE
 70
     1
  9
$CMLSTYLE
  2
STANDARD
  9
$CMLJUST
 70
     0
  9
$CMLSCALE
 40
1.0
  9
$PROXYGRAPHICS
 70
     1
  9
$MEASUREMENT
 70
     0
  0
ENDSEC
  0
SECTION
  2
CLASSES
  0
CLASS
  1
LWPOLYLINE
  2
AcDbPolyline
  3
AutoCAD 2000
 90
        0
280
     0
281
     1
  0
CLASS
  1
ACDBDICTIONARYWDFLT
  2
AcDbDictionaryWithDefault
  3
AutoCAD 2000
 90
        0
280
     0
281
     0
  0
CLASS
  1
ACDBPLACEHOLDER
  2
AcDbPlaceHolder
  3
AutoCAD 2000
 90
        0
280
     0
281
     0
  0
CLASS
  1
LAYOUT
  2
AcDbLayout
  3
AutoCAD 2000
 90
        0
280
     0
281
     0
  0
CLASS
  1
DICTIONARYVAR
  2
AcDbDictionaryVar
  3
AutoCAD 2000
 90
        0
280
     0
281
     0
  0
CLASS
  1
LONG_TRANSACTION
  2
AcDbLongTransaction
  3
AutoCAD 2000
 90
        0
280
     0
281
     0
  0
CLASS
  1
LWPOLYLINE
  2
AcDbPolyline
  3
AutoCAD 2000
 90
        0
280
     0
281
     1
  0
CLASS
  1
HATCH
  2
AcDbHatch
  3
AutoCAD 2000
 90
        0
280
     0
281
     1
  0
CLASS
  1
XRECORD
  2
AcDbXrecord
  3
AutoCAD 2000
 90
        0
280
     0
281
     0
  0
ENDSEC
  0
SECTION
  2
TABLES
  0
TABLE
  2
VPORT
  5
3066A19F46647EF
330
0
100
AcDbSymbolTable
 70
     2
  0
VPORT
  5
B4595A0C407B741B
330
3066A19F46647EF
100
AcDbSymbolTableRecord
100
AcDbViewportTableRecord
  2
*ACTIVE
 70
     0
 10
0.0
 20
0.0
 11
1.0
 21
1.0
 12
4.664941655686434
 22
0.7463381604548598
 13
0.0
 23
0.0
 14
0.015625
 24
0.015625
 15
0.0
 25
0.0
 16
0.0
 26
0.0
 36
1.0
 17
0.0
 27
0.0
 37
0.0
 40
2.163675904046961
 41
4.320930232558139
 42
50.0
 43
0.0
 44
0.0
 50
0.0
 51
0.0
 71
     0
 72
  2000
 73
     1
 74
     1
 75
     1
 76
     0
 77
     0
 78
     0
  0
ENDTAB
  0
TABLE
  2
LTYPE
  5
3066A19F46647EC
330
0
100
AcDbSymbolTable
 70
     1
  0
LTYPE
  5
3066A19F46647F9
330
3066A19F46647EC
100
AcDbSymbolTableRecord
100
AcDbLinetypeTableRecord
  2
BYBLOCK
 70
     0
  3

 72
    65
 73
     0
 40
0.0
  0
LTYPE
  5
3066A19F46647FA
330
3066A19F46647EC
100
AcDbSymbolTableRecord
100
AcDbLinetypeTableRecord
  2
BYLAYER
 70
     0
  3

 72
    65
 73
     0
 40
0.0
  0
LTYPE
  5
3066A19F46647FB
330
3066A19F46647EC
100
AcDbSymbolTableRecord
100
AcDbLinetypeTableRecord
  2
CONTINUOUS
 70
     0
  3
Solid line
 72
    65
 73
     0
 40
0.0
  0
ENDTAB
  0
TABLE
  2
LAYER
  5
3066A19F46647E9
330
0
100
AcDbSymbolTable
 70
     2
  0
LAYER
  5
3066A19F46647F6
330
3066A19F46647E9
100
AcDbSymbolTableRecord
100
AcDbLayerTableRecord
  2
0
 70
     0
 62
     7
  6
CONTINUOUS
  0
LAYER
  5
3066A19F466480E
330
3066A19F46647E9
100
AcDbSymbolTableRecord
100
AcDbLayerTableRecord
  2
TEXT
 70
     0
 62
     3
  6
CONTINUOUS
  0
ENDTAB
  0
TABLE
  2
STYLE
  5
3066A19F46647EA
330
0
100
AcDbSymbolTable
 70
     3
  0
STYLE
  5
3066A19F46647F7
330
3066A19F46647EA
100
AcDbSymbolTableRecord
100
AcDbTextStyleTableRecord
  2
STANDARD
 70
     0
 40
0.0
 41
1.0
 50
0.0
 71
     0
 42
0.125
  3
txt
  4

  0
STYLE
  5
3066A19F4664807
330
3066A19F46647EA
100
AcDbSymbolTableRecord
100
AcDbTextStyleTableRecord
  2
ROMANS
 70
     0
 40
0.0
 41
1.0
 50
0.0
 71
     0
 42
0.125
  3
romans.shx
  4

  0
STYLE
  5
B4595A0C407B7309
330
3066A19F46647EA
100
AcDbSymbolTableRecord
100
AcDbTextStyleTableRecord
  2
ITALICC
 70
     0
 40
0.0
 41
1.0
 50
0.0
 71
     0
 42
0.125
  3
italicc
  4

  0
ENDTAB
  0
TABLE
  2
VIEW
  5
3066A19F46647ED
330
0
100
AcDbSymbolTable
 70
     0
  0
ENDTAB
  0
TABLE
  2
UCS
  5
3066A19F46647EE
330
0
100
AcDbSymbolTable
 70
     0
  0
ENDTAB
  0
TABLE
  2
APPID
  5
3066A19F46647F0
330
0
100
AcDbSymbolTable
 70
     1
  0
APPID
  5
3066A19F46647F8
330
3066A19F46647F0
100
AcDbSymbolTableRecord
100
AcDbRegAppTableRecord
  2
ACAD
 70
     0
  0
ENDTAB
  0
TABLE
  2
DIMSTYLE
  5
3066A19F46647F1
330
0
100
AcDbSymbolTable
 70
     1
  0
DIMSTYLE
105
B4595A0C407B72FE
330
3066A19F46647F1
100
AcDbSymbolTableRecord
100
AcDbDimStyleTableRecord
  2
STANDARD
 70
     0
  3

  4

  5

  6

  7

 40
1.0
 41
0.18
 42
0.0625
 43
0.38
 44
0.18
 45
0.0
 46
0.0
 47
0.0
 48
0.0
140
0.18
141
0.09
142
0.0
143
25.4
144
1.0
145
0.0
146
1.0
147
0.09
 71
     0
 72
     0
 73
     1
 74
     1
 75
     0
 76
     0
 77
     0
 78
     0
170
     0
171
     2
172
     0
173
     0
174
     0
175
     0
176
     0
177
     0
178
     0
270
     2
271
     4
272
     4
273
     2
274
     2
340
3066A19F46647F7
275
     0
280
     0
281
     0
282
     0
283
     1
284
     0
285
     0
286
     0
287
     3
288
     0
  0
ENDTAB
  0
TABLE
  2
BLOCK_RECORD
  5
3066A19F46647E8
330
0
100
AcDbSymbolTable
 70
     0
  0
BLOCK_RECORD
  5
3066A19F46647FF
102
{ACAD_XDICTIONARY
360
B4595A0C407B743E
102
}
330
3066A19F46647E8
100
AcDbSymbolTableRecord
100
AcDbBlockTableRecord
  2
*MODEL_SPACE
  0
BLOCK_RECORD
  5
3066A19F46647FC
102
{ACAD_XDICTIONARY
360
B4595A0C407B743C
102
}
330
3066A19F46647E8
100
AcDbSymbolTableRecord
100
AcDbBlockTableRecord
  2
*PAPER_SPACE
  0
ENDTAB
  0
ENDSEC
  0
SECTION
  2
BLOCKS
  0
BLOCK
  5
3066A19F4664813
330
3066A19F46647FF
100
AcDbEntity
  8
0
100
AcDbBlockBegin
  2
*MODEL_SPACE
 70
     0
 10
0.0
 20
0.0
 30
0.0
  3
*MODEL_SPACE
  1

  0
ENDBLK
  5
3066A19F4664814
330
3066A19F46647FF
100
AcDbEntity
  8
0
100
AcDbBlockEnd
  0
BLOCK
  5
3066A19F4664811
330
3066A19F46647FC
100
AcDbEntity
 67
     1
  8
0
100
AcDbBlockBegin
  2
*PAPER_SPACE
 70
     0
 10
0.0
 20
0.0
 30
0.0
  3
*PAPER_SPACE
  1

  0
ENDBLK
  5
3066A19F4664812
330
3066A19F46647FC
100
AcDbEntity
 67
     1
  8
0
100
AcDbBlockEnd
  0
ENDSEC
  0
SECTION
  2
ENTITIES
  0
LWPOLYLINE
  5
B4595A0C407B70D8
330
3066A19F46647FF
100
AcDbEntity
  8
0
 62
     7
100
AcDbPolyline
 90
       18
 70
     1
 43
0.0
 10
1.801106064774085
 20
0.9969769338740732
 10
2.991807461105338
 20
0.9969769338740768
 10
2.991774573608232
 20
1.410224911753275
 10
2.883279559227702
 20
1.347573772993495
 42
0.3981639325838586
 10
2.871123062353539
 20
1.306728219097067
 10
2.919915647157843
 20
1.288969170575391
 42
-0.3152769153746972
 10
2.929785344960457
 20
1.274874975007993
 10
2.929801332926118
 20
1.073978127618467
 42
-0.4142368718742795
 10
2.914801332973617
 20
1.058976933874077
 10
1.801106064774085
 20
1.05897693387407
 10
0.7174107965745691
 20
1.058976933874077
 42
-0.4142368718742795
 10
0.7024107966220683
 20
1.073978127618467
 10
0.7024267845877255
 20
1.274874975007985
 42
-0.3152769153747021
 10
0.7122964823903395
 20
1.288969170575384
 10
0.7610890671946429
 20
1.306728219097063
 42
0.3981639325839447
 10
0.7489325703204806
 20
1.347573772993492
 10
0.6404375559399505
 20
1.410224911753271
 10
0.6404046684428302
 20
0.9969769338740768
  0
LINE
  5
B4595A0C407B738E
330
3066A19F46647FF
100
AcDbEntity
  8
TEXT
100
AcDbLine
 10
1.851198052550415
 20
0.2847303262794547
 30
0.0
 11
1.851198052550415
 21
0.4260598584585935
 31
0.0
  0
LINE
  5
B4595A0C407B738F
330
3066A19F46647FF
100
AcDbEntity
  8
TEXT
100
AcDbLine
 10
1.898296211106398
 20
0.3605956526909928
 30
0.0
 11
1.851198052550415
 21
0.2847303262794547
 31
0.0
  0
LINE
  5
B4595A0C407B7390
330
3066A19F46647FF
100
AcDbEntity
  8
TEXT
100
AcDbLine
 10
1.908730927870323
 20
0.2507024097500192
 30
0.0
 11
1.973288043836028
 21
0.3605956526909928
 31
0.0
  0
TEXT
  5
B4595A0C407B7391
330
3066A19F46647FF
100
AcDbEntity
  8
TEXT
100
AcDbText
 10
2.156286739333337
 20
0.2802668553142702
 30
0.0
 40
0.0522247191011236
  1
6536 Main St. N.E. * P.O. Box 32008
 41
0.8388932496075355
 72
     5
 11
3.485219323603001
 21
0.2802668553142702
 31
0.0
100
AcDbText
  0
ARC
  5
B4595A0C407B7392
330
3066A19F46647FF
100
AcDbEntity
  8
TEXT
100
AcDbCircle
 10
1.710715080035077
 20
0.2714130827515646
 30
0.0
 40
0.0249058752826653
100
AcDbArc
 50
89.99971217465335
 51
179.9999999999985
  0
LINE
  5
B4595A0C407B7393
330
3066A19F46647FF
100
AcDbEntity
  8
TEXT
100
AcDbLine
 10
1.623514313612044
 20
0.2553836741375655
 30
0.0
 11
1.579763542430143
 21
0.3376339501337107
 31
0.0
  0
LINE
  5
B4595A0C407B7394
330
3066A19F46647FF
100
AcDbEntity
  8
TEXT
100
AcDbLine
 10
1.623514313612044
 20
0.3605956526909928
 30
0.0
 11
1.623514313612044
 21
0.2553836741375655
 31
0.0
  0
ARC
  5
B4595A0C407B7395
330
3066A19F46647FF
100
AcDbEntity
  8
TEXT
100
AcDbCircle
 10
1.515523476392525
 20
0.2679595830342301
 30
0.0
 40
0.028359375
100
AcDbArc
 50
25.78218179591245
 51
90.0
  0
LINE
  5
B4595A0C407B7396
330
3066A19F46647FF
100
AcDbEntity
  8
TEXT
100
AcDbLine
 10
1.053529015208777
 20
0.176510457805481
 30
0.0
 11
1.053529015208777
 21
0.4286071304298034
 31
0.0
  0
LINE
  5
B4595A0C407B7397
330
3066A19F46647FF
100
AcDbEntity
  8
TEXT
100
AcDbLine
 10
1.085840869346437
 20
0.3605956526909928
 30
0.0
 11
1.085840869346437
 21
0.1597314459585846
 31
0.0
  0
LINE
  5
B4595A0C407B7398
330
3066A19F46647FF
100
AcDbEntity
  8
TEXT
100
AcDbLine
 10
0.9565983898490344
 20
0.3605956526909928
 30
0.0
 11
0.8978498270431707
 21
0.2597236565778722
 31
0.0
  0
LINE
  5
B4595A0C407B7399
330
3066A19F46647FF
100
AcDbEntity
  8
TEXT
100
AcDbLine
 10
0.8978498270431707
 20
0.2597236565778722
 30
0.0
 11
0.8392195060112328
 21
0.3605956526909928
 31
0.0
  0
ARC
  5
B4595A0C407B739A
330
3066A19F46647FF
100
AcDbEntity
  8
TEXT
100
AcDbCircle
 10
0.5316461821248062
 20
0.278508193244491
 30
0.0
 40
0.0820874594465043
100
AcDbArc
 50
90.0
 51
270.0
  0
LWPOLYLINE
  5
B4595A0C407B739B
330
3066A19F46647FF
100
AcDbEntity
  8
TEXT
100
AcDbPolyline
 90
        2
 70
     0
 43
0.0001332181640625
 10
0.1235598490238416
 20
0.2873256624566167
 10
0.1135684867191511
 20
0.3605956526909964
  0
LWPOLYLINE
  5
B4595A0C407B739C
330
3066A19F46647FF
100
AcDbEntity
  8
TEXT
100
AcDbPolyline
 90
        2
 70
     0
 43
0.0001332181640625
 10
0.1135684867191511
 20
0.3339520198784953
 10
0.1235598490238416
 20
0.2740038460503698
  0
LWPOLYLINE
  5
B4595A0C407B739D
330
3066A19F46647FF
100
AcDbEntity
  8
TEXT
100
AcDbPolyline
 90
        2
 70
     0
 43
0.0001332181640625
 10
0.1535339359379026
 20
0.3339520198784953
 10
0.1435425736332139
 20
0.2740038460503698
  0
LWPOLYLINE
  5
B4595A0C407B739E
330
3066A19F46647FF
100
AcDbEntity
  8
TEXT
100
AcDbPolyline
 90
        2
 70
     0
 43
0.0001332181640625
 10
0.1535339359379026
 20
0.3605956526909964
 10
0.1435425736332139
 20
0.2873256624566167
  0
LWPOLYLINE
  5
B4595A0C407B739F
330
3066A19F46647FF
100
AcDbEntity
  8
TEXT
100
AcDbPolyline
 90
        3
 70
     0
 43
0.0006660908203125
 10
0.2667693753910285
 20
0.2473602132378687
 10
0.2667693753910285
 20
0.3605956526909964
 10
0.1535339359379026
 20
0.3605956526909964
  0
LWPOLYLINE
  5
B4595A0C407B73A0
330
3066A19F46647FF
100
AcDbEntity
  8
TEXT
100
AcDbPolyline
 90
        3
 70
     0
 43
0.0006660908203125
 10
0.2401257425785275
 20
0.2473602132378687
 10
0.2401257425785275
 20
0.3339520198784953
 10
0.1535339359379026
 20
0.3339520198784953
  0
LWPOLYLINE
  5
B4595A0C407B73A1
330
3066A19F46647FF
100
AcDbEntity
  8
TEXT
100
AcDbPolyline
 90
        2
 70
     0
 43
0.0001332181640625
 10
0.2401257425785275
 20
0.3339520198784953
 10
0.1801775687504037
 20
0.2740038460503698
  0
LWPOLYLINE
  5
B4595A0C407B73A2
330
3066A19F46647FF
100
AcDbEntity
  8
TEXT
100
AcDbPolyline
 90
        2
 70
     0
 43
0.0001332181640625
 10
0.0269766800785263
 20
0.3339520198784953
 10
0.0869248539066519
 20
0.2740038460503698
  0
LWPOLYLINE
  5
B4595A0C407B73A3
330
3066A19F46647FF
100
AcDbEntity
  8
TEXT
100
AcDbPolyline
 90
        3
 70
     0
 43
0.0006660908203125
 10
0.1135684867191511
 20
0.3605956526909964
 10
0.0003330472660288
 20
0.3605956526909964
 10
0.0003330472660288
 20
0.2473602132378687
  0
LWPOLYLINE
  5
B4595A0C407B73A4
330
3066A19F46647FF
100
AcDbEntity
  8
TEXT
100
AcDbPolyline
 90
        3
 70
     0
 43
0.0006660908203125
 10
0.1135684867191511
 20
0.3339520198784953
 10
0.0269766800785263
 20
0.3339520198784953
 10
0.0269766800785263
 20
0.2473602132378687
  0
LINE
  5
B4595A0C407B73A5
330
3066A19F46647FF
100
AcDbEntity
  8
TEXT
100
AcDbLine
 10
0.6024836484833554
 20
0.2605142364235995
 30
0.0
 11
0.5368835122390543
 21
0.2605142364235995
 31
0.0
  0
LINE
  5
B4595A0C407B73A6
330
3066A19F46647FF
100
AcDbEntity
  8
TEXT
100
AcDbLine
 10
0.5316461821248062
 20
0.1964207337979857
 30
0.0
 11
0.607424022389635
 21
0.1964207337979857
 31
0.0
  0
LINE
  5
B4595A0C407B73A7
330
3066A19F46647FF
100
AcDbEntity
  8
TEXT
100
AcDbLine
 10
0.4495587226783027
 20
0.0941226197024818
 30
0.0
 11
0.6024836484833554
 21
0.0941226197024818
 31
0.0
  0
LINE
  5
B4595A0C407B73A8
330
3066A19F46647FF
100
AcDbEntity
  8
TEXT
100
AcDbLine
 10
0.607424022389635
 20
0.1624796260359211
 30
0.0
 11
0.4495587226783009
 21
0.1624796260359211
 31
0.0
  0
LINE
  5
B4595A0C407B73A9
330
3066A19F46647FF
100
AcDbEntity
  8
TEXT
100
AcDbLine
 10
0.5368835122390543
 20
0.2963189580342273
 30
0.0
 11
0.7037891662680238
 21
0.2963189580342273
 31
0.0
  0
LWPOLYLINE
  5
B4595A0C407B73AA
330
3066A19F46647FF
100
AcDbEntity
  8
TEXT
100
AcDbPolyline
 90
        2
 70
     0
 43
0.0006660908203125
 10
0.2401257425785275
 20
0.2473602132378687
 10
0.2667693753910285
 20
0.2473602132378687
  0
LWPOLYLINE
  5
B4595A0C407B73AB
330
3066A19F46647FF
100
AcDbEntity
  8
TEXT
100
AcDbPolyline
 90
        2
 70
     0
 43
0.0001332181640625
 10
0.1934993851566524
 20
0.2373688509331799
 10
0.2667693753910285
 20
0.2473602132378687
  0
LWPOLYLINE
  5
B4595A0C407B73AC
330
3066A19F46647FF
100
AcDbEntity
  8
TEXT
100
AcDbPolyline
 90
        2
 70
     0
 43
0.0006660908203125
 10
0.2401257425785275
 20
0.2073947640191207
 10
0.2667693753910285
 20
0.2073947640191207
  0
LWPOLYLINE
  5
B4595A0C407B73AD
330
3066A19F46647FF
100
AcDbEntity
  8
TEXT
100
AcDbPolyline
 90
        3
 70
     0
 43
0.0006660908203125
 10
0.1535339359379026
 20
0.0941593245659931
 10
0.2667693753910285
 20
0.0941593245659931
 10
0.2667693753910285
 20
0.2073947640191207
  0
LWPOLYLINE
  5
B4595A0C407B73AE
330
3066A19F46647FF
100
AcDbEntity
  8
TEXT
100
AcDbPolyline
 90
        2
 70
     0
 43
0.0001332181640625
 10
0.2667693753910285
 20
0.2073947640191207
 10
0.1934993851566524
 20
0.2173861263238059
  0
LWPOLYLINE
  5
B4595A0C407B73AF
330
3066A19F46647FF
100
AcDbEntity
  8
TEXT
100
AcDbPolyline
 90
        3
 70
     0
 43
0.0006660908203125
 10
0.0003330472660288
 20
0.2073947640191207
 10
0.0003330472660288
 20
0.0941593245659931
 10
0.1135684867191511
 20
0.0941593245659931
  0
LWPOLYLINE
  5
B4595A0C407B73B0
330
3066A19F46647FF
100
AcDbEntity
  8
TEXT
100
AcDbPolyline
 90
        3
 70
     0
 43
0.0006660908203125
 10
0.0269766800785263
 20
0.2073947640191207
 10
0.0269766800785263
 20
0.1208029573784941
 10
0.1135684867191511
 20
0.1208029573784941
  0
LWPOLYLINE
  5
B4595A0C407B73B1
330
3066A19F46647FF
100
AcDbEntity
  8
TEXT
100
AcDbPolyline
 90
        5
 70
     0
 43
0.0001332181640625
 10
0.1235598490238416
 20
0.1674293148003692
 10
0.1235598490238416
 20
0.1807511312066197
 10
0.0869248539066536
 20
0.1807511312066197
 10
0.0869248539066536
 20
0.2173861263238059
 10
0.0736030375004031
 20
0.2173861263238059
  0
LWPOLYLINE
  5
B4595A0C407B73B2
330
3066A19F46647FF
100
AcDbEntity
  8
TEXT
100
AcDbPolyline
 90
        5
 70
     0
 43
0.0001332181640625
 10
0.0736030375004031
 20
0.2373688509331799
 10
0.0869248539066519
 20
0.2373688509331799
 10
0.0869248539066519
 20
0.2740038460503698
 10
0.1235598490238416
 20
0.2740038460503698
 10
0.1235598490238416
 20
0.2873256624566167
  0
LWPOLYLINE
  5
B4595A0C407B73B3
330
3066A19F46647FF
100
AcDbEntity
  8
TEXT
100
AcDbPolyline
 90
        2
 70
     0
 43
0.0001332181640625
 10
0.0269766800785263
 20
0.2473602132378687
 10
0.0869248539066519
 20
0.2373688509331799
  0
LWPOLYLINE
  5
B4595A0C407B73B4
330
3066A19F46647FF
100
AcDbEntity
  8
TEXT
100
AcDbPolyline
 90
        2
 70
     0
 43
0.0001332181640625
 10
0.0003330472660288
 20
0.2473602132378687
 10
0.0736030375004031
 20
0.2373688509331799
  0
LWPOLYLINE
  5
B4595A0C407B73B5
330
3066A19F46647FF
100
AcDbEntity
  8
TEXT
100
AcDbPolyline
 90
        2
 70
     0
 43
0.0006660908203125
 10
0.0269766800785263
 20
0.2473602132378687
 10
0.0003330472660288
 20
0.2473602132378687
  0
LWPOLYLINE
  5
B4595A0C407B73B6
330
3066A19F46647FF
100
AcDbEntity
  8
TEXT
100
AcDbPolyline
 90
        2
 70
     0
 43
0.0001332181640625
 10
0.0269766800785263
 20
0.1208029573784941
 10
0.0869248539066536
 20
0.1807511312066197
  0
LWPOLYLINE
  5
B4595A0C407B73B7
330
3066A19F46647FF
100
AcDbEntity
  8
TEXT
100
AcDbPolyline
 90
        2
 70
     0
 43
0.0006660908203125
 10
0.0269766800785263
 20
0.2073947640191207
 10
0.0003330472660288
 20
0.2073947640191207
  0
LWPOLYLINE
  5
B4595A0C407B73B8
330
3066A19F46647FF
100
AcDbEntity
  8
TEXT
100
AcDbPolyline
 90
        2
 70
     0
 43
0.0001332181640625
 10
0.0736030375004031
 20
0.2173861263238059
 10
0.0003330472660288
 20
0.2073947640191207
  0
LWPOLYLINE
  5
B4595A0C407B73B9
330
3066A19F46647FF
100
AcDbEntity
  8
TEXT
100
AcDbPolyline
 90
        2
 70
     0
 43
0.0001332181640625
 10
0.0269766800785263
 20
0.2073947640191207
 10
0.0869248539066536
 20
0.2173861263238059
  0
LWPOLYLINE
  5
B4595A0C407B73BA
330
3066A19F46647FF
100
AcDbEntity
  8
TEXT
100
AcDbPolyline
 90
        5
 70
     0
 43
0.0001332181640625
 10
0.1435425736332139
 20
0.2873256624566167
 10
0.1435425736332139
 20
0.2740038460503698
 10
0.1801775687504037
 20
0.2740038460503698
 10
0.1801775687504037
 20
0.2373688509331799
 10
0.1934993851566524
 20
0.2373688509331799
  0
LWPOLYLINE
  5
B4595A0C407B73BB
330
3066A19F46647FF
100
AcDbEntity
  8
TEXT
100
AcDbPolyline
 90
        2
 70
     0
 43
0.0001332181640625
 10
0.2401257425785275
 20
0.2473602132378687
 10
0.1801775687504037
 20
0.2373688509331799
  0
LWPOLYLINE
  5
B4595A0C407B73BC
330
3066A19F46647FF
100
AcDbEntity
  8
TEXT
100
AcDbPolyline
 90
        2
 70
     0
 43
0.0006660908203125
 10
0.1135684867191511
 20
0.1208029573784941
 10
0.1135684867191511
 20
0.0941593245659931
  0
LWPOLYLINE
  5
B4595A0C407B73BD
330
3066A19F46647FF
100
AcDbEntity
  8
TEXT
100
AcDbPolyline
 90
        2
 70
     0
 43
0.0001332181640625
 10
0.1135684867191511
 20
0.1208029573784941
 10
0.1235598490238416
 20
0.1807511312066197
  0
LWPOLYLINE
  5
B4595A0C407B73BE
330
3066A19F46647FF
100
AcDbEntity
  8
TEXT
100
AcDbPolyline
 90
        2
 70
     0
 43
0.0001332181640625
 10
0.1135684867191511
 20
0.0941593245659931
 10
0.1235598490238416
 20
0.1674293148003692
  0
LWPOLYLINE
  5
B4595A0C407B73BF
330
3066A19F46647FF
100
AcDbEntity
  8
TEXT
100
AcDbPolyline
 90
        2
 70
     0
 43
0.0001332181640625
 10
0.1535339359379026
 20
0.1208029573784941
 10
0.1435425736332139
 20
0.1807511312066197
  0
LWPOLYLINE
  5
B4595A0C407B73C0
330
3066A19F46647FF
100
AcDbEntity
  8
TEXT
100
AcDbPolyline
 90
        2
 70
     0
 43
0.0001332181640625
 10
0.1435425736332139
 20
0.1674293148003692
 10
0.1535339359379026
 20
0.0941593245659931
  0
LWPOLYLINE
  5
B4595A0C407B73C1
330
3066A19F46647FF
100
AcDbEntity
  8
TEXT
100
AcDbPolyline
 90
        2
 70
     0
 43
0.0006660908203125
 10
0.1535339359379026
 20
0.1208029573784941
 10
0.1535339359379026
 20
0.0941593245659931
  0
LWPOLYLINE
  5
B4595A0C407B73C2
330
3066A19F46647FF
100
AcDbEntity
  8
TEXT
100
AcDbPolyline
 90
        2
 70
     0
 43
0.0001332181640625
 10
0.2401257425785275
 20
0.1208029573784941
 10
0.1801775687504037
 20
0.1807511312066197
  0
LWPOLYLINE
  5
B4595A0C407B73C3
330
3066A19F46647FF
100
AcDbEntity
  8
TEXT
100
AcDbPolyline
 90
        3
 70
     0
 43
0.0006660908203125
 10
0.1535339359379026
 20
0.1208029573784941
 10
0.2401257425785275
 20
0.1208029573784941
 10
0.2401257425785275
 20
0.2073947640191207
  0
LWPOLYLINE
  5
B4595A0C407B73C4
330
3066A19F46647FF
100
AcDbEntity
  8
TEXT
100
AcDbPolyline
 90
        2
 70
     0
 43
0.0001332181640625
 10
0.2401257425785275
 20
0.2073947640191207
 10
0.1801775687504037
 20
0.2173861263238059
  0
LWPOLYLINE
  5
B4595A0C407B73C5
330
3066A19F46647FF
100
AcDbEntity
  8
TEXT
100
AcDbPolyline
 90
        5
 70
     0
 43
0.0001332181640625
 10
0.1934993851566524
 20
0.2173861263238059
 10
0.1801775687504037
 20
0.2173861263238059
 10
0.1801775687504037
 20
0.1807511312066197
 10
0.1435425736332139
 20
0.1807511312066197
 10
0.1435425736332139
 20
0.1674293148003692
  0
ARC
  5
B4595A0C407B73C6
330
3066A19F46647FF
100
AcDbEntity
  8
TEXT
100
AcDbCircle
 10
0.5368835122390543
 20
0.2784165972289152
 30
0.0
 40
0.017902360805315
100
AcDbArc
 50
90.0
 51
270.0
  0
LINE
  5
B4595A0C407B73C7
330
3066A19F46647FF
100
AcDbEntity
  8
TEXT
100
AcDbLine
 10
0.4495587226783009
 20
0.1624796260359211
 30
0.0
 11
0.4495587226783027
 21
0.0941226197024818
 31
0.0
  0
TEXT
  5
B4595A0C407B73C8
330
3066A19F46647FF
100
AcDbEntity
  8
TEXT
100
AcDbText
 10
2.156286739333337
 20
0.0937500013816859
 30
0.0
 40
0.0522247191011236
  1
Phone  1-800-328-2495
 41
1.272321428571429
 72
     5
 11
3.485219323603001
 21
0.0937500013816859
 31
0.0
100
AcDbText
  0
TEXT
  5
B4595A0C407B73C9
330
3066A19F46647FF
100
AcDbEntity
  8
TEXT
100
AcDbText
 10
2.156286739333337
 20
0.187008428347978
 30
0.0
 40
0.0522247191011236
  1
Minneapolis, MN 55432-0008
 41
1.11444212721585
 72
     5
 11
3.485219323603001
 21
0.187008428347978
 31
0.0
100
AcDbText
  0
LINE
  5
B4595A0C407B73CA
330
3066A19F46647FF
100
AcDbEntity
  8
TEXT
100
AcDbLine
 10
1.710715080035079
 20
0.2963189580342273
 30
0.0
 11
1.787363061327635
 21
0.2963189580342273
 31
0.0
  0
LINE
  5
B4595A0C407B73CB
330
3066A19F46647FF
100
AcDbEntity
  8
TEXT
100
AcDbLine
 10
1.152671922404405
 20
0.2963189580342273
 30
0.0
 11
1.202507202227554
 21
0.2963189580342273
 31
0.0
  0
ARC
  5
B4595A0C407B73CC
330
3066A19F46647FF
100
AcDbEntity
  8
TEXT
100
AcDbCircle
 10
0.8542060301340015
 20
0.1336703419761775
 30
0.0
 40
0.0392772371940762
100
AcDbArc
 50
270.1604552698595
 51
330.0831797321295
  0
ARC
  5
B4595A0C407B73CD
330
3066A19F46647FF
100
AcDbEntity
  8
TEXT
100
AcDbCircle
 10
0.7639051842417768
 20
0.1539150110405316
 30
0.0
 40
0.0601160179737537
100
AcDbArc
 50
180.0000000000003
 51
264.0521544866073
  0
LINE
  5
B4595A0C407B73CE
330
3066A19F46647FF
100
AcDbEntity
  8
TEXT
100
AcDbLine
 10
0.7037891662680238
 20
0.2963189580342273
 30
0.0
 11
0.7037891662680238
 21
0.1539150110405316
 31
0.0
  0
ARC
  5
B4595A0C407B73CF
330
3066A19F46647FF
100
AcDbEntity
  8
TEXT
100
AcDbCircle
 10
0.607424022389635
 20
0.1794501799169552
 30
0.0
 40
0.0169705538810321
100
AcDbArc
 50
270.0
 51
90.0
  0
ARC
  5
B4595A0C407B73D0
330
3066A19F46647FF
100
AcDbEntity
  8
TEXT
100
AcDbCircle
 10
0.6024836484833554
 20
0.1773184280630389
 30
0.0
 40
0.0831958083605586
100
AcDbArc
 50
270.0
 51
90.0
  0
LWPOLYLINE
  5
B4595A0C407B73D1
330
3066A19F46647FF
100
AcDbEntity
  8
TEXT
100
AcDbPolyline
 90
        6
 70
     1
 43
0.0
 10
0.8001995773232799
 20
0.2963189580342273
 10
0.7698829831030718
 20
0.2963189580342273
 10
0.7698829831030718
 20
0.173207959979333
 42
0.407328721240804
 10
0.7814266342645482
 20
0.1613890453029469
 10
0.8420483333092789
 20
0.1613890453029469
 10
0.8595136737165969
 20
0.1942012743464261
  0
LINE
  5
B4595A0C407B73D2
330
3066A19F46647FF
100
AcDbEntity
  8
TEXT
100
AcDbLine
 10
0.7576757737481295
 20
0.0941226197024818
 30
0.0
 11
0.8543160248231238
 21
0.0943932588007641
 31
0.0
  0
LWPOLYLINE
  5
B4595A0C407B73D3
330
3066A19F46647FF
100
AcDbEntity
  8
TEXT
100
AcDbPolyline
 90
        2
 70
     0
 43
0.0
 10
0.9855492961396592
 20
0.1456739619174101
 42
0.3318488747599744
 10
1.054668588704972
 20
0.0941226197024818
 42
-6.868794160588311
  0
LINE
  5
B4595A0C407B73D4
330
3066A19F46647FF
100
AcDbEntity
  8
TEXT
100
AcDbLine
 10
0.9855492961396592
 20
0.2784313367427629
 30
0.0
 11
0.9855492961396592
 21
0.1456739619174066
 31
0.0
  0
LINE
  5
B4595A0C407B73D5
330
3066A19F46647FF
100
AcDbEntity
  8
TEXT
100
AcDbLine
 10
0.8882495900462146
 20
0.1140811258074947
 30
0.0
 11
0.9855492961396592
 21
0.2784313367427629
 31
0.0
  0
ARC
  5
B4595A0C407B73D6
330
3066A19F46647FF
100
AcDbEntity
  8
TEXT
100
AcDbCircle
 10
1.068847232461834
 20
0.17511325220201
 30
0.0
 40
0.0153818062434269
100
AcDbArc
 50
174.7883570302258
 51
270.0
  0
LINE
  5
B4595A0C407B73D7
330
3066A19F46647FF
100
AcDbEntity
  8
TEXT
100
AcDbLine
 10
1.085840869346437
 20
0.1597314459585846
 30
0.0
 11
1.068847232461834
 21
0.1597314459585846
 31
0.0
  0
LINE
  5
B4595A0C407B73D8
330
3066A19F46647FF
100
AcDbEntity
  8
TEXT
100
AcDbLine
 10
1.05466858870497
 20
0.0941226197024818
 30
0.0
 11
1.152671922404405
 21
0.0941226197024818
 31
0.0
  0
LINE
  5
B4595A0C407B73D9
330
3066A19F46647FF
100
AcDbEntity
  8
TEXT
100
AcDbLine
 10
1.152671922404405
 20
0.0941226197024818
 30
0.0
 11
1.152671922404405
 21
0.2963189580342273
 31
0.0
  0
LINE
  5
B4595A0C407B73DA
330
3066A19F46647FF
100
AcDbEntity
  8
TEXT
100
AcDbLine
 10
1.515523476392527
 20
0.2963189580342273
 30
0.0
 11
1.408317203005235
 21
0.2963189580342273
 31
0.0
  0
LINE
  5
B4595A0C407B73DB
330
3066A19F46647FF
100
AcDbEntity
  8
TEXT
100
AcDbLine
 10
1.469036561913263
 20
0.2590439845720951
 30
0.0
 11
1.551324551696648
 21
0.2590439845720951
 31
0.0
  0
LWPOLYLINE
  5
B4595A0C407B73DC
330
3066A19F46647FF
100
AcDbEntity
  8
TEXT
100
AcDbPolyline
 90
        4
 70
     1
 43
0.0
 10
1.564255592979547
 20
0.197086597686507
 10
1.475595274319688
 20
0.197086597686507
 42
0.9999999999999998
 10
1.475595274319688
 20
0.1546880571826463
 10
1.564255592979547
 20
0.1546880571826463
 42
1.0
  0
LWPOLYLINE
  5
B4595A0C407B73DD
330
3066A19F46647FF
100
AcDbEntity
  8
TEXT
100
AcDbPolyline
 90
        2
 70
     0
 43
0.0
 10
1.450360640418063
 20
0.0941226197024818
 10
1.584378058049439
 20
0.0941226197024818
 42
0.9999999999999998
  0
LINE
  5
B4595A0C407B73DE
330
3066A19F46647FF
100
AcDbEntity
  8
TEXT
100
AcDbLine
 10
1.277119038175506
 20
0.2963189580342273
 30
0.0
 11
1.331252635096458
 21
0.2963189580342273
 31
0.0
  0
LINE
  5
B4595A0C407B73DF
330
3066A19F46647FF
100
AcDbEntity
  8
TEXT
100
AcDbLine
 10
1.210060991393667
 20
0.0941226197024818
 30
0.0
 11
1.277119038175506
 21
0.0941226197024818
 31
0.0
  0
LINE
  5
B4595A0C407B73E0
330
3066A19F46647FF
100
AcDbEntity
  8
TEXT
100
AcDbLine
 10
1.277119038175506
 20
0.0941226197024818
 30
0.0
 11
1.277119038175506
 21
0.2963189580342273
 31
0.0
  0
LINE
  5
B4595A0C407B73E1
330
3066A19F46647FF
100
AcDbEntity
  8
TEXT
100
AcDbLine
 10
1.210060991393667
 20
0.2887651688681174
 30
0.0
 11
1.210060991393667
 21
0.0941226197024818
 31
0.0
  0
LWPOLYLINE
  5
B4595A0C407B73E2
330
3066A19F46647FF
100
AcDbEntity
  8
TEXT
100
AcDbPolyline
 90
        2
 70
     0
 43
0.0
 10
1.202507202227552
 20
0.2963189580342273
 42
-0.4142135623731017
 10
1.210060991393666
 20
0.2887651688681174
 42
-0.9999999999999998
  0
LINE
  5
B4595A0C407B73E3
330
3066A19F46647FF
100
AcDbEntity
  8
TEXT
100
AcDbLine
 10
1.408317203005235
 20
0.2963189580342273
 30
0.0
 11
1.408317203005235
 21
0.2212665519600208
 31
0.0
  0
ARC
  5
B4595A0C407B73E4
330
3066A19F46647FF
100
AcDbEntity
  8
TEXT
100
AcDbCircle
 10
1.469036561913263
 20
0.1913584034279765
 30
0.0
 40
0.0676855811441166
100
AcDbArc
 50
90.0
 51
153.7768192527749
  0
LWPOLYLINE
  5
B4595A0C407B73E5
330
3066A19F46647FF
100
AcDbEntity
  8
TEXT
100
AcDbPolyline
 90
        2
 70
     0
 43
0.0
 10
1.407284707550427
 20
0.13761356465292
 42
0.2901071551932823
 10
1.450360640418063
 20
0.0941226197024818
 42
5.328517124445801
  0
LWPOLYLINE
  5
B4595A0C407B73E6
330
3066A19F46647FF
100
AcDbEntity
  8
TEXT
100
AcDbPolyline
 90
        2
 70
     0
 43
0.0
 10
1.331252635096456
 20
0.2963189580342273
 42
-0.4142135623731017
 10
1.338806424262569
 20
0.2887651688681174
 42
-0.9999999999999998
  0
LWPOLYLINE
  5
B4595A0C407B73E7
330
3066A19F46647FF
100
AcDbEntity
  8
TEXT
100
AcDbPolyline
 90
        4
 70
     0
 43
0.0
 10
1.338806424262569
 20
0.2887651688681174
 10
1.338806424262569
 20
0.0941226197024818
 10
1.407284707550427
 20
0.0941226197024818
 10
1.407284707550427
 20
0.13761356465292
 42
-1.714843617202739
  0
LWPOLYLINE
  5
B4595A0C407B73E8
330
3066A19F46647FF
100
AcDbEntity
  8
TEXT
100
AcDbPolyline
 90
        2
 70
     0
 43
0.0
 10
1.627453990917084
 20
0.13761356465292
 42
-0.2901071551932486
 10
1.584378058049439
 20
0.0941226197024818
 42
-5.328517124445184
  0
LWPOLYLINE
  5
B4595A0C407B73E9
330
3066A19F46647FF
100
AcDbEntity
  8
TEXT
100
AcDbPolyline
 90
        2
 70
     0
 43
0.0
 10
1.627453990917084
 20
0.0941226197024818
 10
1.685809204752418
 20
0.0941226197024818
  0
LWPOLYLINE
  5
B4595A0C407B73EA
330
3066A19F46647FF
100
AcDbEntity
  8
TEXT
100
AcDbPolyline
 90
        2
 70
     0
 43
0.0
 10
1.627453990917084
 20
0.13761356465292
 10
1.627453990917084
 20
0.0941226197024818
  0
LINE
  5
B4595A0C407B73EB
330
3066A19F46647FF
100
AcDbEntity
  8
TEXT
100
AcDbLine
 10
1.551324551696648
 20
0.2590439845720951
 30
0.0
 11
1.541059791283082
 21
0.2802945241447894
 31
0.0
  0
LINE
  5
B4595A0C407B73EC
330
3066A19F46647FF
100
AcDbEntity
  8
TEXT
100
AcDbLine
 10
1.68580920475242
 20
0.0941226197024818
 30
0.0
 11
1.685809204752413
 21
0.2714131251339502
 31
0.0
  0
LINE
  5
B4595A0C407B73ED
330
3066A19F46647FF
100
AcDbEntity
  8
TEXT
100
AcDbLine
 10
2.004223151233933
 20
0.0941226197024818
 30
0.0
 11
1.908730927870323
 21
0.2507024097500192
 31
0.0
  0
LINE
  5
B4595A0C407B73EE
330
3066A19F46647FF
100
AcDbEntity
  8
TEXT
100
AcDbLine
 10
1.927644778857725
 20
0.0941226197024818
 30
0.0
 11
2.004223151233933
 21
0.0941226197024818
 31
0.0
  0
LINE
  5
B4595A0C407B73EF
330
3066A19F46647FF
100
AcDbEntity
  8
TEXT
100
AcDbLine
 10
1.787363061327642
 20
0.0941226197024818
 30
0.0
 11
1.851741245646262
 21
0.0941226197024818
 31
0.0
  0
LINE
  5
B4595A0C407B73F0
330
3066A19F46647FF
100
AcDbEntity
  8
TEXT
100
AcDbLine
 10
1.787363061327635
 20
0.2963189580342273
 30
0.0
 11
1.787363061327642
 21
0.0941226197024818
 31
0.0
  0
LINE
  5
B4595A0C407B73F1
330
3066A19F46647FF
100
AcDbEntity
  8
TEXT
100
AcDbLine
 10
1.851741245646262
 20
0.225702188178662
 30
0.0
 11
1.927644778857725
 21
0.0941226197024818
 31
0.0
  0
LINE
  5
B4595A0C407B73F2
330
3066A19F46647FF
100
AcDbEntity
  8
TEXT
100
AcDbLine
 10
1.851741245646262
 20
0.0941226197024818
 30
0.0
 11
1.851741245646262
 21
0.225702188178662
 31
0.0
  0
LINE
  5
B4595A0C407B73F3
330
3066A19F46647FF
100
AcDbEntity
  8
TEXT
100
AcDbLine
 10
0.7073779350233167
 20
0.3605956526909928
 30
0.0
 11
0.5316461821248062
 21
0.3605956526909928
 31
0.0
  0
LWPOLYLINE
  5
B4595A0C407B73F4
330
3066A19F46647FF
100
AcDbEntity
  8
TEXT
100
AcDbPolyline
 90
        2
 70
     0
 43
0.0006660908203125
 10
0.1135684867191511
 20
0.3339520198784953
 10
0.1135684867191511
 20
0.3605956526909964
  0
LWPOLYLINE
  5
B4595A0C407B73F5
330
3066A19F46647FF
100
AcDbEntity
  8
TEXT
100
AcDbPolyline
 90
        2
 70
     0
 43
0.0006660908203125
 10
0.1535339359379026
 20
0.3339520198784953
 10
0.1535339359379026
 20
0.3605956526909964
  0
TEXT
  5
B4595A0C407B73F6
330
3066A19F46647FF
100
AcDbEntity
  8
TEXT
100
AcDbText
 10
2.156286739333337
 20
0.3735252822805624
 30
0.0
 40
0.0522247191011236
  1
Stylmark  Incorporated
 41
1.221428571428571
 72
     5
 11
3.485219323603001
 21
0.3735252822805624
 31
0.0
100
AcDbText
  0
LINE
  5
B4595A0C407B73F7
330
3066A19F46647FF
100
AcDbEntity
  8
TEXT
100
AcDbLine
 10
1.782883174001135
 20
0.3605956526909928
 30
0.0
 11
1.71538345635162
 21
0.3605956526909928
 31
0.0
  0
TEXT
  5
B4595A0C407B73F8
330
3066A19F46647FF
100
AcDbEntity
  8
TEXT
100
AcDbText
 10
0.9900053906068245
 20
0.5406726440540615
 30
0.0
 40
0.125
  1
PART #110548
  7
ITALICC
 72
     1
 11
1.742981581083014
 21
0.5406726440540615
 31
0.0
100
AcDbText
  0
LINE
  5
B4595A0C407B73F9
330
3066A19F46647FF
100
AcDbEntity
  8
TEXT
100
AcDbLine
 10
1.219858925277574
 20
0.3605956526909928
 30
0.0
 11
1.085840869346437
 21
0.3605956526909928
 31
0.0
  0
LINE
  5
B4595A0C407B73FA
330
3066A19F46647FF
100
AcDbEntity
  8
TEXT
100
AcDbLine
 10
0.7674205398673238
 20
0.394983570285131
 30
0.0
 11
0.7073779350233167
 21
0.394983570285131
 31
0.0
  0
LINE
  5
B4595A0C407B73FB
330
3066A19F46647FF
100
AcDbEntity
  8
TEXT
100
AcDbLine
 10
0.7073779350233167
 20
0.394983570285131
 30
0.0
 11
0.7073779350233167
 21
0.3605956526909928
 31
0.0
  0
LINE
  5
B4595A0C407B73FC
330
3066A19F46647FF
100
AcDbEntity
  8
TEXT
100
AcDbLine
 10
0.8392195060112328
 20
0.3605956526909928
 30
0.0
 11
0.7674205398673238
 21
0.3605956526909928
 31
0.0
  0
LINE
  5
B4595A0C407B73FD
330
3066A19F46647FF
100
AcDbEntity
  8
TEXT
100
AcDbLine
 10
0.7674205398673238
 20
0.3605956526909928
 30
0.0
 11
0.7674205398673238
 21
0.394983570285131
 31
0.0
  0
LINE
  5
B4595A0C407B73FE
330
3066A19F46647FF
100
AcDbEntity
  8
TEXT
100
AcDbLine
 10
1.053529015208777
 20
0.4286071304298034
 30
0.0
 11
0.9867203026424107
 21
0.4286071304298034
 31
0.0
  0
LINE
  5
B4595A0C407B73FF
330
3066A19F46647FF
100
AcDbEntity
  8
TEXT
100
AcDbLine
 10
0.9867203026424107
 20
0.3605956526909928
 30
0.0
 11
0.9565983898490344
 21
0.3605956526909928
 31
0.0
  0
LINE
  5
B4595A0C407B7400
330
3066A19F46647FF
100
AcDbEntity
  8
TEXT
100
AcDbLine
 10
0.9867203026424107
 20
0.4286071304298034
 30
0.0
 11
0.9867203026424107
 21
0.3605956526909928
 31
0.0
  0
LINE
  5
B4595A0C407B7401
330
3066A19F46647FF
100
AcDbEntity
  8
TEXT
100
AcDbLine
 10
1.544554374737003
 20
0.3605956526909928
 30
0.0
 11
1.409722465519944
 21
0.3605956526909928
 31
0.0
  0
LWPOLYLINE
  5
B4595A0C407B7402
330
3066A19F46647FF
100
AcDbEntity
  8
TEXT
100
AcDbPolyline
 90
        3
 70
     0
 43
0.0
 10
1.373940774806779
 20
0.3605956526909964
 10
1.255640615990735
 20
0.3605956526909964
 10
1.255640615990735
 20
0.3334281559301004
 42
-1.960274751411753
  0
LWPOLYLINE
  5
B4595A0C407B7403
330
3066A19F46647FF
100
AcDbEntity
  8
TEXT
100
AcDbPolyline
 90
        2
 70
     0
 43
0.0
 10
1.219858925277574
 20
0.3605956526909964
 42
-0.3328679258950098
 10
1.255640615990735
 20
0.3334281559301004
 42
6.772930709997214
  0
LINE
  5
B4595A0C407B7404
330
3066A19F46647FF
100
AcDbEntity
  8
TEXT
100
AcDbLine
 10
1.409722465519944
 20
0.3605956526909928
 30
0.0
 11
1.409722465519944
 21
0.3322731069213489
 31
0.0
  0
LWPOLYLINE
  5
B4595A0C407B7405
330
3066A19F46647FF
100
AcDbEntity
  8
TEXT
100
AcDbPolyline
 90
        2
 70
     0
 43
0.0
 10
1.373940774806779
 20
0.3605956526909964
 42
-0.3277054968067132
 10
1.409722465519944
 20
0.3322731069213525
 42
6.667889725900311
  0
LINE
  5
B4595A0C407B7406
330
3066A19F46647FF
100
AcDbEntity
  8
TEXT
100
AcDbLine
 10
1.687411219911545
 20
0.3605956526909928
 30
0.0
 11
1.623514313612044
 21
0.3605956526909928
 31
0.0
  0
ARC
  5
B4595A0C407B7407
330
3066A19F46647FF
100
AcDbEntity
  8
TEXT
100
AcDbCircle
 10
1.542527434959936
 20
0.3190120855700904
 30
0.0
 40
0.0416329381542859
100
AcDbArc
 50
26.56974201007528
 51
87.20939649401342
  0
LINE
  5
B4595A0C407B7408
330
3066A19F46647FF
100
AcDbEntity
  8
TEXT
100
AcDbLine
 10
1.687411219911545
 20
0.3330480028301181
 30
0.0
 11
1.687411219911545
 21
0.3605956526909928
 31
0.0
  0
ARC
  5
B4595A0C407B7409
330
3066A19F46647FF
100
AcDbEntity
  8
TEXT
100
AcDbCircle
 10
1.718604036974655
 20
0.329349925408728
 30
0.0
 40
0.0314112657011332
100
AcDbArc
 50
95.88484768694724
 51
173.2388340632136
  0
LINE
  5
B4595A0C407B740A
330
3066A19F46647FF
100
AcDbEntity
  8
TEXT
100
AcDbLine
 10
1.973288043836028
 20
0.3605956526909928
 30
0.0
 11
1.898296211106401
 21
0.3605956526909928
 31
0.0
  0
LINE
  5
B4595A0C407B740B
330
3066A19F46647FF
100
AcDbEntity
  8
TEXT
100
AcDbLine
 10
1.782883174001142
 20
0.4260598584585935
 30
0.0
 11
1.782883174001135
 21
0.3605956526909928
 31
0.0
  0
LINE
  5
B4595A0C407B740C
330
3066A19F46647FF
100
AcDbEntity
  8
TEXT
100
AcDbLine
 10
1.851198052550415
 20
0.4260598584585935
 30
0.0
 11
1.782883174001142
 21
0.4260598584585935
 31
0.0
  0
ENDSEC
  0
SECTION
  2
OBJECTS
  0
DICTIONARY
  5
3066A19F46647F3
330
0
100
AcDbDictionary
  3
ACAD_GROUP
350
3066A19F46647F4
  3
ACAD_LAYOUT
350
B4595A0C407B7411
  3
ACAD_MLINESTYLE
350
3066A19F46647F5
  3
ACAD_PLOTSETTINGS
350
B4595A0C407B7412
  3
ACAD_PLOTSTYLENAME
350
B4595A0C407B740F
  3
ACDBHEADERROUNDTRIPXREC
350
B4595A0C407B741C
  3
ACDBVARIABLEDICTIONARY
350
B4595A0C407B7419
  0
DICTIONARY
  5
B4595A0C407B743E
330
3066A19F46647FF
100
AcDbDictionary
280
     1
  3
ACAD_LAYOUTSELFREF
360
B4595A0C407B743F
  0
DICTIONARY
  5
B4595A0C407B743C
330
3066A19F46647FC
100
AcDbDictionary
280
     1
  3
ACAD_LAYOUTSELFREF
360
B4595A0C407B743D
  0
DICTIONARY
  5
3066A19F46647F4
102
{ACAD_REACTORS
330
3066A19F46647F3
102
}
330
3066A19F46647F3
100
AcDbDictionary
  0
DICTIONARY
  5
B4595A0C407B7411
102
{ACAD_REACTORS
330
3066A19F46647F3
102
}
330
3066A19F46647F3
100
AcDbDictionary
  0
DICTIONARY
  5
3066A19F46647F5
102
{ACAD_REACTORS
330
3066A19F46647F3
102
}
330
3066A19F46647F3
100
AcDbDictionary
  3
STANDARD
350
3066A19F4664802
  0
DICTIONARY
  5
B4595A0C407B7412
102
{ACAD_REACTORS
330
3066A19F46647F3
102
}
330
3066A19F46647F3
100
AcDbDictionary
  0
ACDBDICTIONARYWDFLT
  5
B4595A0C407B740F
102
{ACAD_REACTORS
330
3066A19F46647F3
102
}
330
3066A19F46647F3
100
AcDbDictionary
281
     1
  3
Normal
350
B4595A0C407B7410
100
AcDbDictionaryWithDefault
340
B4595A0C407B7410
  0
DICTIONARY
  5
B4595A0C407B741C
102
{ACAD_REACTORS
330
3066A19F46647F3
102
}
330
3066A19F46647F3
100
AcDbDictionary
  3
CEPSNTYPE
350
B4595A0C407B7426
  3
FINGERPRINTGUID
350
B4595A0C407B7427
  3
HYPERLINKBASE
350
B4595A0C407B741F
  3
INSUNITS
350
B4595A0C407B7425
  3
LAYOUTDICT
350
B4595A0C407B7421
  3
LWETCUNION
350
B4595A0C407B7424
  3
PLOTSETDICT
350
B4595A0C407B7422
  3
PLOTSTYLNAMDICT
350
B4595A0C407B7423
  3
PSVPSCALE
350
B4595A0C407B7429
  3
PUCSBASE
350
B4595A0C407B742C
  3
PUCSORGBACK
350
B4595A0C407B7432
  3
PUCSORGBOTTOM
350
B4595A0C407B742E
  3
PUCSORGFRONT
350
B4595A0C407B7431
  3
PUCSORGLEFT
350
B4595A0C407B742F
  3
PUCSORGRIGHT
350
B4595A0C407B7430
  3
PUCSORGTOP
350
B4595A0C407B742D
  3
PUCSORTHOREF
350
B4595A0C407B742A
  3
PUCSORTHOVIEW
350
B4595A0C407B742B
  3
STYLESHEET
350
B4595A0C407B7420
  3
TSTACKALIGN
350
B4595A0C407B741D
  3
TSTACKSIZE
350
B4595A0C407B741E
  3
UCSBASE
350
B4595A0C407B7435
  3
UCSORGBACK
350
B4595A0C407B743B
  3
UCSORGBOTTOM
350
B4595A0C407B7437
  3
UCSORGFRONT
350
B4595A0C407B743A
  3
UCSORGLEFT
350
B4595A0C407B7438
  3
UCSORGRIGHT
350
B4595A0C407B7439
  3
UCSORGTOP
350
B4595A0C407B7436
  3
UCSORTHOREF
350
B4595A0C407B7433
  3
UCSORTHOVIEW
350
B4595A0C407B7434
  3
VERSIONGUID
350
B4595A0C407B7428
  0
DICTIONARY
  5
B4595A0C407B7419
102
{ACAD_REACTORS
330
3066A19F46647F3
102
}
330
3066A19F46647F3
100
AcDbDictionary
  3
DIMASSOC
350
B4595A0C407B741A
  0
XRECORD
  5
B4595A0C407B743F
102
{ACAD_REACTORS
330
B4595A0C407B743E
102
}
330
B4595A0C407B743E
100
AcDbXrecord
340
3066A19F46647FF
  0
XRECORD
  5
B4595A0C407B743D
102
{ACAD_REACTORS
330
B4595A0C407B743C
102
}
330
B4595A0C407B743C
100
AcDbXrecord
340
3066A19F46647FC
  0
MLINESTYLE
  5
3066A19F4664802
102
{ACAD_REACTORS
330
3066A19F46647F5
102
}
330
3066A19F46647F5
100
AcDbMlineStyle
  2
STANDARD
 70
     0
  3

 62
     0
 51
90.0
 52
90.0
 71
     2
 49
0.5
 62
   256
  6
BYLAYER
 49
-0.5
 62
   256
  6
BYLAYER
  0
ACDBPLACEHOLDER
  5
B4595A0C407B7410
102
{ACAD_REACTORS
330
B4595A0C407B740F
102
}
330
B4595A0C407B740F
100
AcDbPlaceHolder
280
     0
  0
XRECORD
  5
B4595A0C407B7426
102
{ACAD_REACTORS
330
B4595A0C407B741C
102
}
330
B4595A0C407B741C
100
AcDbXrecord
 90
        0
  0
XRECORD
  5
B4595A0C407B7427
102
{ACAD_REACTORS
330
B4595A0C407B741C
102
}
330
B4595A0C407B741C
100
AcDbXrecord
  1
{7043B5E0-8DB8-11D6-88E6-0090279574E7}
  0
XRECORD
  5
B4595A0C407B741F
102
{ACAD_REACTORS
330
B4595A0C407B741C
102
}
330
B4595A0C407B741C
100
AcDbXrecord
  1

  0
XRECORD
  5
B4595A0C407B7425
102
{ACAD_REACTORS
330
B4595A0C407B741C
102
}
330
B4595A0C407B741C
100
AcDbXrecord
 90
        0
  0
XRECORD
  5
B4595A0C407B7421
102
{ACAD_REACTORS
330
B4595A0C407B741C
102
}
330
B4595A0C407B741C
100
AcDbXrecord
340
B4595A0C407B7411
  0
XRECORD
  5
B4595A0C407B7424
102
{ACAD_REACTORS
330
B4595A0C407B741C
102
}
330
B4595A0C407B741C
100
AcDbXrecord
 90
    14877
  0
XRECORD
  5
B4595A0C407B7422
102
{ACAD_REACTORS
330
B4595A0C407B741C
102
}
330
B4595A0C407B741C
100
AcDbXrecord
340
B4595A0C407B7412
  0
XRECORD
  5
B4595A0C407B7423
102
{ACAD_REACTORS
330
B4595A0C407B741C
102
}
330
B4595A0C407B741C
100
AcDbXrecord
340
B4595A0C407B740F
  0
XRECORD
  5
B4595A0C407B7429
102
{ACAD_REACTORS
330
B4595A0C407B741C
102
}
330
B4595A0C407B741C
100
AcDbXrecord
 40
0.0
  0
XRECORD
  5
B4595A0C407B742C
102
{ACAD_REACTORS
330
B4595A0C407B741C
102
}
330
B4595A0C407B741C
100
AcDbXrecord
340
0
  0
XRECORD
  5
B4595A0C407B7432
102
{ACAD_REACTORS
330
B4595A0C407B741C
102
}
330
B4595A0C407B741C
100
AcDbXrecord
 10
0.0
 20
0.0
 30
0.0
  0
XRECORD
  5
B4595A0C407B742E
102
{ACAD_REACTORS
330
B4595A0C407B741C
102
}
330
B4595A0C407B741C
100
AcDbXrecord
 10
0.0
 20
0.0
 30
0.0
  0
XRECORD
  5
B4595A0C407B7431
102
{ACAD_REACTORS
330
B4595A0C407B741C
102
}
330
B4595A0C407B741C
100
AcDbXrecord
 10
0.0
 20
0.0
 30
0.0
  0
XRECORD
  5
B4595A0C407B742F
102
{ACAD_REACTORS
330
B4595A0C407B741C
102
}
330
B4595A0C407B741C
100
AcDbXrecord
 10
0.0
 20
0.0
 30
0.0
  0
XRECORD
  5
B4595A0C407B7430
102
{ACAD_REACTORS
330
B4595A0C407B741C
102
}
330
B4595A0C407B741C
100
AcDbXrecord
 10
0.0
 20
0.0
 30
0.0
  0
XRECORD
  5
B4595A0C407B742D
102
{ACAD_REACTORS
330
B4595A0C407B741C
102
}
330
B4595A0C407B741C
100
AcDbXrecord
 10
0.0
 20
0.0
 30
0.0
  0
XRECORD
  5
B4595A0C407B742A
102
{ACAD_REACTORS
330
B4595A0C407B741C
102
}
330
B4595A0C407B741C
100
AcDbXrecord
340
0
  0
XRECORD
  5
B4595A0C407B742B
102
{ACAD_REACTORS
330
B4595A0C407B741C
102
}
330
B4595A0C407B741C
100
AcDbXrecord
 70
     0
  0
XRECORD
  5
B4595A0C407B7420
102
{ACAD_REACTORS
330
B4595A0C407B741C
102
}
330
B4595A0C407B741C
100
AcDbXrecord
  1

  0
XRECORD
  5
B4595A0C407B741D
102
{ACAD_REACTORS
330
B4595A0C407B741C
102
}
330
B4595A0C407B741C
100
AcDbXrecord
 90
        1
  0
XRECORD
  5
B4595A0C407B741E
102
{ACAD_REACTORS
330
B4595A0C407B741C
102
}
330
B4595A0C407B741C
100
AcDbXrecord
 90
       70
  0
XRECORD
  5
B4595A0C407B7435
102
{ACAD_REACTORS
330
B4595A0C407B741C
102
}
330
B4595A0C407B741C
100
AcDbXrecord
340
0
  0
XRECORD
  5
B4595A0C407B743B
102
{ACAD_REACTORS
330
B4595A0C407B741C
102
}
330
B4595A0C407B741C
100
AcDbXrecord
 10
0.0
 20
0.0
 30
0.0
  0
XRECORD
  5
B4595A0C407B7437
102
{ACAD_REACTORS
330
B4595A0C407B741C
102
}
330
B4595A0C407B741C
100
AcDbXrecord
 10
0.0
 20
0.0
 30
0.0
  0
XRECORD
  5
B4595A0C407B743A
102
{ACAD_REACTORS
330
B4595A0C407B741C
102
}
330
B4595A0C407B741C
100
AcDbXrecord
 10
0.0
 20
0.0
 30
0.0
  0
XRECORD
  5
B4595A0C407B7438
102
{ACAD_REACTORS
330
B4595A0C407B741C
102
}
330
B4595A0C407B741C
100
AcDbXrecord
 10
0.0
 20
0.0
 30
0.0
  0
XRECORD
  5
B4595A0C407B7439
102
{ACAD_REACTORS
330
B4595A0C407B741C
102
}
330
B4595A0C407B741C
100
AcDbXrecord
 10
0.0
 20
0.0
 30
0.0
  0
XRECORD
  5
B4595A0C407B7436
102
{ACAD_REACTORS
330
B4595A0C407B741C
102
}
330
B4595A0C407B741C
100
AcDbXrecord
 10
0.0
 20
0.0
 30
0.0
  0
XRECORD
  5
B4595A0C407B7433
102
{ACAD_REACTORS
330
B4595A0C407B741C
102
}
330
B4595A0C407B741C
100
AcDbXrecord
340
0
  0
XRECORD
  5
B4595A0C407B7434
102
{ACAD_REACTORS
330
B4595A0C407B741C
102
}
330
B4595A0C407B741C
100
AcDbXrecord
 70
     0
  0
XRECORD
  5
B4595A0C407B7428
102
{ACAD_REACTORS
330
B4595A0C407B741C
102
}
330
B4595A0C407B741C
100
AcDbXrecord
  1
{7043B5E2-8DB8-11D6-88E6-0090279574E7}
  0
DICTIONARYVAR
  5
B4595A0C407B741A
102
{ACAD_REACTORS
330
B4595A0C407B7419
102
}
330
B4595A0C407B7419
100
DictionaryVariables
280
     0
  1
1
  0
ENDSEC
  0
EOF
