  0
SECTION
  2
HEADER
  9
$ACADVER
  1
AC1014
  9
$ACADMAINTVER
 70
     9
  9
$DWGCODEPAGE
  3
ANSI_1252
  9
$INSBASE
 10
-18.25418619564614
 20
1.700824684956293
 30
0.0
  9
$EXTMIN
 10
0.048120369404997
 20
-0.163692441247808
 30
0.0
  9
$EXTMAX
 10
3.533339691152125
 20
1.309195478970656
 30
0.0
  9
$LIMMIN
 10
0.0
 20
0.0
  9
$LIMMAX
 10
18.0
 20
12.0
  9
$ORTHOMODE
 70
     1
  9
$REGENMODE
 70
     1
  9
$FILLMODE
 70
     1
  9
$QTEXTMODE
 70
     0
  9
$MIRRTEXT
 70
     0
  9
$DRAGMODE
 70
     2
  9
$LTSCALE
 40
1.0
  9
$OSMODE
 70
    39
  9
$ATTMODE
 70
     1
  9
$TEXTSIZE
 40
0.125
  9
$TRACEWID
 40
0.05
  9
$TEXTSTYLE
  7
ROMANS
  9
$CLAYER
  8
0
  9
$CELTYPE
  6
BYLAYER
  9
$CECOLOR
 62
   256
  9
$CELTSCALE
 40
1.0
  9
$DELOBJ
 70
     1
  9
$DISPSILH
 70
     1
  9
$DIMSCALE
 40
1.0
  9
$DIMASZ
 40
0.125
  9
$DIMEXO
 40
0.125
  9
$DIMDLI
 40
0.375
  9
$DIMRND
 40
0.0
  9
$DIMDLE
 40
0.0
  9
$DIMEXE
 40
0.125
  9
$DIMTP
 40
0.0
  9
$DIMTM
 40
0.0
  9
$DIMTXT
 40
0.125
  9
$DIMCEN
 40
-0.125
  9
$DIMTSZ
 40
0.0
  9
$DIMTOL
 70
     0
  9
$DIMLIM
 70
     0
  9
$DIMTIH
 70
     1
  9
$DIMTOH
 70
     1
  9
$DIMSE1
 70
     0
  9
$DIMSE2
 70
     0
  9
$DIMTAD
 70
     0
  9
$DIMZIN
 70
     4
  9
$DIMBLK
  1

  9
$DIMASO
 70
     1
  9
$DIMSHO
 70
     1
  9
$DIMPOST
  1

  9
$DIMAPOST
  1

  9
$DIMALT
 70
     0
  9
$DIMALTD
 70
     2
  9
$DIMALTF
 40
25.4
  9
$DIMLFAC
 40
0.25
  9
$DIMTOFL
 70
     0
  9
$DIMTVP
 40
0.0
  9
$DIMTIX
 70
     1
  9
$DIMSOXD
 70
     0
  9
$DIMSAH
 70
     0
  9
$DIMBLK1
  1

  9
$DIMBLK2
  1

  9
$DIMSTYLE
  2
STANDARD
  9
$DIMCLRD
 70
     0
  9
$DIMCLRE
 70
     0
  9
$DIMCLRT
 70
     0
  9
$DIMTFAC
 40
1.0
  9
$DIMGAP
 40
0.09375
  9
$DIMJUST
 70
     0
  9
$DIMSD1
 70
     0
  9
$DIMSD2
 70
     0
  9
$DIMTOLJ
 70
     1
  9
$DIMTZIN
 70
     0
  9
$DIMALTZ
 70
     0
  9
$DIMALTTZ
 70
     0
  9
$DIMFIT
 70
     3
  9
$DIMUPT
 70
     0
  9
$DIMUNIT
 70
     2
  9
$DIMDEC
 70
     3
  9
$DIMTDEC
 70
     4
  9
$DIMALTU
 70
     2
  9
$DIMALTTD
 70
     2
  9
$DIMTXSTY
  7
ROMANS
  9
$DIMAUNIT
 70
     0
  9
$LUNITS
 70
     2
  9
$LUPREC
 70
     3
  9
$SKETCHINC
 40
0.1
  9
$FILLETRAD
 40
0.015
  9
$AUNITS
 70
     0
  9
$AUPREC
 70
     2
  9
$MENU
  1
ACAD
  9
$ELEVATION
 40
0.0
  9
$PELEVATION
 40
0.0
  9
$THICKNESS
 40
0.0
  9
$LIMCHECK
 70
     0
  9
$BLIPMODE
 70
     0
  9
$CHAMFERA
 40
0.0
  9
$CHAMFERB
 40
0.0
  9
$CHAMFERC
 40
0.0
  9
$CHAMFERD
 40
0.0
  9
$SKPOLY
 70
     0
  9
$TDCREATE
 40
2449576.370884375
  9
$TDUPDATE
 40
2452458.317470127
  9
$TDINDWG
 40
0.0637670833
  9
$TDUSRTIMER
 40
0.0637670833
  9
$USRTIMER
 70
     1
  9
$ANGBASE
 50
0.0
  9
$ANGDIR
 70
     0
  9
$PDMODE
 70
     0
  9
$PDSIZE
 40
0.0
  9
$PLINEWID
 40
0.0
  9
$COORDS
 70
     2
  9
$SPLFRAME
 70
     0
  9
$SPLINETYPE
 70
     6
  9
$SPLINESEGS
 70
     8
  9
$ATTDIA
 70
     0
  9
$ATTREQ
 70
     1
  9
$HANDLING
 70
 22529
  9
$HANDSEED
  5
B4595A0C407B72BC
  9
$SURFTAB1
 70
     6
  9
$SURFTAB2
 70
     6
  9
$SURFTYPE
 70
     6
  9
$SURFU
 70
     6
  9
$SURFV
 70
     6
  9
$UCSNAME
  2

  9
$UCSORG
 10
0.0
 20
0.0
 30
0.0
  9
$UCSXDIR
 10
1.0
 20
0.0
 30
0.0
  9
$UCSYDIR
 10
0.0
 20
1.0
 30
0.0
  9
$PUCSNAME
  2

  9
$PUCSORG
 10
0.0
 20
0.0
 30
0.0
  9
$PUCSXDIR
 10
1.0
 20
0.0
 30
0.0
  9
$PUCSYDIR
 10
0.0
 20
1.0
 30
0.0
  9
$USERI1
 70
     0
  9
$USERI2
 70
     0
  9
$USERI3
 70
     0
  9
$USERI4
 70
     0
  9
$USERI5
 70
     0
  9
$USERR1
 40
0.0
  9
$USERR2
 40
0.0
  9
$USERR3
 40
0.0
  9
$USERR4
 40
0.0
  9
$USERR5
 40
0.0
  9
$WORLDVIEW
 70
     1
  9
$SHADEDGE
 70
     3
  9
$SHADEDIF
 70
    70
  9
$TILEMODE
 70
     1
  9
$MAXACTVP
 70
    16
  9
$PINSBASE
 10
0.0
 20
0.0
 30
0.0
  9
$PLIMCHECK
 70
     0
  9
$PEXTMIN
 10
1.000000000000000E+20
 20
1.000000000000000E+20
 30
1.000000000000000E+20
  9
$PEXTMAX
 10
-1.000000000000000E+20
 20
-1.000000000000000E+20
 30
-1.000000000000000E+20
  9
$PLIMMIN
 10
0.0
 20
0.0
  9
$PLIMMAX
 10
12.0
 20
9.0
  9
$UNITMODE
 70
     0
  9
$VISRETAIN
 70
     0
  9
$PLINEGEN
 70
     1
  9
$PSLTSCALE
 70
     0
  9
$TREEDEPTH
 70
  3020
  9
$PICKSTYLE
 70
     1
  9
$CMLSTYLE
  2
STANDARD
  9
$CMLJUST
 70
     0
  9
$CMLSCALE
 40
1.0
  9
$PROXYGRAPHICS
 70
     1
  9
$MEASUREMENT
 70
     0
  0
ENDSEC
  0
SECTION
  2
CLASSES
  0
CLASS
  1
LWPOLYLINE
  2
AcDbPolyline
  3
AutoCAD 2000
 90
        0
280
     0
281
     1
  0
CLASS
  1
ACDBDICTIONARYWDFLT
  2
AcDbDictionaryWithDefault
  3
AutoCAD 2000
 90
        0
280
     0
281
     0
  0
CLASS
  1
ACDBPLACEHOLDER
  2
AcDbPlaceHolder
  3
AutoCAD 2000
 90
        0
280
     0
281
     0
  0
CLASS
  1
LAYOUT
  2
AcDbLayout
  3
AutoCAD 2000
 90
        0
280
     0
281
     0
  0
CLASS
  1
DICTIONARYVAR
  2
AcDbDictionaryVar
  3
AutoCAD 2000
 90
        0
280
     0
281
     0
  0
CLASS
  1
LONG_TRANSACTION
  2
AcDbLongTransaction
  3
AutoCAD 2000
 90
        0
280
     0
281
     0
  0
CLASS
  1
LWPOLYLINE
  2
AcDbPolyline
  3
AutoCAD 2000
 90
        0
280
     0
281
     1
  0
CLASS
  1
HATCH
  2
AcDbHatch
  3
AutoCAD 2000
 90
        0
280
     0
281
     1
  0
CLASS
  1
XRECORD
  2
AcDbXrecord
  3
AutoCAD 2000
 90
        0
280
     0
281
     0
  0
ENDSEC
  0
SECTION
  2
TABLES
  0
TABLE
  2
VPORT
  5
12C2A0841583B234
330
0
100
AcDbSymbolTable
 70
     2
  0
VPORT
  5
B4595A0C407B7297
330
12C2A0841583B234
100
AcDbSymbolTableRecord
100
AcDbViewportTableRecord
  2
*ACTIVE
 70
     0
 10
0.0
 20
0.0
 11
1.0
 21
1.0
 12
4.713053571330825
 22
0.5725927188158249
 13
0.0
 23
0.0
 14
0.015625
 24
0.015625
 15
0.0
 25
0.0
 16
0.0
 26
0.0
 36
1.0
 17
0.0
 27
0.0
 37
0.0
 40
2.163675904046961
 41
4.320930232558139
 42
50.0
 43
0.0
 44
0.0
 50
0.0
 51
0.0
 71
     0
 72
  2000
 73
     1
 74
     1
 75
     0
 76
     0
 77
     0
 78
     0
  0
ENDTAB
  0
TABLE
  2
LTYPE
  5
12C2A0841583B231
330
0
100
AcDbSymbolTable
 70
     1
  0
LTYPE
  5
12C2A0841583B23E
330
12C2A0841583B231
100
AcDbSymbolTableRecord
100
AcDbLinetypeTableRecord
  2
BYBLOCK
 70
     0
  3

 72
    65
 73
     0
 40
0.0
  0
LTYPE
  5
12C2A0841583B23F
330
12C2A0841583B231
100
AcDbSymbolTableRecord
100
AcDbLinetypeTableRecord
  2
BYLAYER
 70
     0
  3

 72
    65
 73
     0
 40
0.0
  0
LTYPE
  5
12C2A0841583B240
330
12C2A0841583B231
100
AcDbSymbolTableRecord
100
AcDbLinetypeTableRecord
  2
CONTINUOUS
 70
     0
  3
Solid line
 72
    65
 73
     0
 40
0.0
  0
ENDTAB
  0
TABLE
  2
LAYER
  5
12C2A0841583B22E
330
0
100
AcDbSymbolTable
 70
     2
  0
LAYER
  5
12C2A0841583B23B
330
12C2A0841583B22E
100
AcDbSymbolTableRecord
100
AcDbLayerTableRecord
  2
0
 70
     0
 62
     7
  6
CONTINUOUS
  0
LAYER
  5
12C2A0841583B251
330
12C2A0841583B22E
100
AcDbSymbolTableRecord
100
AcDbLayerTableRecord
  2
TEXT
 70
     0
 62
     3
  6
CONTINUOUS
  0
ENDTAB
  0
TABLE
  2
STYLE
  5
12C2A0841583B22F
330
0
100
AcDbSymbolTable
 70
     3
  0
STYLE
  5
12C2A0841583B23C
330
12C2A0841583B22F
100
AcDbSymbolTableRecord
100
AcDbTextStyleTableRecord
  2
STANDARD
 70
     0
 40
0.0
 41
1.0
 50
0.0
 71
     0
 42
0.25
  3
txt
  4

  0
STYLE
  5
12C2A0841583B24B
330
12C2A0841583B22F
100
AcDbSymbolTableRecord
100
AcDbTextStyleTableRecord
  2
ROMANS
 70
     0
 40
0.0
 41
1.0
 50
0.0
 71
     0
 42
0.125
  3
romans.shx
  4

  0
STYLE
  5
B4595A0C407B7184
330
12C2A0841583B22F
100
AcDbSymbolTableRecord
100
AcDbTextStyleTableRecord
  2
ITALICC
 70
     0
 40
0.0
 41
1.0
 50
0.0
 71
     0
 42
0.125
  3
italicc
  4

  0
ENDTAB
  0
TABLE
  2
VIEW
  5
12C2A0841583B232
330
0
100
AcDbSymbolTable
 70
     0
  0
ENDTAB
  0
TABLE
  2
UCS
  5
12C2A0841583B233
330
0
100
AcDbSymbolTable
 70
     0
  0
ENDTAB
  0
TABLE
  2
APPID
  5
12C2A0841583B235
330
0
100
AcDbSymbolTable
 70
     1
  0
APPID
  5
12C2A0841583B23D
330
12C2A0841583B235
100
AcDbSymbolTableRecord
100
AcDbRegAppTableRecord
  2
ACAD
 70
     0
  0
ENDTAB
  0
TABLE
  2
DIMSTYLE
  5
12C2A0841583B236
330
0
100
AcDbSymbolTable
 70
     1
  0
DIMSTYLE
105
B4595A0C407B7179
330
12C2A0841583B236
100
AcDbSymbolTableRecord
100
AcDbDimStyleTableRecord
  2
STANDARD
 70
     0
  3

  4

  5

  6

  7

 40
1.0
 41
0.18
 42
0.0625
 43
0.38
 44
0.18
 45
0.0
 46
0.0
 47
0.0
 48
0.0
140
0.18
141
0.09
142
0.0
143
25.4
144
1.0
145
0.0
146
1.0
147
0.09
 71
     0
 72
     0
 73
     1
 74
     1
 75
     0
 76
     0
 77
     0
 78
     0
170
     0
171
     2
172
     0
173
     0
174
     0
175
     0
176
     0
177
     0
178
     0
270
     2
271
     4
272
     4
273
     2
274
     2
340
12C2A0841583B23C
275
     0
280
     0
281
     0
282
     0
283
     1
284
     0
285
     0
286
     0
287
     3
288
     0
  0
ENDTAB
  0
TABLE
  2
BLOCK_RECORD
  5
12C2A0841583B22D
330
0
100
AcDbSymbolTable
 70
     0
  0
BLOCK_RECORD
  5
12C2A0841583B244
102
{ACAD_XDICTIONARY
360
B4595A0C407B72BA
102
}
330
12C2A0841583B22D
100
AcDbSymbolTableRecord
100
AcDbBlockTableRecord
  2
*MODEL_SPACE
  0
BLOCK_RECORD
  5
12C2A0841583B241
102
{ACAD_XDICTIONARY
360
B4595A0C407B72B8
102
}
330
12C2A0841583B22D
100
AcDbSymbolTableRecord
100
AcDbBlockTableRecord
  2
*PAPER_SPACE
  0
ENDTAB
  0
ENDSEC
  0
SECTION
  2
BLOCKS
  0
BLOCK
  5
12C2A0841583B256
330
12C2A0841583B244
100
AcDbEntity
  8
0
100
AcDbBlockBegin
  2
*MODEL_SPACE
 70
     0
 10
0.0
 20
0.0
 30
0.0
  3
*MODEL_SPACE
  1

  0
ENDBLK
  5
12C2A0841583B257
330
12C2A0841583B244
100
AcDbEntity
  8
0
100
AcDbBlockEnd
  0
BLOCK
  5
12C2A0841583B254
330
12C2A0841583B241
100
AcDbEntity
 67
     1
  8
0
100
AcDbBlockBegin
  2
*PAPER_SPACE
 70
     0
 10
0.0
 20
0.0
 30
0.0
  3
*PAPER_SPACE
  1

  0
ENDBLK
  5
12C2A0841583B255
330
12C2A0841583B241
100
AcDbEntity
 67
     1
  8
0
100
AcDbBlockEnd
  0
ENDSEC
  0
SECTION
  2
ENTITIES
  0
LWPOLYLINE
  5
B4595A0C407B6FCF
330
12C2A0841583B244
100
AcDbEntity
  8
0
100
AcDbPolyline
 90
       56
 70
     1
 43
0.0
 10
0.8157284726193978
 20
0.8111506029662773
 10
0.7976698144632728
 20
0.860733385368265
 42
-0.2334965501095034
 10
0.7991215860977619
 20
0.8739392869942452
 42
0.1976305598357567
 10
0.8117867437753218
 20
0.9443247162766512
 42
-0.3889226518996751
 10
0.8186138250833749
 20
0.955986200590253
 42
0.3290877257564675
 10
0.9208587856015988
 20
1.094570452800864
 10
0.9208495959055014
 20
1.137570451818881
 10
1.783349576208753
 20
1.137754780025487
 10
1.80334530147476
 20
1.157759053846006
 10
1.823349575295281
 20
1.137763328579996
 10
2.685849555598533
 20
1.137947656786602
 10
2.685858745294634
 20
1.094947657768585
 42
0.3290877257564673
 10
2.788162931223418
 20
0.956407120547178
 42
-0.388922651899675
 10
2.794994996349434
 20
0.9447485553825885
 42
0.1976305598357566
 10
2.807690237553327
 20
0.8743685459691139
 42
-0.2334965501095034
 10
2.809147653623565
 20
0.8611632660768879
 10
2.791110190172467
 20
0.8115727694331464
 42
1.000000000000001
 10
2.84937566318635
 20
0.7903799722022793
 10
2.881000647675183
 20
0.8773267145424039
 42
0.3879530667102843
 10
2.873284239861938
 20
0.8960295192829761
 42
-0.6070688654221264
 10
2.870998995162832
 20
0.9527631718413029
 10
2.97987569812146
 20
1.015654194046518
 10
2.979838863191375
 20
1.188010487520404
 42
0.4142135623730951
 10
2.939830315550342
 20
1.228001938052424
 10
2.9138303161441
 20
1.227996381491992
 42
0.4142135623730968
 10
2.87383886561211
 20
1.187987833850955
 10
2.885838865338037
 20
1.187990398417309
 10
2.885858740727272
 20
1.09499040054113
 42
-0.9999999999999998
 10
2.775858743239322
 20
1.09496689201623
 10
2.775838867850087
 20
1.187966889892408
 10
2.787838867576041
 20
1.187969454458761
 42
0.4142135623730966
 10
2.747830319935008
 20
1.227960904990778
 10
1.91333033899232
 20
1.227782560772329
 42
-0.4142135623730951
 10
1.903328202082061
 20
1.237780423405334
 10
1.903320935810729
 20
1.271780422628882
 42
0.4142135623730951
 10
1.872314311388926
 20
1.302773796791196
 10
1.803314312964666
 20
1.302759050534668
 10
1.734314314540409
 20
1.302744304278141
 42
0.4142135623730951
 10
1.703320940378091
 20
1.271737679856336
 10
1.703328206649427
 20
1.237737680632788
 42
-0.4142135623730951
 10
1.69333034401642
 20
1.227735543722529
 10
0.8588303630737392
 20
1.227557199504079
 42
0.4142135623730967
 10
0.8188389125417216
 20
1.187548651863042
 10
0.8308389122676764
 20
1.187551216429395
 10
0.8308587876569113
 20
1.094551218553217
 42
-0.9999999999999998
 10
0.7208587901689612
 20
1.094527710028317
 10
0.7208389147797263
 20
1.187527707904495
 10
0.7328389145056527
 20
1.187530272470847
 42
0.4142135623730969
 10
0.6928303668646443
 20
1.227521723002865
 10
0.666830367458406
 20
1.227516166442434
 42
0.414213562373095
 10
0.6268389169263884
 20
1.187507618801397
 10
0.6268757518564741
 20
1.015151325327511
 10
0.7357793262354769
 20
0.9523068457876551
 42
-0.6070688654221264
 10
0.7335183312806386
 20
0.8955722216348691
 42
0.3879530667102841
 10
0.7258099182693734
 20
0.8768661203961816
 10
0.7574720633168149
 20
0.7899329033932805
 42
1.000000000000001
  0
LINE
  5
B4595A0C407B7209
330
12C2A0841583B244
100
AcDbEntity
  8
TEXT
100
AcDbLine
 10
1.89931842009954
 20
0.0383838450601672
 30
0.0
 11
1.89931842009954
 21
0.179713377239306
 31
0.0
  0
LINE
  5
B4595A0C407B720A
330
12C2A0841583B244
100
AcDbEntity
  8
TEXT
100
AcDbLine
 10
1.946416578655522
 20
0.1142491714717053
 30
0.0
 11
1.89931842009954
 21
0.0383838450601672
 31
0.0
  0
LINE
  5
B4595A0C407B720B
330
12C2A0841583B244
100
AcDbEntity
  8
TEXT
100
AcDbLine
 10
1.956851295419447
 20
0.0043559285307317
 30
0.0
 11
2.021408411385152
 21
0.1142491714717053
 31
0.0
  0
TEXT
  5
B4595A0C407B720C
330
12C2A0841583B244
100
AcDbEntity
  8
TEXT
100
AcDbText
 10
2.204407106882461
 20
0.0339203740949827
 30
0.0
 40
0.0522247191011236
  1
6536 Main St. N.E. * P.O. Box 32008
 41
0.8388932496075355
 72
     5
 11
3.533339691152125
 21
0.0339203740949827
 31
0.0
100
AcDbText
  0
ARC
  5
B4595A0C407B720D
330
12C2A0841583B244
100
AcDbEntity
  8
TEXT
100
AcDbCircle
 10
1.758835447584202
 20
0.0250666015322771
 30
0.0
 40
0.0249058752826653
100
AcDbArc
 50
89.99971217465335
 51
179.9999999999985
  0
LINE
  5
B4595A0C407B720E
330
12C2A0841583B244
100
AcDbEntity
  8
TEXT
100
AcDbLine
 10
1.671634681161169
 20
0.009037192918278
 30
0.0
 11
1.627883909979267
 21
0.0912874689144232
 31
0.0
  0
LINE
  5
B4595A0C407B720F
330
12C2A0841583B244
100
AcDbEntity
  8
TEXT
100
AcDbLine
 10
1.671634681161169
 20
0.1142491714717053
 30
0.0
 11
1.671634681161169
 21
0.009037192918278
 31
0.0
  0
ARC
  5
B4595A0C407B7210
330
12C2A0841583B244
100
AcDbEntity
  8
TEXT
100
AcDbCircle
 10
1.563643843941649
 20
0.0216131018149426
 30
0.0
 40
0.028359375
100
AcDbArc
 50
25.78218179591245
 51
90.0
  0
LINE
  5
B4595A0C407B7211
330
12C2A0841583B244
100
AcDbEntity
  8
TEXT
100
AcDbLine
 10
1.101649382757901
 20
-0.0698360234138065
 30
0.0
 11
1.101649382757901
 21
0.1822606492105159
 31
0.0
  0
LINE
  5
B4595A0C407B7212
330
12C2A0841583B244
100
AcDbEntity
  8
TEXT
100
AcDbLine
 10
1.133961236895562
 20
0.1142491714717053
 30
0.0
 11
1.133961236895562
 21
-0.0866150352607029
 31
0.0
  0
LINE
  5
B4595A0C407B7213
330
12C2A0841583B244
100
AcDbEntity
  8
TEXT
100
AcDbLine
 10
1.004718757398158
 20
0.1142491714717053
 30
0.0
 11
0.9459701945922951
 21
0.0133771753585848
 31
0.0
  0
LINE
  5
B4595A0C407B7214
330
12C2A0841583B244
100
AcDbEntity
  8
TEXT
100
AcDbLine
 10
0.9459701945922951
 20
0.0133771753585848
 30
0.0
 11
0.8873398735603572
 21
0.1142491714717053
 31
0.0
  0
ARC
  5
B4595A0C407B7215
330
12C2A0841583B244
100
AcDbEntity
  8
TEXT
100
AcDbCircle
 10
0.5797665496739306
 20
0.0321617120252036
 30
0.0
 40
0.0820874594465043
100
AcDbArc
 50
90.0
 51
270.0
  0
LWPOLYLINE
  5
B4595A0C407B7216
330
12C2A0841583B244
100
AcDbEntity
  8
TEXT
100
AcDbPolyline
 90
        2
 70
     0
 43
0.0001332181640625
 10
0.1716802165729661
 20
0.0409791812373293
 10
0.1616888542682755
 20
0.1142491714717089
  0
LWPOLYLINE
  5
B4595A0C407B7217
330
12C2A0841583B244
100
AcDbEntity
  8
TEXT
100
AcDbPolyline
 90
        2
 70
     0
 43
0.0001332181640625
 10
0.1616888542682755
 20
0.0876055386592079
 10
0.1716802165729661
 20
0.0276573648310823
  0
LWPOLYLINE
  5
B4595A0C407B7218
330
12C2A0841583B244
100
AcDbEntity
  8
TEXT
100
AcDbPolyline
 90
        2
 70
     0
 43
0.0001332181640625
 10
0.2016543034870271
 20
0.0876055386592079
 10
0.1916629411823383
 20
0.0276573648310823
  0
LWPOLYLINE
  5
B4595A0C407B7219
330
12C2A0841583B244
100
AcDbEntity
  8
TEXT
100
AcDbPolyline
 90
        2
 70
     0
 43
0.0001332181640625
 10
0.2016543034870271
 20
0.1142491714717089
 10
0.1916629411823383
 20
0.0409791812373293
  0
LWPOLYLINE
  5
B4595A0C407B721A
330
12C2A0841583B244
100
AcDbEntity
  8
TEXT
100
AcDbPolyline
 90
        3
 70
     0
 43
0.0006660908203125
 10
0.3148897429401529
 20
0.0010137320185812
 10
0.3148897429401529
 20
0.1142491714717089
 10
0.2016543034870271
 20
0.1142491714717089
  0
LWPOLYLINE
  5
B4595A0C407B721B
330
12C2A0841583B244
100
AcDbEntity
  8
TEXT
100
AcDbPolyline
 90
        3
 70
     0
 43
0.0006660908203125
 10
0.2882461101276519
 20
0.0010137320185812
 10
0.2882461101276519
 20
0.0876055386592079
 10
0.2016543034870271
 20
0.0876055386592079
  0
LWPOLYLINE
  5
B4595A0C407B721C
330
12C2A0841583B244
100
AcDbEntity
  8
TEXT
100
AcDbPolyline
 90
        2
 70
     0
 43
0.0001332181640625
 10
0.2882461101276519
 20
0.0876055386592079
 10
0.2282979362995281
 20
0.0276573648310823
  0
LWPOLYLINE
  5
B4595A0C407B721D
330
12C2A0841583B244
100
AcDbEntity
  8
TEXT
100
AcDbPolyline
 90
        2
 70
     0
 43
0.0001332181640625
 10
0.0750970476276507
 20
0.0876055386592079
 10
0.1350452214557762
 20
0.0276573648310823
  0
LWPOLYLINE
  5
B4595A0C407B721E
330
12C2A0841583B244
100
AcDbEntity
  8
TEXT
100
AcDbPolyline
 90
        3
 70
     0
 43
0.0006660908203125
 10
0.1616888542682755
 20
0.1142491714717089
 10
0.0484534148151532
 20
0.1142491714717089
 10
0.0484534148151532
 20
0.0010137320185812
  0
LWPOLYLINE
  5
B4595A0C407B721F
330
12C2A0841583B244
100
AcDbEntity
  8
TEXT
100
AcDbPolyline
 90
        3
 70
     0
 43
0.0006660908203125
 10
0.1616888542682755
 20
0.0876055386592079
 10
0.0750970476276507
 20
0.0876055386592079
 10
0.0750970476276507
 20
0.0010137320185812
  0
LINE
  5
B4595A0C407B7220
330
12C2A0841583B244
100
AcDbEntity
  8
TEXT
100
AcDbLine
 10
0.6506040160324798
 20
0.014167755204312
 30
0.0
 11
0.5850038797881787
 21
0.014167755204312
 31
0.0
  0
LINE
  5
B4595A0C407B7221
330
12C2A0841583B244
100
AcDbEntity
  8
TEXT
100
AcDbLine
 10
0.5797665496739306
 20
-0.0499257474213017
 30
0.0
 11
0.6555443899387594
 21
-0.0499257474213017
 31
0.0
  0
LINE
  5
B4595A0C407B7222
330
12C2A0841583B244
100
AcDbEntity
  8
TEXT
100
AcDbLine
 10
0.4976790902274271
 20
-0.1522238615168057
 30
0.0
 11
0.6506040160324798
 21
-0.1522238615168057
 31
0.0
  0
LINE
  5
B4595A0C407B7223
330
12C2A0841583B244
100
AcDbEntity
  8
TEXT
100
AcDbLine
 10
0.6555443899387594
 20
-0.0838668551833664
 30
0.0
 11
0.4976790902274253
 21
-0.0838668551833664
 31
0.0
  0
LINE
  5
B4595A0C407B7224
330
12C2A0841583B244
100
AcDbEntity
  8
TEXT
100
AcDbLine
 10
0.5850038797881787
 20
0.0499724768149399
 30
0.0
 11
0.7519095338171482
 21
0.0499724768149399
 31
0.0
  0
LWPOLYLINE
  5
B4595A0C407B7225
330
12C2A0841583B244
100
AcDbEntity
  8
TEXT
100
AcDbPolyline
 90
        2
 70
     0
 43
0.0006660908203125
 10
0.2882461101276519
 20
0.0010137320185812
 10
0.3148897429401529
 20
0.0010137320185812
  0
LWPOLYLINE
  5
B4595A0C407B7226
330
12C2A0841583B244
100
AcDbEntity
  8
TEXT
100
AcDbPolyline
 90
        2
 70
     0
 43
0.0001332181640625
 10
0.2416197527057768
 20
-0.0089776302861075
 10
0.3148897429401529
 20
0.0010137320185812
  0
LWPOLYLINE
  5
B4595A0C407B7227
330
12C2A0841583B244
100
AcDbEntity
  8
TEXT
100
AcDbPolyline
 90
        2
 70
     0
 43
0.0006660908203125
 10
0.2882461101276519
 20
-0.0389517172001668
 10
0.3148897429401529
 20
-0.0389517172001668
  0
LWPOLYLINE
  5
B4595A0C407B7228
330
12C2A0841583B244
100
AcDbEntity
  8
TEXT
100
AcDbPolyline
 90
        3
 70
     0
 43
0.0006660908203125
 10
0.2016543034870271
 20
-0.1521871566532944
 10
0.3148897429401529
 20
-0.1521871566532944
 10
0.3148897429401529
 20
-0.0389517172001668
  0
LWPOLYLINE
  5
B4595A0C407B7229
330
12C2A0841583B244
100
AcDbEntity
  8
TEXT
100
AcDbPolyline
 90
        2
 70
     0
 43
0.0001332181640625
 10
0.3148897429401529
 20
-0.0389517172001668
 10
0.2416197527057768
 20
-0.0289603548954816
  0
LWPOLYLINE
  5
B4595A0C407B722A
330
12C2A0841583B244
100
AcDbEntity
  8
TEXT
100
AcDbPolyline
 90
        3
 70
     0
 43
0.0006660908203125
 10
0.0484534148151532
 20
-0.0389517172001668
 10
0.0484534148151532
 20
-0.1521871566532944
 10
0.1616888542682755
 20
-0.1521871566532944
  0
LWPOLYLINE
  5
B4595A0C407B722B
330
12C2A0841583B244
100
AcDbEntity
  8
TEXT
100
AcDbPolyline
 90
        3
 70
     0
 43
0.0006660908203125
 10
0.0750970476276507
 20
-0.0389517172001668
 10
0.0750970476276507
 20
-0.1255435238407934
 10
0.1616888542682755
 20
-0.1255435238407934
  0
LWPOLYLINE
  5
B4595A0C407B722C
330
12C2A0841583B244
100
AcDbEntity
  8
TEXT
100
AcDbPolyline
 90
        5
 70
     0
 43
0.0001332181640625
 10
0.1716802165729661
 20
-0.0789171664189183
 10
0.1716802165729661
 20
-0.0655953500126678
 10
0.135045221455778
 20
-0.0655953500126678
 10
0.135045221455778
 20
-0.0289603548954816
 10
0.1217234050495275
 20
-0.0289603548954816
  0
LWPOLYLINE
  5
B4595A0C407B722D
330
12C2A0841583B244
100
AcDbEntity
  8
TEXT
100
AcDbPolyline
 90
        5
 70
     0
 43
0.0001332181640625
 10
0.1217234050495275
 20
-0.0089776302861075
 10
0.1350452214557762
 20
-0.0089776302861075
 10
0.1350452214557762
 20
0.0276573648310823
 10
0.1716802165729661
 20
0.0276573648310823
 10
0.1716802165729661
 20
0.0409791812373293
  0
LWPOLYLINE
  5
B4595A0C407B722E
330
12C2A0841583B244
100
AcDbEntity
  8
TEXT
100
AcDbPolyline
 90
        2
 70
     0
 43
0.0001332181640625
 10
0.0750970476276507
 20
0.0010137320185812
 10
0.1350452214557762
 20
-0.0089776302861075
  0
LWPOLYLINE
  5
B4595A0C407B722F
330
12C2A0841583B244
100
AcDbEntity
  8
TEXT
100
AcDbPolyline
 90
        2
 70
     0
 43
0.0001332181640625
 10
0.0484534148151532
 20
0.0010137320185812
 10
0.1217234050495275
 20
-0.0089776302861075
  0
LWPOLYLINE
  5
B4595A0C407B7230
330
12C2A0841583B244
100
AcDbEntity
  8
TEXT
100
AcDbPolyline
 90
        2
 70
     0
 43
0.0006660908203125
 10
0.0750970476276507
 20
0.0010137320185812
 10
0.0484534148151532
 20
0.0010137320185812
  0
LWPOLYLINE
  5
B4595A0C407B7231
330
12C2A0841583B244
100
AcDbEntity
  8
TEXT
100
AcDbPolyline
 90
        2
 70
     0
 43
0.0001332181640625
 10
0.0750970476276507
 20
-0.1255435238407934
 10
0.135045221455778
 20
-0.0655953500126678
  0
LWPOLYLINE
  5
B4595A0C407B7232
330
12C2A0841583B244
100
AcDbEntity
  8
TEXT
100
AcDbPolyline
 90
        2
 70
     0
 43
0.0006660908203125
 10
0.0750970476276507
 20
-0.0389517172001668
 10
0.0484534148151532
 20
-0.0389517172001668
  0
LWPOLYLINE
  5
B4595A0C407B7233
330
12C2A0841583B244
100
AcDbEntity
  8
TEXT
100
AcDbPolyline
 90
        2
 70
     0
 43
0.0001332181640625
 10
0.1217234050495275
 20
-0.0289603548954816
 10
0.0484534148151532
 20
-0.0389517172001668
  0
LWPOLYLINE
  5
B4595A0C407B7234
330
12C2A0841583B244
100
AcDbEntity
  8
TEXT
100
AcDbPolyline
 90
        2
 70
     0
 43
0.0001332181640625
 10
0.0750970476276507
 20
-0.0389517172001668
 10
0.135045221455778
 20
-0.0289603548954816
  0
LWPOLYLINE
  5
B4595A0C407B7235
330
12C2A0841583B244
100
AcDbEntity
  8
TEXT
100
AcDbPolyline
 90
        5
 70
     0
 43
0.0001332181640625
 10
0.1916629411823383
 20
0.0409791812373293
 10
0.1916629411823383
 20
0.0276573648310823
 10
0.2282979362995281
 20
0.0276573648310823
 10
0.2282979362995281
 20
-0.0089776302861075
 10
0.2416197527057768
 20
-0.0089776302861075
  0
LWPOLYLINE
  5
B4595A0C407B7236
330
12C2A0841583B244
100
AcDbEntity
  8
TEXT
100
AcDbPolyline
 90
        2
 70
     0
 43
0.0001332181640625
 10
0.2882461101276519
 20
0.0010137320185812
 10
0.2282979362995281
 20
-0.0089776302861075
  0
LWPOLYLINE
  5
B4595A0C407B7237
330
12C2A0841583B244
100
AcDbEntity
  8
TEXT
100
AcDbPolyline
 90
        2
 70
     0
 43
0.0006660908203125
 10
0.1616888542682755
 20
-0.1255435238407934
 10
0.1616888542682755
 20
-0.1521871566532944
  0
LWPOLYLINE
  5
B4595A0C407B7238
330
12C2A0841583B244
100
AcDbEntity
  8
TEXT
100
AcDbPolyline
 90
        2
 70
     0
 43
0.0001332181640625
 10
0.1616888542682755
 20
-0.1255435238407934
 10
0.1716802165729661
 20
-0.0655953500126678
  0
LWPOLYLINE
  5
B4595A0C407B7239
330
12C2A0841583B244
100
AcDbEntity
  8
TEXT
100
AcDbPolyline
 90
        2
 70
     0
 43
0.0001332181640625
 10
0.1616888542682755
 20
-0.1521871566532944
 10
0.1716802165729661
 20
-0.0789171664189183
  0
LWPOLYLINE
  5
B4595A0C407B723A
330
12C2A0841583B244
100
AcDbEntity
  8
TEXT
100
AcDbPolyline
 90
        2
 70
     0
 43
0.0001332181640625
 10
0.2016543034870271
 20
-0.1255435238407934
 10
0.1916629411823383
 20
-0.0655953500126678
  0
LWPOLYLINE
  5
B4595A0C407B723B
330
12C2A0841583B244
100
AcDbEntity
  8
TEXT
100
AcDbPolyline
 90
        2
 70
     0
 43
0.0001332181640625
 10
0.1916629411823383
 20
-0.0789171664189183
 10
0.2016543034870271
 20
-0.1521871566532944
  0
LWPOLYLINE
  5
B4595A0C407B723C
330
12C2A0841583B244
100
AcDbEntity
  8
TEXT
100
AcDbPolyline
 90
        2
 70
     0
 43
0.0006660908203125
 10
0.2016543034870271
 20
-0.1255435238407934
 10
0.2016543034870271
 20
-0.1521871566532944
  0
LWPOLYLINE
  5
B4595A0C407B723D
330
12C2A0841583B244
100
AcDbEntity
  8
TEXT
100
AcDbPolyline
 90
        2
 70
     0
 43
0.0001332181640625
 10
0.2882461101276519
 20
-0.1255435238407934
 10
0.2282979362995281
 20
-0.0655953500126678
  0
LWPOLYLINE
  5
B4595A0C407B723E
330
12C2A0841583B244
100
AcDbEntity
  8
TEXT
100
AcDbPolyline
 90
        3
 70
     0
 43
0.0006660908203125
 10
0.2016543034870271
 20
-0.1255435238407934
 10
0.2882461101276519
 20
-0.1255435238407934
 10
0.2882461101276519
 20
-0.0389517172001668
  0
LWPOLYLINE
  5
B4595A0C407B723F
330
12C2A0841583B244
100
AcDbEntity
  8
TEXT
100
AcDbPolyline
 90
        2
 70
     0
 43
0.0001332181640625
 10
0.2882461101276519
 20
-0.0389517172001668
 10
0.2282979362995281
 20
-0.0289603548954816
  0
LWPOLYLINE
  5
B4595A0C407B7240
330
12C2A0841583B244
100
AcDbEntity
  8
TEXT
100
AcDbPolyline
 90
        5
 70
     0
 43
0.0001332181640625
 10
0.2416197527057768
 20
-0.0289603548954816
 10
0.2282979362995281
 20
-0.0289603548954816
 10
0.2282979362995281
 20
-0.0655953500126678
 10
0.1916629411823383
 20
-0.0655953500126678
 10
0.1916629411823383
 20
-0.0789171664189183
  0
ARC
  5
B4595A0C407B7241
330
12C2A0841583B244
100
AcDbEntity
  8
TEXT
100
AcDbCircle
 10
0.5850038797881787
 20
0.0320701160096277
 30
0.0
 40
0.017902360805315
100
AcDbArc
 50
90.0
 51
270.0
  0
LINE
  5
B4595A0C407B7242
330
12C2A0841583B244
100
AcDbEntity
  8
TEXT
100
AcDbLine
 10
0.4976790902274253
 20
-0.0838668551833664
 30
0.0
 11
0.4976790902274271
 21
-0.1522238615168057
 31
0.0
  0
TEXT
  5
B4595A0C407B7243
330
12C2A0841583B244
100
AcDbEntity
  8
TEXT
100
AcDbText
 10
2.204407106882461
 20
-0.1525964798376016
 30
0.0
 40
0.0522247191011236
  1
Phone  1-800-328-2495
 41
1.272321428571429
 72
     5
 11
3.533339691152125
 21
-0.1525964798376016
 31
0.0
100
AcDbText
  0
TEXT
  5
B4595A0C407B7244
330
12C2A0841583B244
100
AcDbEntity
  8
TEXT
100
AcDbText
 10
2.204407106882461
 20
-0.0593380528713095
 30
0.0
 40
0.0522247191011236
  1
Minneapolis, MN 55432-0008
 41
1.11444212721585
 72
     5
 11
3.533339691152125
 21
-0.0593380528713095
 31
0.0
100
AcDbText
  0
LINE
  5
B4595A0C407B7245
330
12C2A0841583B244
100
AcDbEntity
  8
TEXT
100
AcDbLine
 10
1.758835447584203
 20
0.0499724768149399
 30
0.0
 11
1.835483428876759
 21
0.0499724768149399
 31
0.0
  0
LINE
  5
B4595A0C407B7246
330
12C2A0841583B244
100
AcDbEntity
  8
TEXT
100
AcDbLine
 10
1.200792289953529
 20
0.0499724768149399
 30
0.0
 11
1.250627569776678
 21
0.0499724768149399
 31
0.0
  0
ARC
  5
B4595A0C407B7247
330
12C2A0841583B244
100
AcDbEntity
  8
TEXT
100
AcDbCircle
 10
0.9023263976831259
 20
-0.1126761392431099
 30
0.0
 40
0.0392772371940762
100
AcDbArc
 50
270.1604552698595
 51
330.0831797321295
  0
ARC
  5
B4595A0C407B7248
330
12C2A0841583B244
100
AcDbEntity
  8
TEXT
100
AcDbCircle
 10
0.8120255517909011
 20
-0.0924314701787559
 30
0.0
 40
0.0601160179737537
100
AcDbArc
 50
180.0000000000003
 51
264.0521544866073
  0
LINE
  5
B4595A0C407B7249
330
12C2A0841583B244
100
AcDbEntity
  8
TEXT
100
AcDbLine
 10
0.7519095338171482
 20
0.0499724768149399
 30
0.0
 11
0.7519095338171482
 21
-0.0924314701787559
 31
0.0
  0
ARC
  5
B4595A0C407B724A
330
12C2A0841583B244
100
AcDbEntity
  8
TEXT
100
AcDbCircle
 10
0.6555443899387594
 20
-0.0668963013023323
 30
0.0
 40
0.0169705538810321
100
AcDbArc
 50
270.0
 51
90.0
  0
ARC
  5
B4595A0C407B724B
330
12C2A0841583B244
100
AcDbEntity
  8
TEXT
100
AcDbCircle
 10
0.6506040160324798
 20
-0.0690280531562486
 30
0.0
 40
0.0831958083605586
100
AcDbArc
 50
270.0
 51
90.0
  0
LWPOLYLINE
  5
B4595A0C407B724C
330
12C2A0841583B244
100
AcDbEntity
  8
TEXT
100
AcDbPolyline
 90
        6
 70
     1
 43
0.0
 10
0.8483199448724043
 20
0.0499724768149399
 10
0.8180033506521962
 20
0.0499724768149399
 10
0.8180033506521962
 20
-0.0731385212399545
 42
0.407328721240804
 10
0.8295470018136725
 20
-0.0849574359163406
 10
0.8901687008584033
 20
-0.0849574359163406
 10
0.9076340412657213
 20
-0.0521452068728614
  0
LINE
  5
B4595A0C407B724D
330
12C2A0841583B244
100
AcDbEntity
  8
TEXT
100
AcDbLine
 10
0.8057961412972538
 20
-0.1522238615168057
 30
0.0
 11
0.9024363923722482
 21
-0.1519532224185234
 31
0.0
  0
LWPOLYLINE
  5
B4595A0C407B724E
330
12C2A0841583B244
100
AcDbEntity
  8
TEXT
100
AcDbPolyline
 90
        2
 70
     0
 43
0.0
 10
1.033669663688783
 20
-0.1006725193018774
 42
0.3318488747599744
 10
1.102788956254096
 20
-0.1522238615168057
 42
-6.868794160588311
  0
LINE
  5
B4595A0C407B724F
330
12C2A0841583B244
100
AcDbEntity
  8
TEXT
100
AcDbLine
 10
1.033669663688783
 20
0.0320848555234754
 30
0.0
 11
1.033669663688783
 21
-0.1006725193018809
 31
0.0
  0
LINE
  5
B4595A0C407B7250
330
12C2A0841583B244
100
AcDbEntity
  8
TEXT
100
AcDbLine
 10
0.936369957595339
 20
-0.1322653554117927
 30
0.0
 11
1.033669663688783
 21
0.0320848555234754
 31
0.0
  0
ARC
  5
B4595A0C407B7251
330
12C2A0841583B244
100
AcDbEntity
  8
TEXT
100
AcDbCircle
 10
1.116967600010958
 20
-0.0712332290172775
 30
0.0
 40
0.0153818062434269
100
AcDbArc
 50
174.7883570302258
 51
270.0
  0
LINE
  5
B4595A0C407B7252
330
12C2A0841583B244
100
AcDbEntity
  8
TEXT
100
AcDbLine
 10
1.133961236895562
 20
-0.0866150352607029
 30
0.0
 11
1.116967600010958
 21
-0.0866150352607029
 31
0.0
  0
LINE
  5
B4595A0C407B7253
330
12C2A0841583B244
100
AcDbEntity
  8
TEXT
100
AcDbLine
 10
1.102788956254094
 20
-0.1522238615168057
 30
0.0
 11
1.200792289953529
 21
-0.1522238615168057
 31
0.0
  0
LINE
  5
B4595A0C407B7254
330
12C2A0841583B244
100
AcDbEntity
  8
TEXT
100
AcDbLine
 10
1.200792289953529
 20
-0.1522238615168057
 30
0.0
 11
1.200792289953529
 21
0.0499724768149399
 31
0.0
  0
LINE
  5
B4595A0C407B7255
330
12C2A0841583B244
100
AcDbEntity
  8
TEXT
100
AcDbLine
 10
1.563643843941651
 20
0.0499724768149399
 30
0.0
 11
1.45643757055436
 21
0.0499724768149399
 31
0.0
  0
LINE
  5
B4595A0C407B7256
330
12C2A0841583B244
100
AcDbEntity
  8
TEXT
100
AcDbLine
 10
1.517156929462387
 20
0.0126975033528076
 30
0.0
 11
1.599444919245772
 21
0.0126975033528076
 31
0.0
  0
LWPOLYLINE
  5
B4595A0C407B7257
330
12C2A0841583B244
100
AcDbEntity
  8
TEXT
100
AcDbPolyline
 90
        4
 70
     1
 43
0.0
 10
1.612375960528671
 20
-0.0492598835327804
 10
1.523715641868813
 20
-0.0492598835327804
 42
0.9999999999999998
 10
1.523715641868813
 20
-0.0916584240366412
 10
1.612375960528671
 20
-0.0916584240366412
 42
1.0
  0
LWPOLYLINE
  5
B4595A0C407B7258
330
12C2A0841583B244
100
AcDbEntity
  8
TEXT
100
AcDbPolyline
 90
        2
 70
     0
 43
0.0
 10
1.498481007967187
 20
-0.1522238615168057
 10
1.632498425598564
 20
-0.1522238615168057
 42
0.9999999999999998
  0
LINE
  5
B4595A0C407B7259
330
12C2A0841583B244
100
AcDbEntity
  8
TEXT
100
AcDbLine
 10
1.32523940572463
 20
0.0499724768149399
 30
0.0
 11
1.379373002645582
 21
0.0499724768149399
 31
0.0
  0
LINE
  5
B4595A0C407B725A
330
12C2A0841583B244
100
AcDbEntity
  8
TEXT
100
AcDbLine
 10
1.258181358942792
 20
-0.1522238615168057
 30
0.0
 11
1.32523940572463
 21
-0.1522238615168057
 31
0.0
  0
LINE
  5
B4595A0C407B725B
330
12C2A0841583B244
100
AcDbEntity
  8
TEXT
100
AcDbLine
 10
1.32523940572463
 20
-0.1522238615168057
 30
0.0
 11
1.32523940572463
 21
0.0499724768149399
 31
0.0
  0
LINE
  5
B4595A0C407B725C
330
12C2A0841583B244
100
AcDbEntity
  8
TEXT
100
AcDbLine
 10
1.258181358942792
 20
0.04241868764883
 30
0.0
 11
1.258181358942792
 21
-0.1522238615168057
 31
0.0
  0
LWPOLYLINE
  5
B4595A0C407B725D
330
12C2A0841583B244
100
AcDbEntity
  8
TEXT
100
AcDbPolyline
 90
        2
 70
     0
 43
0.0
 10
1.250627569776677
 20
0.0499724768149399
 42
-0.4142135623731017
 10
1.25818135894279
 20
0.04241868764883
 42
-0.9999999999999998
  0
LINE
  5
B4595A0C407B725E
330
12C2A0841583B244
100
AcDbEntity
  8
TEXT
100
AcDbLine
 10
1.45643757055436
 20
0.0499724768149399
 30
0.0
 11
1.45643757055436
 21
-0.0250799292592667
 31
0.0
  0
ARC
  5
B4595A0C407B725F
330
12C2A0841583B244
100
AcDbEntity
  8
TEXT
100
AcDbCircle
 10
1.517156929462387
 20
-0.054988077791311
 30
0.0
 40
0.0676855811441166
100
AcDbArc
 50
90.0
 51
153.7768192527749
  0
LWPOLYLINE
  5
B4595A0C407B7260
330
12C2A0841583B244
100
AcDbEntity
  8
TEXT
100
AcDbPolyline
 90
        2
 70
     0
 43
0.0
 10
1.455405075099552
 20
-0.1087329165663675
 42
0.2901071551932823
 10
1.498481007967187
 20
-0.1522238615168057
 42
5.328517124445801
  0
LWPOLYLINE
  5
B4595A0C407B7261
330
12C2A0841583B244
100
AcDbEntity
  8
TEXT
100
AcDbPolyline
 90
        2
 70
     0
 43
0.0
 10
1.37937300264558
 20
0.0499724768149399
 42
-0.4142135623731017
 10
1.386926791811694
 20
0.04241868764883
 42
-0.9999999999999998
  0
LWPOLYLINE
  5
B4595A0C407B7262
330
12C2A0841583B244
100
AcDbEntity
  8
TEXT
100
AcDbPolyline
 90
        4
 70
     0
 43
0.0
 10
1.386926791811694
 20
0.04241868764883
 10
1.386926791811694
 20
-0.1522238615168057
 10
1.455405075099552
 20
-0.1522238615168057
 10
1.455405075099552
 20
-0.1087329165663675
 42
-1.714843617202739
  0
LWPOLYLINE
  5
B4595A0C407B7263
330
12C2A0841583B244
100
AcDbEntity
  8
TEXT
100
AcDbPolyline
 90
        2
 70
     0
 43
0.0
 10
1.675574358466208
 20
-0.1087329165663675
 42
-0.2901071551932486
 10
1.632498425598564
 20
-0.1522238615168057
 42
-5.328517124445184
  0
LWPOLYLINE
  5
B4595A0C407B7264
330
12C2A0841583B244
100
AcDbEntity
  8
TEXT
100
AcDbPolyline
 90
        2
 70
     0
 43
0.0
 10
1.675574358466208
 20
-0.1522238615168057
 10
1.733929572301542
 20
-0.1522238615168057
  0
LWPOLYLINE
  5
B4595A0C407B7265
330
12C2A0841583B244
100
AcDbEntity
  8
TEXT
100
AcDbPolyline
 90
        2
 70
     0
 43
0.0
 10
1.675574358466208
 20
-0.1087329165663675
 10
1.675574358466208
 20
-0.1522238615168057
  0
LINE
  5
B4595A0C407B7266
330
12C2A0841583B244
100
AcDbEntity
  8
TEXT
100
AcDbLine
 10
1.599444919245772
 20
0.0126975033528076
 30
0.0
 11
1.589180158832206
 21
0.0339480429255019
 31
0.0
  0
LINE
  5
B4595A0C407B7267
330
12C2A0841583B244
100
AcDbEntity
  8
TEXT
100
AcDbLine
 10
1.733929572301544
 20
-0.1522238615168057
 30
0.0
 11
1.733929572301537
 21
0.0250666439146627
 31
0.0
  0
LINE
  5
B4595A0C407B7268
330
12C2A0841583B244
100
AcDbEntity
  8
TEXT
100
AcDbLine
 10
2.052343518783057
 20
-0.1522238615168057
 30
0.0
 11
1.956851295419447
 21
0.0043559285307317
 31
0.0
  0
LINE
  5
B4595A0C407B7269
330
12C2A0841583B244
100
AcDbEntity
  8
TEXT
100
AcDbLine
 10
1.97576514640685
 20
-0.1522238615168057
 30
0.0
 11
2.052343518783057
 21
-0.1522238615168057
 31
0.0
  0
LINE
  5
B4595A0C407B726A
330
12C2A0841583B244
100
AcDbEntity
  8
TEXT
100
AcDbLine
 10
1.835483428876766
 20
-0.1522238615168057
 30
0.0
 11
1.899861613195387
 21
-0.1522238615168057
 31
0.0
  0
LINE
  5
B4595A0C407B726B
330
12C2A0841583B244
100
AcDbEntity
  8
TEXT
100
AcDbLine
 10
1.835483428876759
 20
0.0499724768149399
 30
0.0
 11
1.835483428876766
 21
-0.1522238615168057
 31
0.0
  0
LINE
  5
B4595A0C407B726C
330
12C2A0841583B244
100
AcDbEntity
  8
TEXT
100
AcDbLine
 10
1.899861613195387
 20
-0.0206442930406254
 30
0.0
 11
1.97576514640685
 21
-0.1522238615168057
 31
0.0
  0
LINE
  5
B4595A0C407B726D
330
12C2A0841583B244
100
AcDbEntity
  8
TEXT
100
AcDbLine
 10
1.899861613195387
 20
-0.1522238615168057
 30
0.0
 11
1.899861613195387
 21
-0.0206442930406254
 31
0.0
  0
LINE
  5
B4595A0C407B726E
330
12C2A0841583B244
100
AcDbEntity
  8
TEXT
100
AcDbLine
 10
0.7554983025724411
 20
0.1142491714717053
 30
0.0
 11
0.5797665496739306
 21
0.1142491714717053
 31
0.0
  0
LWPOLYLINE
  5
B4595A0C407B726F
330
12C2A0841583B244
100
AcDbEntity
  8
TEXT
100
AcDbPolyline
 90
        2
 70
     0
 43
0.0006660908203125
 10
0.1616888542682755
 20
0.0876055386592079
 10
0.1616888542682755
 20
0.1142491714717089
  0
LWPOLYLINE
  5
B4595A0C407B7270
330
12C2A0841583B244
100
AcDbEntity
  8
TEXT
100
AcDbPolyline
 90
        2
 70
     0
 43
0.0006660908203125
 10
0.2016543034870271
 20
0.0876055386592079
 10
0.2016543034870271
 20
0.1142491714717089
  0
TEXT
  5
B4595A0C407B7271
330
12C2A0841583B244
100
AcDbEntity
  8
TEXT
100
AcDbText
 10
2.204407106882461
 20
0.1271788010612749
 30
0.0
 40
0.0522247191011236
  1
Stylmark  Incorporated
 41
1.221428571428571
 72
     5
 11
3.533339691152125
 21
0.1271788010612749
 31
0.0
100
AcDbText
  0
LINE
  5
B4595A0C407B7272
330
12C2A0841583B244
100
AcDbEntity
  8
TEXT
100
AcDbLine
 10
1.831003541550259
 20
0.1142491714717053
 30
0.0
 11
1.763503823900745
 21
0.1142491714717053
 31
0.0
  0
TEXT
  5
B4595A0C407B7273
330
12C2A0841583B244
100
AcDbEntity
  8
TEXT
100
AcDbText
 10
1.035149567679758
 20
0.294326162834774
 30
0.0
 40
0.125
  1
PART #110547
  7
ITALICC
 72
     1
 11
1.791101948632139
 21
0.294326162834774
 31
0.0
100
AcDbText
  0
LINE
  5
B4595A0C407B7274
330
12C2A0841583B244
100
AcDbEntity
  8
TEXT
100
AcDbLine
 10
1.267979292826698
 20
0.1142491714717053
 30
0.0
 11
1.133961236895562
 21
0.1142491714717053
 31
0.0
  0
LINE
  5
B4595A0C407B7275
330
12C2A0841583B244
100
AcDbEntity
  8
TEXT
100
AcDbLine
 10
0.8155409074164481
 20
0.1486370890658435
 30
0.0
 11
0.7554983025724411
 21
0.1486370890658435
 31
0.0
  0
LINE
  5
B4595A0C407B7276
330
12C2A0841583B244
100
AcDbEntity
  8
TEXT
100
AcDbLine
 10
0.7554983025724411
 20
0.1486370890658435
 30
0.0
 11
0.7554983025724411
 21
0.1142491714717053
 31
0.0
  0
LINE
  5
B4595A0C407B7277
330
12C2A0841583B244
100
AcDbEntity
  8
TEXT
100
AcDbLine
 10
0.8873398735603572
 20
0.1142491714717053
 30
0.0
 11
0.8155409074164481
 21
0.1142491714717053
 31
0.0
  0
LINE
  5
B4595A0C407B7278
330
12C2A0841583B244
100
AcDbEntity
  8
TEXT
100
AcDbLine
 10
0.8155409074164481
 20
0.1142491714717053
 30
0.0
 11
0.8155409074164481
 21
0.1486370890658435
 31
0.0
  0
LINE
  5
B4595A0C407B7279
330
12C2A0841583B244
100
AcDbEntity
  8
TEXT
100
AcDbLine
 10
1.101649382757901
 20
0.1822606492105159
 30
0.0
 11
1.034840670191535
 21
0.1822606492105159
 31
0.0
  0
LINE
  5
B4595A0C407B727A
330
12C2A0841583B244
100
AcDbEntity
  8
TEXT
100
AcDbLine
 10
1.034840670191535
 20
0.1142491714717053
 30
0.0
 11
1.004718757398158
 21
0.1142491714717053
 31
0.0
  0
LINE
  5
B4595A0C407B727B
330
12C2A0841583B244
100
AcDbEntity
  8
TEXT
100
AcDbLine
 10
1.034840670191535
 20
0.1822606492105159
 30
0.0
 11
1.034840670191535
 21
0.1142491714717053
 31
0.0
  0
LINE
  5
B4595A0C407B727C
330
12C2A0841583B244
100
AcDbEntity
  8
TEXT
100
AcDbLine
 10
1.592674742286128
 20
0.1142491714717053
 30
0.0
 11
1.457842833069069
 21
0.1142491714717053
 31
0.0
  0
LWPOLYLINE
  5
B4595A0C407B727D
330
12C2A0841583B244
100
AcDbEntity
  8
TEXT
100
AcDbPolyline
 90
        3
 70
     0
 43
0.0
 10
1.422061142355904
 20
0.1142491714717089
 10
1.303760983539859
 20
0.1142491714717089
 10
1.303760983539859
 20
0.087081674710813
 42
-1.960274751411753
  0
LWPOLYLINE
  5
B4595A0C407B727E
330
12C2A0841583B244
100
AcDbEntity
  8
TEXT
100
AcDbPolyline
 90
        2
 70
     0
 43
0.0
 10
1.267979292826698
 20
0.1142491714717089
 42
-0.3328679258950098
 10
1.303760983539859
 20
0.087081674710813
 42
6.772930709997214
  0
LINE
  5
B4595A0C407B727F
330
12C2A0841583B244
100
AcDbEntity
  8
TEXT
100
AcDbLine
 10
1.457842833069069
 20
0.1142491714717053
 30
0.0
 11
1.457842833069069
 21
0.0859266257020615
 31
0.0
  0
LWPOLYLINE
  5
B4595A0C407B7280
330
12C2A0841583B244
100
AcDbEntity
  8
TEXT
100
AcDbPolyline
 90
        2
 70
     0
 43
0.0
 10
1.422061142355904
 20
0.1142491714717089
 42
-0.3277054968067132
 10
1.457842833069069
 20
0.085926625702065
 42
6.667889725900311
  0
LINE
  5
B4595A0C407B7281
330
12C2A0841583B244
100
AcDbEntity
  8
TEXT
100
AcDbLine
 10
1.73553158746067
 20
0.1142491714717053
 30
0.0
 11
1.671634681161169
 21
0.1142491714717053
 31
0.0
  0
ARC
  5
B4595A0C407B7282
330
12C2A0841583B244
100
AcDbEntity
  8
TEXT
100
AcDbCircle
 10
1.59064780250906
 20
0.0726656043508029
 30
0.0
 40
0.0416329381542859
100
AcDbArc
 50
26.56974201007528
 51
87.20939649401342
  0
LINE
  5
B4595A0C407B7283
330
12C2A0841583B244
100
AcDbEntity
  8
TEXT
100
AcDbLine
 10
1.73553158746067
 20
0.0867015216108307
 30
0.0
 11
1.73553158746067
 21
0.1142491714717053
 31
0.0
  0
ARC
  5
B4595A0C407B7284
330
12C2A0841583B244
100
AcDbEntity
  8
TEXT
100
AcDbCircle
 10
1.766724404523779
 20
0.0830034441894405
 30
0.0
 40
0.0314112657011332
100
AcDbArc
 50
95.88484768694724
 51
173.2388340632136
  0
LINE
  5
B4595A0C407B7285
330
12C2A0841583B244
100
AcDbEntity
  8
TEXT
100
AcDbLine
 10
2.021408411385152
 20
0.1142491714717053
 30
0.0
 11
1.946416578655526
 21
0.1142491714717053
 31
0.0
  0
LINE
  5
B4595A0C407B7286
330
12C2A0841583B244
100
AcDbEntity
  8
TEXT
100
AcDbLine
 10
1.831003541550266
 20
0.179713377239306
 30
0.0
 11
1.831003541550259
 21
0.1142491714717053
 31
0.0
  0
LINE
  5
B4595A0C407B7287
330
12C2A0841583B244
100
AcDbEntity
  8
TEXT
100
AcDbLine
 10
1.89931842009954
 20
0.179713377239306
 30
0.0
 11
1.831003541550266
 21
0.179713377239306
 31
0.0
  0
ENDSEC
  0
SECTION
  2
OBJECTS
  0
DICTIONARY
  5
12C2A0841583B238
330
0
100
AcDbDictionary
  3
ACAD_GROUP
350
12C2A0841583B239
  3
ACAD_LAYOUT
350
B4595A0C407B728D
  3
ACAD_MLINESTYLE
350
12C2A0841583B23A
  3
ACAD_PLOTSETTINGS
350
B4595A0C407B728E
  3
ACAD_PLOTSTYLENAME
350
B4595A0C407B728B
  3
ACDBHEADERROUNDTRIPXREC
350
B4595A0C407B7298
  3
ACDBVARIABLEDICTIONARY
350
B4595A0C407B7295
  0
DICTIONARY
  5
B4595A0C407B72BA
330
12C2A0841583B244
100
AcDbDictionary
280
     1
  3
ACAD_LAYOUTSELFREF
360
B4595A0C407B72BB
  0
DICTIONARY
  5
B4595A0C407B72B8
330
12C2A0841583B241
100
AcDbDictionary
280
     1
  3
ACAD_LAYOUTSELFREF
360
B4595A0C407B72B9
  0
DICTIONARY
  5
12C2A0841583B239
102
{ACAD_REACTORS
330
12C2A0841583B238
102
}
330
12C2A0841583B238
100
AcDbDictionary
  0
DICTIONARY
  5
B4595A0C407B728D
102
{ACAD_REACTORS
330
12C2A0841583B238
102
}
330
12C2A0841583B238
100
AcDbDictionary
  0
DICTIONARY
  5
12C2A0841583B23A
102
{ACAD_REACTORS
330
12C2A0841583B238
102
}
330
12C2A0841583B238
100
AcDbDictionary
  3
STANDARD
350
12C2A0841583B247
  0
DICTIONARY
  5
B4595A0C407B728E
102
{ACAD_REACTORS
330
12C2A0841583B238
102
}
330
12C2A0841583B238
100
AcDbDictionary
  0
ACDBDICTIONARYWDFLT
  5
B4595A0C407B728B
102
{ACAD_REACTORS
330
12C2A0841583B238
102
}
330
12C2A0841583B238
100
AcDbDictionary
281
     1
  3
Normal
350
B4595A0C407B728C
100
AcDbDictionaryWithDefault
340
B4595A0C407B728C
  0
DICTIONARY
  5
B4595A0C407B7298
102
{ACAD_REACTORS
330
12C2A0841583B238
102
}
330
12C2A0841583B238
100
AcDbDictionary
  3
CEPSNTYPE
350
B4595A0C407B72A2
  3
FINGERPRINTGUID
350
B4595A0C407B72A3
  3
HYPERLINKBASE
350
B4595A0C407B729B
  3
INSUNITS
350
B4595A0C407B72A1
  3
LAYOUTDICT
350
B4595A0C407B729D
  3
LWETCUNION
350
B4595A0C407B72A0
  3
PLOTSETDICT
350
B4595A0C407B729E
  3
PLOTSTYLNAMDICT
350
B4595A0C407B729F
  3
PSVPSCALE
350
B4595A0C407B72A5
  3
PUCSBASE
350
B4595A0C407B72A8
  3
PUCSORGBACK
350
B4595A0C407B72AE
  3
PUCSORGBOTTOM
350
B4595A0C407B72AA
  3
PUCSORGFRONT
350
B4595A0C407B72AD
  3
PUCSORGLEFT
350
B4595A0C407B72AB
  3
PUCSORGRIGHT
350
B4595A0C407B72AC
  3
PUCSORGTOP
350
B4595A0C407B72A9
  3
PUCSORTHOREF
350
B4595A0C407B72A6
  3
PUCSORTHOVIEW
350
B4595A0C407B72A7
  3
STYLESHEET
350
B4595A0C407B729C
  3
TSTACKALIGN
350
B4595A0C407B7299
  3
TSTACKSIZE
350
B4595A0C407B729A
  3
UCSBASE
350
B4595A0C407B72B1
  3
UCSORGBACK
350
B4595A0C407B72B7
  3
UCSORGBOTTOM
350
B4595A0C407B72B3
  3
UCSORGFRONT
350
B4595A0C407B72B6
  3
UCSORGLEFT
350
B4595A0C407B72B4
  3
UCSORGRIGHT
350
B4595A0C407B72B5
  3
UCSORGTOP
350
B4595A0C407B72B2
  3
UCSORTHOREF
350
B4595A0C407B72AF
  3
UCSORTHOVIEW
350
B4595A0C407B72B0
  3
VERSIONGUID
350
B4595A0C407B72A4
  0
DICTIONARY
  5
B4595A0C407B7295
102
{ACAD_REACTORS
330
12C2A0841583B238
102
}
330
12C2A0841583B238
100
AcDbDictionary
  3
DIMASSOC
350
B4595A0C407B7296
  0
XRECORD
  5
B4595A0C407B72BB
102
{ACAD_REACTORS
330
B4595A0C407B72BA
102
}
330
B4595A0C407B72BA
100
AcDbXrecord
340
12C2A0841583B244
  0
XRECORD
  5
B4595A0C407B72B9
102
{ACAD_REACTORS
330
B4595A0C407B72B8
102
}
330
B4595A0C407B72B8
100
AcDbXrecord
340
12C2A0841583B241
  0
MLINESTYLE
  5
12C2A0841583B247
102
{ACAD_REACTORS
330
12C2A0841583B23A
102
}
330
12C2A0841583B23A
100
AcDbMlineStyle
  2
STANDARD
 70
     0
  3

 62
     0
 51
90.0
 52
90.0
 71
     2
 49
0.5
 62
   256
  6
BYLAYER
 49
-0.5
 62
   256
  6
BYLAYER
  0
ACDBPLACEHOLDER
  5
B4595A0C407B728C
102
{ACAD_REACTORS
330
B4595A0C407B728B
102
}
330
B4595A0C407B728B
100
AcDbPlaceHolder
280
     0
  0
XRECORD
  5
B4595A0C407B72A2
102
{ACAD_REACTORS
330
B4595A0C407B7298
102
}
330
B4595A0C407B7298
100
AcDbXrecord
 90
        0
  0
XRECORD
  5
B4595A0C407B72A3
102
{ACAD_REACTORS
330
B4595A0C407B7298
102
}
330
B4595A0C407B7298
100
AcDbXrecord
  1
{6B249F00-8DB8-11D6-88E6-0090279574E7}
  0
XRECORD
  5
B4595A0C407B729B
102
{ACAD_REACTORS
330
B4595A0C407B7298
102
}
330
B4595A0C407B7298
100
AcDbXrecord
  1

  0
XRECORD
  5
B4595A0C407B72A1
102
{ACAD_REACTORS
330
B4595A0C407B7298
102
}
330
B4595A0C407B7298
100
AcDbXrecord
 90
        0
  0
XRECORD
  5
B4595A0C407B729D
102
{ACAD_REACTORS
330
B4595A0C407B7298
102
}
330
B4595A0C407B7298
100
AcDbXrecord
340
B4595A0C407B728D
  0
XRECORD
  5
B4595A0C407B72A0
102
{ACAD_REACTORS
330
B4595A0C407B7298
102
}
330
B4595A0C407B7298
100
AcDbXrecord
 90
    14877
  0
XRECORD
  5
B4595A0C407B729E
102
{ACAD_REACTORS
330
B4595A0C407B7298
102
}
330
B4595A0C407B7298
100
AcDbXrecord
340
B4595A0C407B728E
  0
XRECORD
  5
B4595A0C407B729F
102
{ACAD_REACTORS
330
B4595A0C407B7298
102
}
330
B4595A0C407B7298
100
AcDbXrecord
340
B4595A0C407B728B
  0
XRECORD
  5
B4595A0C407B72A5
102
{ACAD_REACTORS
330
B4595A0C407B7298
102
}
330
B4595A0C407B7298
100
AcDbXrecord
 40
0.0
  0
XRECORD
  5
B4595A0C407B72A8
102
{ACAD_REACTORS
330
B4595A0C407B7298
102
}
330
B4595A0C407B7298
100
AcDbXrecord
340
0
  0
XRECORD
  5
B4595A0C407B72AE
102
{ACAD_REACTORS
330
B4595A0C407B7298
102
}
330
B4595A0C407B7298
100
AcDbXrecord
 10
0.0
 20
0.0
 30
0.0
  0
XRECORD
  5
B4595A0C407B72AA
102
{ACAD_REACTORS
330
B4595A0C407B7298
102
}
330
B4595A0C407B7298
100
AcDbXrecord
 10
0.0
 20
0.0
 30
0.0
  0
XRECORD
  5
B4595A0C407B72AD
102
{ACAD_REACTORS
330
B4595A0C407B7298
102
}
330
B4595A0C407B7298
100
AcDbXrecord
 10
0.0
 20
0.0
 30
0.0
  0
XRECORD
  5
B4595A0C407B72AB
102
{ACAD_REACTORS
330
B4595A0C407B7298
102
}
330
B4595A0C407B7298
100
AcDbXrecord
 10
0.0
 20
0.0
 30
0.0
  0
XRECORD
  5
B4595A0C407B72AC
102
{ACAD_REACTORS
330
B4595A0C407B7298
102
}
330
B4595A0C407B7298
100
AcDbXrecord
 10
0.0
 20
0.0
 30
0.0
  0
XRECORD
  5
B4595A0C407B72A9
102
{ACAD_REACTORS
330
B4595A0C407B7298
102
}
330
B4595A0C407B7298
100
AcDbXrecord
 10
0.0
 20
0.0
 30
0.0
  0
XRECORD
  5
B4595A0C407B72A6
102
{ACAD_REACTORS
330
B4595A0C407B7298
102
}
330
B4595A0C407B7298
100
AcDbXrecord
340
0
  0
XRECORD
  5
B4595A0C407B72A7
102
{ACAD_REACTORS
330
B4595A0C407B7298
102
}
330
B4595A0C407B7298
100
AcDbXrecord
 70
     0
  0
XRECORD
  5
B4595A0C407B729C
102
{ACAD_REACTORS
330
B4595A0C407B7298
102
}
330
B4595A0C407B7298
100
AcDbXrecord
  1

  0
XRECORD
  5
B4595A0C407B7299
102
{ACAD_REACTORS
330
B4595A0C407B7298
102
}
330
B4595A0C407B7298
100
AcDbXrecord
 90
        1
  0
XRECORD
  5
B4595A0C407B729A
102
{ACAD_REACTORS
330
B4595A0C407B7298
102
}
330
B4595A0C407B7298
100
AcDbXrecord
 90
       70
  0
XRECORD
  5
B4595A0C407B72B1
102
{ACAD_REACTORS
330
B4595A0C407B7298
102
}
330
B4595A0C407B7298
100
AcDbXrecord
340
0
  0
XRECORD
  5
B4595A0C407B72B7
102
{ACAD_REACTORS
330
B4595A0C407B7298
102
}
330
B4595A0C407B7298
100
AcDbXrecord
 10
0.0
 20
0.0
 30
0.0
  0
XRECORD
  5
B4595A0C407B72B3
102
{ACAD_REACTORS
330
B4595A0C407B7298
102
}
330
B4595A0C407B7298
100
AcDbXrecord
 10
0.0
 20
0.0
 30
0.0
  0
XRECORD
  5
B4595A0C407B72B6
102
{ACAD_REACTORS
330
B4595A0C407B7298
102
}
330
B4595A0C407B7298
100
AcDbXrecord
 10
0.0
 20
0.0
 30
0.0
  0
XRECORD
  5
B4595A0C407B72B4
102
{ACAD_REACTORS
330
B4595A0C407B7298
102
}
330
B4595A0C407B7298
100
AcDbXrecord
 10
0.0
 20
0.0
 30
0.0
  0
XRECORD
  5
B4595A0C407B72B5
102
{ACAD_REACTORS
330
B4595A0C407B7298
102
}
330
B4595A0C407B7298
100
AcDbXrecord
 10
0.0
 20
0.0
 30
0.0
  0
XRECORD
  5
B4595A0C407B72B2
102
{ACAD_REACTORS
330
B4595A0C407B7298
102
}
330
B4595A0C407B7298
100
AcDbXrecord
 10
0.0
 20
0.0
 30
0.0
  0
XRECORD
  5
B4595A0C407B72AF
102
{ACAD_REACTORS
330
B4595A0C407B7298
102
}
330
B4595A0C407B7298
100
AcDbXrecord
340
0
  0
XRECORD
  5
B4595A0C407B72B0
102
{ACAD_REACTORS
330
B4595A0C407B7298
102
}
330
B4595A0C407B7298
100
AcDbXrecord
 70
     0
  0
XRECORD
  5
B4595A0C407B72A4
102
{ACAD_REACTORS
330
B4595A0C407B7298
102
}
330
B4595A0C407B7298
100
AcDbXrecord
  1
{6B249F02-8DB8-11D6-88E6-0090279574E7}
  0
DICTIONARYVAR
  5
B4595A0C407B7296
102
{ACAD_REACTORS
330
B4595A0C407B7295
102
}
330
B4595A0C407B7295
100
DictionaryVariables
280
     0
  1
1
  0
ENDSEC
  0
EOF
