  0
SECTION
  2
HEADER
  9
$ACADVER
  1
AC1014
  9
$ACADMAINTVER
 70
     9
  9
$DWGCODEPAGE
  3
ANSI_1252
  9
$INSBASE
 10
1.714999999999999
 20
0.9375
 30
0.0
  9
$EXTMIN
 10
-0.0279815792271434
 20
0.4794813959174185
 30
0.0
  9
$EXTMAX
 10
3.457237742519984
 20
1.945213626546201
 30
0.0
  9
$LIMMIN
 10
0.0
 20
0.0
  9
$LIMMAX
 10
18.0
 20
12.0
  9
$ORTHOMODE
 70
     0
  9
$REGENMODE
 70
     1
  9
$FILLMODE
 70
     1
  9
$QTEXTMODE
 70
     0
  9
$MIRRTEXT
 70
     0
  9
$DRAGMODE
 70
     2
  9
$LTSCALE
 40
1.0
  9
$OSMODE
 70
    39
  9
$ATTMODE
 70
     1
  9
$TEXTSIZE
 40
0.125
  9
$TRACEWID
 40
0.05
  9
$TEXTSTYLE
  7
ROMANS
  9
$CLAYER
  8
0
  9
$CELTYPE
  6
BYLAYER
  9
$CECOLOR
 62
   256
  9
$CELTSCALE
 40
1.0
  9
$DELOBJ
 70
     1
  9
$DISPSILH
 70
     1
  9
$DIMSCALE
 40
1.0
  9
$DIMASZ
 40
0.125
  9
$DIMEXO
 40
0.125
  9
$DIMDLI
 40
0.375
  9
$DIMRND
 40
0.0
  9
$DIMDLE
 40
0.0
  9
$DIMEXE
 40
0.125
  9
$DIMTP
 40
0.0
  9
$DIMTM
 40
0.0
  9
$DIMTXT
 40
0.125
  9
$DIMCEN
 40
-0.125
  9
$DIMTSZ
 40
0.0
  9
$DIMTOL
 70
     0
  9
$DIMLIM
 70
     0
  9
$DIMTIH
 70
     1
  9
$DIMTOH
 70
     1
  9
$DIMSE1
 70
     0
  9
$DIMSE2
 70
     0
  9
$DIMTAD
 70
     0
  9
$DIMZIN
 70
     4
  9
$DIMBLK
  1

  9
$DIMASO
 70
     1
  9
$DIMSHO
 70
     1
  9
$DIMPOST
  1

  9
$DIMAPOST
  1

  9
$DIMALT
 70
     0
  9
$DIMALTD
 70
     2
  9
$DIMALTF
 40
25.4
  9
$DIMLFAC
 40
1.0
  9
$DIMTOFL
 70
     0
  9
$DIMTVP
 40
0.0
  9
$DIMTIX
 70
     1
  9
$DIMSOXD
 70
     0
  9
$DIMSAH
 70
     0
  9
$DIMBLK1
  1

  9
$DIMBLK2
  1

  9
$DIMSTYLE
  2
STANDARD
  9
$DIMCLRD
 70
     0
  9
$DIMCLRE
 70
     0
  9
$DIMCLRT
 70
     0
  9
$DIMTFAC
 40
1.0
  9
$DIMGAP
 40
0.09
  9
$DIMJUST
 70
     0
  9
$DIMSD1
 70
     0
  9
$DIMSD2
 70
     0
  9
$DIMTOLJ
 70
     1
  9
$DIMTZIN
 70
     4
  9
$DIMALTZ
 70
     0
  9
$DIMALTTZ
 70
     0
  9
$DIMFIT
 70
     3
  9
$DIMUPT
 70
     0
  9
$DIMUNIT
 70
     2
  9
$DIMDEC
 70
     3
  9
$DIMTDEC
 70
     3
  9
$DIMALTU
 70
     2
  9
$DIMALTTD
 70
     2
  9
$DIMTXSTY
  7
ROMANS
  9
$DIMAUNIT
 70
     0
  9
$LUNITS
 70
     2
  9
$LUPREC
 70
     3
  9
$SKETCHINC
 40
0.1
  9
$FILLETRAD
 40
0.03125
  9
$AUNITS
 70
     0
  9
$AUPREC
 70
     0
  9
$MENU
  1
ACAD
  9
$ELEVATION
 40
0.0
  9
$PELEVATION
 40
0.0
  9
$THICKNESS
 40
0.0
  9
$LIMCHECK
 70
     0
  9
$BLIPMODE
 70
     0
  9
$CHAMFERA
 40
0.0
  9
$CHAMFERB
 40
0.0
  9
$CHAMFERC
 40
0.0
  9
$CHAMFERD
 40
0.0
  9
$SKPOLY
 70
     0
  9
$TDCREATE
 40
2449966.341873032
  9
$TDUPDATE
 40
2452458.317100150
  9
$TDINDWG
 40
0.0001050579
  9
$TDUSRTIMER
 40
0.0001050579
  9
$USRTIMER
 70
     1
  9
$ANGBASE
 50
0.0
  9
$ANGDIR
 70
     0
  9
$PDMODE
 70
     0
  9
$PDSIZE
 40
0.0
  9
$PLINEWID
 40
0.0
  9
$COORDS
 70
     2
  9
$SPLFRAME
 70
     0
  9
$SPLINETYPE
 70
     6
  9
$SPLINESEGS
 70
     8
  9
$ATTDIA
 70
     0
  9
$ATTREQ
 70
     1
  9
$HANDLING
 70
 22529
  9
$HANDSEED
  5
5882B2124CFC1DE4
  9
$SURFTAB1
 70
     6
  9
$SURFTAB2
 70
     6
  9
$SURFTYPE
 70
     6
  9
$SURFU
 70
     6
  9
$SURFV
 70
     6
  9
$UCSNAME
  2

  9
$UCSORG
 10
0.0
 20
0.0
 30
0.0
  9
$UCSXDIR
 10
1.0
 20
0.0
 30
0.0
  9
$UCSYDIR
 10
0.0
 20
1.0
 30
0.0
  9
$PUCSNAME
  2

  9
$PUCSORG
 10
0.0
 20
0.0
 30
0.0
  9
$PUCSXDIR
 10
1.0
 20
0.0
 30
0.0
  9
$PUCSYDIR
 10
0.0
 20
1.0
 30
0.0
  9
$USERI1
 70
     0
  9
$USERI2
 70
     0
  9
$USERI3
 70
     0
  9
$USERI4
 70
     0
  9
$USERI5
 70
     0
  9
$USERR1
 40
0.0
  9
$USERR2
 40
0.0
  9
$USERR3
 40
0.0
  9
$USERR4
 40
0.0
  9
$USERR5
 40
0.0
  9
$WORLDVIEW
 70
     1
  9
$SHADEDGE
 70
     3
  9
$SHADEDIF
 70
    70
  9
$TILEMODE
 70
     1
  9
$MAXACTVP
 70
    16
  9
$PINSBASE
 10
0.0
 20
0.0
 30
0.0
  9
$PLIMCHECK
 70
     0
  9
$PEXTMIN
 10
1.000000000000000E+20
 20
1.000000000000000E+20
 30
1.000000000000000E+20
  9
$PEXTMAX
 10
-1.000000000000000E+20
 20
-1.000000000000000E+20
 30
-1.000000000000000E+20
  9
$PLIMMIN
 10
0.0
 20
0.0
  9
$PLIMMAX
 10
12.0
 20
9.0
  9
$UNITMODE
 70
     0
  9
$VISRETAIN
 70
     0
  9
$PLINEGEN
 70
     1
  9
$PSLTSCALE
 70
     0
  9
$TREEDEPTH
 70
  3020
  9
$PICKSTYLE
 70
     1
  9
$CMLSTYLE
  2
STANDARD
  9
$CMLJUST
 70
     0
  9
$CMLSCALE
 40
1.0
  9
$PROXYGRAPHICS
 70
     1
  9
$MEASUREMENT
 70
     0
  0
ENDSEC
  0
SECTION
  2
CLASSES
  0
CLASS
  1
LWPOLYLINE
  2
AcDbPolyline
  3
AutoCAD 2000
 90
        0
280
     0
281
     1
  0
CLASS
  1
ACDBDICTIONARYWDFLT
  2
AcDbDictionaryWithDefault
  3
AutoCAD 2000
 90
        0
280
     0
281
     0
  0
CLASS
  1
ACDBPLACEHOLDER
  2
AcDbPlaceHolder
  3
AutoCAD 2000
 90
        0
280
     0
281
     0
  0
CLASS
  1
LAYOUT
  2
AcDbLayout
  3
AutoCAD 2000
 90
        0
280
     0
281
     0
  0
CLASS
  1
DICTIONARYVAR
  2
AcDbDictionaryVar
  3
AutoCAD 2000
 90
        0
280
     0
281
     0
  0
CLASS
  1
LONG_TRANSACTION
  2
AcDbLongTransaction
  3
AutoCAD 2000
 90
        0
280
     0
281
     0
  0
CLASS
  1
LWPOLYLINE
  2
AcDbPolyline
  3
AutoCAD 2000
 90
        0
280
     0
281
     1
  0
CLASS
  1
HATCH
  2
AcDbHatch
  3
AutoCAD 2000
 90
        0
280
     0
281
     1
  0
CLASS
  1
XRECORD
  2
AcDbXrecord
  3
AutoCAD 2000
 90
        0
280
     0
281
     0
  0
ENDSEC
  0
SECTION
  2
TABLES
  0
TABLE
  2
VPORT
  5
5882B2124CFC1D8C
330
0
100
AcDbSymbolTable
 70
     2
  0
VPORT
  5
5882B2124CFC1DBF
330
5882B2124CFC1D8C
100
AcDbSymbolTableRecord
100
AcDbViewportTableRecord
  2
*ACTIVE
 70
     0
 10
0.0
 20
0.0
 11
1.0
 21
1.0
 12
4.691087357575371
 22
1.212707541897785
 13
0.0
 23
0.0
 14
0.015625
 24
0.015625
 15
0.0
 25
0.0
 16
0.0
 26
0.0
 36
1.0
 17
0.0
 27
0.0
 37
0.0
 40
2.282593937544768
 41
4.320930232558139
 42
50.0
 43
0.0
 44
0.0
 50
0.0
 51
0.0
 71
     0
 72
  2000
 73
     1
 74
     0
 75
     1
 76
     0
 77
     0
 78
     0
  0
ENDTAB
  0
TABLE
  2
LTYPE
  5
5882B2124CFC1D89
330
0
100
AcDbSymbolTable
 70
     1
  0
LTYPE
  5
5882B2124CFC1D96
330
5882B2124CFC1D89
100
AcDbSymbolTableRecord
100
AcDbLinetypeTableRecord
  2
BYBLOCK
 70
     0
  3

 72
    65
 73
     0
 40
0.0
  0
LTYPE
  5
5882B2124CFC1D97
330
5882B2124CFC1D89
100
AcDbSymbolTableRecord
100
AcDbLinetypeTableRecord
  2
BYLAYER
 70
     0
  3

 72
    65
 73
     0
 40
0.0
  0
LTYPE
  5
5882B2124CFC1D98
330
5882B2124CFC1D89
100
AcDbSymbolTableRecord
100
AcDbLinetypeTableRecord
  2
CONTINUOUS
 70
     0
  3
Solid line
 72
    65
 73
     0
 40
0.0
  0
ENDTAB
  0
TABLE
  2
LAYER
  5
5882B2124CFC1D86
330
0
100
AcDbSymbolTable
 70
     2
  0
LAYER
  5
5882B2124CFC1D93
330
5882B2124CFC1D86
100
AcDbSymbolTableRecord
100
AcDbLayerTableRecord
  2
0
 70
     0
 62
     7
  6
CONTINUOUS
  0
LAYER
  5
5882B2124CFC1DA1
330
5882B2124CFC1D86
100
AcDbSymbolTableRecord
100
AcDbLayerTableRecord
  2
TEXT
 70
     0
 62
     3
  6
CONTINUOUS
  0
ENDTAB
  0
TABLE
  2
STYLE
  5
5882B2124CFC1D87
330
0
100
AcDbSymbolTable
 70
     3
  0
STYLE
  5
5882B2124CFC1D94
330
5882B2124CFC1D87
100
AcDbSymbolTableRecord
100
AcDbTextStyleTableRecord
  2
STANDARD
 70
     0
 40
0.0
 41
1.0
 50
0.0
 71
     0
 42
0.3125
  3
txt
  4

  0
STYLE
  5
5882B2124CFC1DA0
330
5882B2124CFC1D87
100
AcDbSymbolTableRecord
100
AcDbTextStyleTableRecord
  2
ITALICC
 70
     0
 40
0.0
 41
1.0
 50
0.0
 71
     0
 42
0.125
  3
italicc
  4

  0
STYLE
  5
5882B2124CFC1DAF
330
5882B2124CFC1D87
100
AcDbSymbolTableRecord
100
AcDbTextStyleTableRecord
  2
ROMANS
 70
     0
 40
0.0
 41
1.0
 50
0.0
 71
     0
 42
0.125
  3
romans.shx
  4

  0
ENDTAB
  0
TABLE
  2
VIEW
  5
5882B2124CFC1D8A
330
0
100
AcDbSymbolTable
 70
     0
  0
ENDTAB
  0
TABLE
  2
UCS
  5
5882B2124CFC1D8B
330
0
100
AcDbSymbolTable
 70
     0
  0
ENDTAB
  0
TABLE
  2
APPID
  5
5882B2124CFC1D8D
330
0
100
AcDbSymbolTable
 70
     1
  0
APPID
  5
5882B2124CFC1D95
330
5882B2124CFC1D8D
100
AcDbSymbolTableRecord
100
AcDbRegAppTableRecord
  2
ACAD
 70
     0
  0
ENDTAB
  0
TABLE
  2
DIMSTYLE
  5
5882B2124CFC1D8E
330
0
100
AcDbSymbolTable
 70
     1
  0
DIMSTYLE
105
5882B2124CFC1DA7
330
5882B2124CFC1D8E
100
AcDbSymbolTableRecord
100
AcDbDimStyleTableRecord
  2
STANDARD
 70
     0
  3

  4

  5

  6

  7

 40
1.0
 41
0.125
 42
0.125
 43
0.375
 44
0.125
 45
0.0
 46
0.0
 47
0.0
 48
0.0
140
0.125
141
-0.125
142
0.0
143
25.4
144
1.0
145
0.0
146
1.0
147
0.09
 71
     0
 72
     0
 73
     1
 74
     1
 75
     0
 76
     0
 77
     0
 78
     4
170
     0
171
     2
172
     0
173
     0
174
     1
175
     0
176
     0
177
     0
178
     0
270
     2
271
     3
272
     3
273
     2
274
     2
340
5882B2124CFC1DAF
275
     0
280
     0
281
     0
282
     0
283
     1
284
     4
285
     0
286
     0
287
     3
288
     0
  0
ENDTAB
  0
TABLE
  2
BLOCK_RECORD
  5
5882B2124CFC1D85
330
0
100
AcDbSymbolTable
 70
     0
  0
BLOCK_RECORD
  5
5882B2124CFC1D9C
102
{ACAD_XDICTIONARY
360
5882B2124CFC1DE2
102
}
330
5882B2124CFC1D85
100
AcDbSymbolTableRecord
100
AcDbBlockTableRecord
  2
*MODEL_SPACE
  0
BLOCK_RECORD
  5
5882B2124CFC1D99
102
{ACAD_XDICTIONARY
360
5882B2124CFC1DE0
102
}
330
5882B2124CFC1D85
100
AcDbSymbolTableRecord
100
AcDbBlockTableRecord
  2
*PAPER_SPACE
  0
ENDTAB
  0
ENDSEC
  0
SECTION
  2
BLOCKS
  0
BLOCK
  5
5882B2124CFC1DA4
330
5882B2124CFC1D9C
100
AcDbEntity
  8
0
100
AcDbBlockBegin
  2
*MODEL_SPACE
 70
     0
 10
0.0
 20
0.0
 30
0.0
  3
*MODEL_SPACE
  1

  0
ENDBLK
  5
5882B2124CFC1DA5
330
5882B2124CFC1D9C
100
AcDbEntity
  8
0
100
AcDbBlockEnd
  0
BLOCK
  5
5882B2124CFC1DA2
330
5882B2124CFC1D99
100
AcDbEntity
 67
     1
  8
0
100
AcDbBlockBegin
  2
*PAPER_SPACE
 70
     0
 10
0.0
 20
0.0
 30
0.0
  3
*PAPER_SPACE
  1

  0
ENDBLK
  5
5882B2124CFC1DA3
330
5882B2124CFC1D99
100
AcDbEntity
 67
     1
  8
0
100
AcDbBlockEnd
  0
ENDSEC
  0
SECTION
  2
ENTITIES
  0
TEXT
  5
1F786CD0F67353F
330
5882B2124CFC1D9C
100
AcDbEntity
  8
TEXT
100
AcDbText
 10
0.9590476190476188
 20
0.9375
 30
0.0
 40
0.125
  1
PART #110537
  7
ITALICC
 72
     1
 11
1.714999999999999
 21
0.9375
 31
0.0
100
AcDbText
  0
ARC
  5
1F786CD0F673620
330
5882B2124CFC1D9C
100
AcDbEntity
  8
TEXT
100
AcDbCircle
 10
1.040865651378817
 20
0.571940608147949
 30
0.0
 40
0.0153818062434269
100
AcDbArc
 50
174.7883570302258
 51
270.0
  0
LINE
  5
1F786CD0F673613
330
5882B2124CFC1D9C
100
AcDbEntity
  8
TEXT
100
AcDbLine
 10
1.026687007621955
 20
0.4909499756484208
 30
0.0
 11
1.12469034132139
 21
0.4909499756484208
 31
0.0
  0
LWPOLYLINE
  5
1F786CD0F6735A8
330
5882B2124CFC1D9C
100
AcDbEntity
  8
TEXT
100
AcDbPolyline
 90
        2
 70
     0
 43
0.0001332181640625
 10
0.2387877943080126
 20
0.6042221199650597
 10
0.1655178040736365
 20
0.614213482269745
  0
LWPOLYLINE
  5
1F786CD0F6735AC
330
5882B2124CFC1D9C
100
AcDbEntity
  8
TEXT
100
AcDbPolyline
 90
        2
 70
     0
 43
0.0001332181640625
 10
0.2121441614955115
 20
0.6042221199650597
 10
0.1521959876673877
 20
0.614213482269745
  0
LWPOLYLINE
  5
1F786CD0F6735B0
330
5882B2124CFC1D9C
100
AcDbEntity
  8
TEXT
100
AcDbPolyline
 90
        2
 70
     0
 43
0.0001332181640625
 10
0.2121441614955115
 20
0.5176303133244331
 10
0.1521959876673877
 20
0.5775784871525587
  0
LWPOLYLINE
  5
1F786CD0F6735B4
330
5882B2124CFC1D9C
100
AcDbEntity
  8
TEXT
100
AcDbPolyline
 90
        3
 70
     0
 43
0.0006660908203125
 10
0.1255523548548867
 20
0.5176303133244331
 10
0.2121441614955115
 20
0.5176303133244331
 10
0.2121441614955115
 20
0.6042221199650597
  0
LWPOLYLINE
  5
1F786CD0F6735B9
330
5882B2124CFC1D9C
100
AcDbEntity
  8
TEXT
100
AcDbPolyline
 90
        3
 70
     0
 43
0.0006660908203125
 10
0.1255523548548867
 20
0.4909866805119321
 10
0.2387877943080126
 20
0.4909866805119321
 10
0.2387877943080126
 20
0.6042221199650597
  0
LWPOLYLINE
  5
1F786CD0F67358A
330
5882B2124CFC1D9C
100
AcDbEntity
  8
TEXT
100
AcDbPolyline
 90
        3
 70
     0
 43
0.0006660908203125
 10
0.2387877943080126
 20
0.6441875691838077
 10
0.2387877943080126
 20
0.7574230086369354
 10
0.1255523548548867
 20
0.7574230086369354
  0
LWPOLYLINE
  5
1F786CD0F67358F
330
5882B2124CFC1D9C
100
AcDbEntity
  8
TEXT
100
AcDbPolyline
 90
        3
 70
     0
 43
0.0006660908203125
 10
0.2121441614955115
 20
0.6441875691838077
 10
0.2121441614955115
 20
0.7307793758244343
 10
0.1255523548548867
 20
0.7307793758244343
  0
LWPOLYLINE
  5
1F786CD0F673594
330
5882B2124CFC1D9C
100
AcDbEntity
  8
TEXT
100
AcDbPolyline
 90
        2
 70
     0
 43
0.0001332181640625
 10
0.2121441614955115
 20
0.7307793758244343
 10
0.1521959876673877
 20
0.6708312019963088
  0
LWPOLYLINE
  5
1F786CD0F6735A0
330
5882B2124CFC1D9C
100
AcDbEntity
  8
TEXT
100
AcDbPolyline
 90
        2
 70
     0
 43
0.0001332181640625
 10
0.1655178040736365
 20
0.634196206879119
 10
0.2387877943080126
 20
0.6441875691838077
  0
LWPOLYLINE
  5
1F786CD0F6735A4
330
5882B2124CFC1D9C
100
AcDbEntity
  8
TEXT
100
AcDbPolyline
 90
        2
 70
     0
 43
0.0001332181640625
 10
0.2121441614955115
 20
0.6441875691838077
 10
0.1521959876673877
 20
0.634196206879119
  0
LWPOLYLINE
  5
1F786CD0F6735D1
330
5882B2124CFC1D9C
100
AcDbEntity
  8
TEXT
100
AcDbPolyline
 90
        5
 70
     0
 43
0.0001332181640625
 10
0.0456214564173871
 20
0.634196206879119
 10
0.0589432728236359
 20
0.634196206879119
 10
0.0589432728236359
 20
0.6708312019963088
 10
0.0955782679408257
 20
0.6708312019963088
 10
0.0955782679408257
 20
0.6841530184025558
  0
LWPOLYLINE
  5
1F786CD0F6735D8
330
5882B2124CFC1D9C
100
AcDbEntity
  8
TEXT
100
AcDbPolyline
 90
        5
 70
     0
 43
0.0001332181640625
 10
0.1155609925501979
 20
0.6841530184025558
 10
0.1155609925501979
 20
0.6708312019963088
 10
0.1521959876673877
 20
0.6708312019963088
 10
0.1521959876673877
 20
0.634196206879119
 10
0.1655178040736365
 20
0.634196206879119
  0
LWPOLYLINE
  5
1F786CD0F67355A
330
5882B2124CFC1D9C
100
AcDbEntity
  8
TEXT
100
AcDbPolyline
 90
        3
 70
     0
 43
0.0006660908203125
 10
0.0855869056361352
 20
0.7574230086369354
 10
-0.0276485338169872
 20
0.7574230086369354
 10
-0.0276485338169872
 20
0.6441875691838077
  0
LWPOLYLINE
  5
1F786CD0F67355F
330
5882B2124CFC1D9C
100
AcDbEntity
  8
TEXT
100
AcDbPolyline
 90
        3
 70
     0
 43
0.0006660908203125
 10
0.0855869056361352
 20
0.7307793758244343
 10
-0.0010049010044897
 20
0.7307793758244343
 10
-0.0010049010044897
 20
0.6441875691838077
  0
LWPOLYLINE
  5
1F786CD0F673568
330
5882B2124CFC1D9C
100
AcDbEntity
  8
TEXT
100
AcDbPolyline
 90
        2
 70
     0
 43
0.0001332181640625
 10
-0.0010049010044897
 20
0.6441875691838077
 10
0.0589432728236359
 20
0.634196206879119
  0
LWPOLYLINE
  5
1F786CD0F67356C
330
5882B2124CFC1D9C
100
AcDbEntity
  8
TEXT
100
AcDbPolyline
 90
        2
 70
     0
 43
0.0001332181640625
 10
-0.0276485338169872
 20
0.6441875691838077
 10
0.0456214564173871
 20
0.634196206879119
  0
LWPOLYLINE
  5
1F786CD0F673544
330
5882B2124CFC1D9C
100
AcDbEntity
  8
TEXT
100
AcDbPolyline
 90
        3
 70
     0
 43
0.0006660908203125
 10
-0.0276485338169872
 20
0.6042221199650597
 10
-0.0276485338169872
 20
0.4909866805119321
 10
0.0855869056361352
 20
0.4909866805119321
  0
LWPOLYLINE
  5
1F786CD0F673549
330
5882B2124CFC1D9C
100
AcDbEntity
  8
TEXT
100
AcDbPolyline
 90
        3
 70
     0
 43
0.0006660908203125
 10
-0.0010049010044897
 20
0.6042221199650597
 10
-0.0010049010044897
 20
0.5176303133244331
 10
0.0855869056361352
 20
0.5176303133244331
  0
LWPOLYLINE
  5
1F786CD0F673556
330
5882B2124CFC1D9C
100
AcDbEntity
  8
TEXT
100
AcDbPolyline
 90
        2
 70
     0
 43
0.0001332181640625
 10
-0.0010049010044897
 20
0.5176303133244331
 10
0.0589432728236377
 20
0.5775784871525587
  0
LWPOLYLINE
  5
1F786CD0F67354E
330
5882B2124CFC1D9C
100
AcDbEntity
  8
TEXT
100
AcDbPolyline
 90
        2
 70
     0
 43
0.0001332181640625
 10
0.0456214564173871
 20
0.614213482269745
 10
-0.0276485338169872
 20
0.6042221199650597
  0
LWPOLYLINE
  5
1F786CD0F673552
330
5882B2124CFC1D9C
100
AcDbEntity
  8
TEXT
100
AcDbPolyline
 90
        2
 70
     0
 43
0.0001332181640625
 10
-0.0010049010044897
 20
0.6042221199650597
 10
0.0589432728236377
 20
0.614213482269745
  0
LWPOLYLINE
  5
1F786CD0F673574
330
5882B2124CFC1D9C
100
AcDbEntity
  8
TEXT
100
AcDbPolyline
 90
        2
 70
     0
 43
0.0006660908203125
 10
-0.0010049010044897
 20
0.6441875691838077
 10
-0.0276485338169872
 20
0.6441875691838077
  0
LWPOLYLINE
  5
1F786CD0F673570
330
5882B2124CFC1D9C
100
AcDbEntity
  8
TEXT
100
AcDbPolyline
 90
        2
 70
     0
 43
0.0006660908203125
 10
-0.0010049010044897
 20
0.6042221199650597
 10
-0.0276485338169872
 20
0.6042221199650597
  0
LWPOLYLINE
  5
1F786CD0F6735C5
330
5882B2124CFC1D9C
100
AcDbEntity
  8
TEXT
100
AcDbPolyline
 90
        2
 70
     0
 43
0.0006660908203125
 10
0.0855869056361352
 20
0.5176303133244331
 10
0.0855869056361352
 20
0.4909866805119321
  0
LWPOLYLINE
  5
1F786CD0F6735C9
330
5882B2124CFC1D9C
100
AcDbEntity
  8
TEXT
100
AcDbPolyline
 90
        2
 70
     0
 43
0.0001332181640625
 10
0.0855869056361352
 20
0.5176303133244331
 10
0.0955782679408257
 20
0.5775784871525587
  0
LWPOLYLINE
  5
1F786CD0F6735CD
330
5882B2124CFC1D9C
100
AcDbEntity
  8
TEXT
100
AcDbPolyline
 90
        2
 70
     0
 43
0.0001332181640625
 10
0.0855869056361352
 20
0.4909866805119321
 10
0.0955782679408257
 20
0.5642566707463082
  0
LWPOLYLINE
  5
1F786CD0F6735DF
330
5882B2124CFC1D9C
100
AcDbEntity
  8
TEXT
100
AcDbPolyline
 90
        2
 70
     0
 43
0.0001332181640625
 10
0.1255523548548867
 20
0.5176303133244331
 10
0.1155609925501979
 20
0.5775784871525587
  0
LWPOLYLINE
  5
1F786CD0F6735E3
330
5882B2124CFC1D9C
100
AcDbEntity
  8
TEXT
100
AcDbPolyline
 90
        2
 70
     0
 43
0.0001332181640625
 10
0.1155609925501979
 20
0.5642566707463082
 10
0.1255523548548867
 20
0.4909866805119321
  0
LWPOLYLINE
  5
1F786CD0F6735E7
330
5882B2124CFC1D9C
100
AcDbEntity
  8
TEXT
100
AcDbPolyline
 90
        2
 70
     0
 43
0.0006660908203125
 10
0.1255523548548867
 20
0.5176303133244331
 10
0.1255523548548867
 20
0.4909866805119321
  0
LWPOLYLINE
  5
1F786CD0F6735BE
330
5882B2124CFC1D9C
100
AcDbEntity
  8
TEXT
100
AcDbPolyline
 90
        5
 70
     0
 43
0.0001332181640625
 10
0.0955782679408257
 20
0.5642566707463082
 10
0.0955782679408257
 20
0.5775784871525587
 10
0.0589432728236377
 20
0.5775784871525587
 10
0.0589432728236377
 20
0.614213482269745
 10
0.0456214564173871
 20
0.614213482269745
  0
LWPOLYLINE
  5
1F786CD0F6735EB
330
5882B2124CFC1D9C
100
AcDbEntity
  8
TEXT
100
AcDbPolyline
 90
        5
 70
     0
 43
0.0001332181640625
 10
0.1655178040736365
 20
0.614213482269745
 10
0.1521959876673877
 20
0.614213482269745
 10
0.1521959876673877
 20
0.5775784871525587
 10
0.1155609925501979
 20
0.5775784871525587
 10
0.1155609925501979
 20
0.5642566707463082
  0
LWPOLYLINE
  5
1F786CD0F673564
330
5882B2124CFC1D9C
100
AcDbEntity
  8
TEXT
100
AcDbPolyline
 90
        2
 70
     0
 43
0.0001332181640625
 10
-0.0010049010044897
 20
0.7307793758244343
 10
0.0589432728236359
 20
0.6708312019963088
  0
LWPOLYLINE
  5
1F786CD0F673582
330
5882B2124CFC1D9C
100
AcDbEntity
  8
TEXT
100
AcDbPolyline
 90
        2
 70
     0
 43
0.0001332181640625
 10
0.0955782679408257
 20
0.6841530184025558
 10
0.0855869056361352
 20
0.7574230086369354
  0
LWPOLYLINE
  5
1F786CD0F673586
330
5882B2124CFC1D9C
100
AcDbEntity
  8
TEXT
100
AcDbPolyline
 90
        2
 70
     0
 43
0.0001332181640625
 10
0.0855869056361352
 20
0.7307793758244343
 10
0.0955782679408257
 20
0.6708312019963088
  0
LWPOLYLINE
  5
1F786CD0F673604
330
5882B2124CFC1D9C
100
AcDbEntity
  8
TEXT
100
AcDbPolyline
 90
        2
 70
     0
 43
0.0006660908203125
 10
0.0855869056361352
 20
0.7307793758244343
 10
0.0855869056361352
 20
0.7574230086369354
  0
LWPOLYLINE
  5
1F786CD0F673598
330
5882B2124CFC1D9C
100
AcDbEntity
  8
TEXT
100
AcDbPolyline
 90
        2
 70
     0
 43
0.0001332181640625
 10
0.1255523548548867
 20
0.7307793758244343
 10
0.1155609925501979
 20
0.6708312019963088
  0
LWPOLYLINE
  5
1F786CD0F67359C
330
5882B2124CFC1D9C
100
AcDbEntity
  8
TEXT
100
AcDbPolyline
 90
        2
 70
     0
 43
0.0001332181640625
 10
0.1255523548548867
 20
0.7574230086369354
 10
0.1155609925501979
 20
0.6841530184025558
  0
LWPOLYLINE
  5
1F786CD0F673608
330
5882B2124CFC1D9C
100
AcDbEntity
  8
TEXT
100
AcDbPolyline
 90
        2
 70
     0
 43
0.0006660908203125
 10
0.1255523548548867
 20
0.7307793758244343
 10
0.1255523548548867
 20
0.7574230086369354
  0
ARC
  5
1F786CD0F673602
330
5882B2124CFC1D9C
100
AcDbEntity
  8
TEXT
100
AcDbCircle
 10
0.5745020674003394
 20
0.5741457840089779
 30
0.0
 40
0.0831958083605586
100
AcDbArc
 50
270.0
 51
90.0
  0
LINE
  5
1F786CD0F6735FA
330
5882B2124CFC1D9C
100
AcDbEntity
  8
TEXT
100
AcDbLine
 10
0.5089019311560375
 20
0.6931463139801664
 30
0.0
 11
0.6758075851850088
 21
0.6931463139801664
 31
0.0
  0
LINE
  5
1F786CD0F67360C
330
5882B2124CFC1D9C
100
AcDbEntity
  8
TEXT
100
AcDbLine
 10
0.6793963539403017
 20
0.7574230086369318
 30
0.0
 11
0.5036646010417894
 21
0.7574230086369318
 31
0.0
  0
ARC
  5
1F786CD0F673581
330
5882B2124CFC1D9C
100
AcDbEntity
  8
TEXT
100
AcDbCircle
 10
0.5036646010417903
 20
0.6753355491904301
 30
0.0
 40
0.0820874594465043
100
AcDbArc
 50
90.0
 51
270.0
  0
LWPOLYLINE
  5
1F786CD0F6735F2
330
5882B2124CFC1D9C
100
AcDbEntity
  8
TEXT
100
AcDbPolyline
 90
        2
 70
     0
 43
0.0006660908203125
 10
0.2121441614955115
 20
0.6441875691838077
 10
0.2387877943080126
 20
0.6441875691838077
  0
LWPOLYLINE
  5
1F786CD0F6735F6
330
5882B2124CFC1D9C
100
AcDbEntity
  8
TEXT
100
AcDbPolyline
 90
        2
 70
     0
 43
0.0006660908203125
 10
0.2121441614955115
 20
0.6042221199650597
 10
0.2387877943080126
 20
0.6042221199650597
  0
ARC
  5
1F786CD0F673603
330
5882B2124CFC1D9C
100
AcDbEntity
  8
TEXT
100
AcDbCircle
 10
0.5794424413066191
 20
0.5762775358628942
 30
0.0
 40
0.0169705538810321
100
AcDbArc
 50
270.0
 51
90.0
  0
LINE
  5
1F786CD0F673600
330
5882B2124CFC1D9C
100
AcDbEntity
  8
TEXT
100
AcDbLine
 10
0.4215771415952841
 20
0.5593069819818602
 30
0.0
 11
0.4215771415952858
 21
0.4909499756484208
 31
0.0
  0
LINE
  5
1F786CD0F6735FC
330
5882B2124CFC1D9C
100
AcDbEntity
  8
TEXT
100
AcDbLine
 10
0.4215771415952858
 20
0.4909499756484208
 30
0.0
 11
0.5745020674003385
 21
0.4909499756484208
 31
0.0
  0
LINE
  5
1F786CD0F6735FD
330
5882B2124CFC1D9C
100
AcDbEntity
  8
TEXT
100
AcDbLine
 10
0.5794424413066182
 20
0.5593069819818602
 30
0.0
 11
0.4215771415952841
 21
0.5593069819818602
 31
0.0
  0
LINE
  5
1F786CD0F6735FE
330
5882B2124CFC1D9C
100
AcDbEntity
  8
TEXT
100
AcDbLine
 10
0.5036646010417894
 20
0.5932480897439248
 30
0.0
 11
0.5794424413066182
 21
0.5932480897439248
 31
0.0
  0
ARC
  5
1F786CD0F6735FF
330
5882B2124CFC1D9C
100
AcDbEntity
  8
TEXT
100
AcDbCircle
 10
0.5089019311560384
 20
0.6752439531748542
 30
0.0
 40
0.017902360805315
100
AcDbArc
 50
90.0
 51
270.0
  0
LINE
  5
1F786CD0F6735FB
330
5882B2124CFC1D9C
100
AcDbEntity
  8
TEXT
100
AcDbLine
 10
0.5745020674003385
 20
0.6573415923695385
 30
0.0
 11
0.5089019311560375
 21
0.6573415923695385
 31
0.0
  0
LINE
  5
1F786CD0F673610
330
5882B2124CFC1D9C
100
AcDbEntity
  8
TEXT
100
AcDbLine
 10
1.02554743412576
 20
0.5733378137514201
 30
0.0
 11
1.02554743412576
 21
0.8254344863757424
 31
0.0
  0
LINE
  5
1F786CD0F67361F
330
5882B2124CFC1D9C
100
AcDbEntity
  8
TEXT
100
AcDbLine
 10
0.9575677150566441
 20
0.6752586926887019
 30
0.0
 11
0.9575677150566441
 21
0.5425013178633456
 31
0.0
  0
LINE
  5
1F786CD0F673601
330
5882B2124CFC1D9C
100
AcDbEntity
  8
TEXT
100
AcDbLine
 10
0.6758075851850088
 20
0.6931463139801664
 30
0.0
 11
0.6758075851850088
 21
0.5507423669864706
 31
0.0
  0
LWPOLYLINE
  5
1F786CD0F673617
330
5882B2124CFC1D9C
100
AcDbEntity
  8
TEXT
100
AcDbPolyline
 90
        6
 70
     1
 43
0.0
 10
0.772217996240264
 20
0.6931463139801664
 10
0.7419014020200559
 20
0.6931463139801664
 10
0.7419014020200559
 20
0.5700353159252721
 42
0.407328721240804
 10
0.7534450531815322
 20
0.558216401248886
 10
0.814066752226263
 20
0.558216401248886
 10
0.8315320926335809
 20
0.5910286302923651
  0
LINE
  5
1F786CD0F673614
330
5882B2124CFC1D9C
100
AcDbEntity
  8
TEXT
100
AcDbLine
 10
0.8602680089631995
 20
0.5109084817534338
 30
0.0
 11
0.9575677150566441
 21
0.6752586926887019
 31
0.0
  0
LINE
  5
1F786CD0F673616
330
5882B2124CFC1D9C
100
AcDbEntity
  8
TEXT
100
AcDbLine
 10
0.7296941926651144
 20
0.4909499756484208
 30
0.0
 11
0.8263344437401087
 21
0.4912206147467031
 31
0.0
  0
ARC
  5
1F786CD0F67357F
330
5882B2124CFC1D9C
100
AcDbEntity
  8
TEXT
100
AcDbCircle
 10
0.7359236031587609
 20
0.5507423669864706
 30
0.0
 40
0.0601160179737537
100
AcDbArc
 50
180.0000000000003
 51
264.0521544866073
  0
LWPOLYLINE
  5
1F786CD0F673621
330
5882B2124CFC1D9C
100
AcDbEntity
  8
TEXT
100
AcDbPolyline
 90
        2
 70
     0
 43
0.0
 10
0.9575677150566423
 20
0.5425013178633491
 42
0.3318488747599744
 10
1.026687007621955
 20
0.4909499756484208
 42
-6.868794160588311
  0
ARC
  5
1F786CD0F673615
330
5882B2124CFC1D9C
100
AcDbEntity
  8
TEXT
100
AcDbCircle
 10
0.8262244490509855
 20
0.5304976979221166
 30
0.0
 40
0.0392772371940762
100
AcDbArc
 50
270.1604552698595
 51
330.0831797321295
  0
LINE
  5
1F786CD0F67360E
330
5882B2124CFC1D9C
100
AcDbEntity
  8
TEXT
100
AcDbLine
 10
0.8698682459601538
 20
0.6565510125238112
 30
0.0
 11
0.811237924928216
 21
0.7574230086369318
 31
0.0
  0
LINE
  5
1F786CD0F67363A
330
5882B2124CFC1D9C
100
AcDbEntity
  8
TEXT
100
AcDbLine
 10
0.7394389587843087
 20
0.7574230086369318
 30
0.0
 11
0.7394389587843087
 21
0.79181092623107
 31
0.0
  0
LINE
  5
1F786CD0F67363B
330
5882B2124CFC1D9C
100
AcDbEntity
  8
TEXT
100
AcDbLine
 10
0.811237924928216
 20
0.7574230086369318
 30
0.0
 11
0.7394389587843087
 21
0.7574230086369318
 31
0.0
  0
LINE
  5
1F786CD0F67360D
330
5882B2124CFC1D9C
100
AcDbEntity
  8
TEXT
100
AcDbLine
 10
0.6793963539403017
 20
0.79181092623107
 30
0.0
 11
0.6793963539403017
 21
0.7574230086369318
 31
0.0
  0
LINE
  5
1F786CD0F673580
330
5882B2124CFC1D9C
100
AcDbEntity
  8
TEXT
100
AcDbLine
 10
0.7394389587843087
 20
0.79181092623107
 30
0.0
 11
0.6793963539403017
 21
0.79181092623107
 31
0.0
  0
LINE
  5
1F786CD0F67363C
330
5882B2124CFC1D9C
100
AcDbEntity
  8
TEXT
100
AcDbLine
 10
0.9587387215593956
 20
0.7574230086369318
 30
0.0
 11
0.9286168087660193
 21
0.7574230086369318
 31
0.0
  0
LINE
  5
1F786CD0F67363D
330
5882B2124CFC1D9C
100
AcDbEntity
  8
TEXT
100
AcDbLine
 10
0.9587387215593956
 20
0.8254344863757424
 30
0.0
 11
0.9587387215593956
 21
0.7574230086369318
 31
0.0
  0
LINE
  5
1F786CD0F67363E
330
5882B2124CFC1D9C
100
AcDbEntity
  8
TEXT
100
AcDbLine
 10
1.02554743412576
 20
0.8254344863757424
 30
0.0
 11
0.9587387215593956
 21
0.8254344863757424
 31
0.0
  0
LINE
  5
1F786CD0F67360F
330
5882B2124CFC1D9C
100
AcDbEntity
  8
TEXT
100
AcDbLine
 10
0.9286168087660193
 20
0.7574230086369318
 30
0.0
 11
0.8698682459601538
 21
0.6565510125238112
 31
0.0
  0
TEXT
  5
1F786CD0F673540
330
5882B2124CFC1D9C
100
AcDbEntity
  8
TEXT
100
AcDbText
 10
2.12830515825032
 20
0.4905773573276249
 30
0.0
 40
0.0522247191011236
  1
Phone  1-800-328-2495
 41
1.272321428571429
 72
     5
 11
3.457237742519984
 21
0.4905773573276249
 31
0.0
100
AcDbText
  0
TEXT
  5
1F786CD0F673541
330
5882B2124CFC1D9C
100
AcDbEntity
  8
TEXT
100
AcDbText
 10
2.12830515825032
 20
0.7703526382265014
 30
0.0
 40
0.0522247191011236
  1
Stylmark  Incorporated
 41
1.221428571428573
 72
     5
 11
3.457237742519984
 21
0.7703526382265014
 31
0.0
100
AcDbText
  0
TEXT
  5
1F786CD0F673542
330
5882B2124CFC1D9C
100
AcDbEntity
  8
TEXT
100
AcDbText
 10
2.12830515825032
 20
0.6770942112602092
 30
0.0
 40
0.0522247191011236
  1
6536 Main St. N.E. * P.O. Box 32008
 41
0.8388932496075366
 72
     5
 11
3.457237742519984
 21
0.6770942112602092
 31
0.0
100
AcDbText
  0
TEXT
  5
1F786CD0F673543
330
5882B2124CFC1D9C
100
AcDbEntity
  8
TEXT
100
AcDbText
 10
2.12830515825032
 20
0.5838357842939171
 30
0.0
 40
0.0522247191011236
  1
Minneapolis, MN 55432-0008
 41
1.11444212721585
 72
     5
 11
3.457237742519984
 21
0.5838357842939171
 31
0.0
100
AcDbText
  0
LINE
  5
1F786CD0F673651
330
5882B2124CFC1D9C
100
AcDbEntity
  8
TEXT
100
AcDbLine
 10
1.870314630023383
 20
0.7574230086369318
 30
0.0
 11
1.823216471467398
 21
0.6815576822253937
 31
0.0
  0
LINE
  5
1F786CD0F673673
330
5882B2124CFC1D9C
100
AcDbEntity
  8
TEXT
100
AcDbLine
 10
1.823759664563246
 20
0.6225295441246011
 30
0.0
 11
1.89966319777471
 21
0.4909499756484208
 31
0.0
  0
LINE
  5
1F786CD0F673578
330
5882B2124CFC1D9C
100
AcDbEntity
  8
TEXT
100
AcDbLine
 10
1.48754189530951
 20
0.6931463139801664
 30
0.0
 11
1.38033562192222
 21
0.6931463139801664
 31
0.0
  0
LINE
  5
1F786CD0F673579
330
5882B2124CFC1D9C
100
AcDbEntity
  8
TEXT
100
AcDbLine
 10
1.516572793653988
 20
0.7574230086369318
 30
0.0
 11
1.381740884436929
 21
0.7574230086369318
 31
0.0
  0
ARC
  5
1F786CD0F67357A
330
5882B2124CFC1D9C
100
AcDbEntity
  8
TEXT
100
AcDbCircle
 10
1.441054980830246
 20
0.5881857593739155
 30
0.0
 40
0.0676855811441166
100
AcDbArc
 50
90.0
 51
153.7768192527749
  0
LWPOLYLINE
  5
1F786CD0F67365B
330
5882B2124CFC1D9C
100
AcDbEntity
  8
TEXT
100
AcDbPolyline
 90
        4
 70
     1
 43
0.0
 10
1.53627401189653
 20
0.5939139536324461
 10
1.447613693236672
 20
0.5939139536324461
 42
0.9999999999999998
 10
1.447613693236672
 20
0.5515154131285854
 10
1.53627401189653
 20
0.5515154131285854
 42
1.0
  0
LWPOLYLINE
  5
1F786CD0F673661
330
5882B2124CFC1D9C
100
AcDbEntity
  8
TEXT
100
AcDbPolyline
 90
        2
 70
     0
 43
0.0
 10
1.422379059335046
 20
0.4909499756484208
 10
1.556396476966423
 20
0.4909499756484208
 42
0.9999999999999998
  0
LINE
  5
1F786CD0F67362D
330
5882B2124CFC1D9C
100
AcDbEntity
  8
TEXT
100
AcDbLine
 10
1.38033562192222
 20
0.6931463139801664
 30
0.0
 11
1.38033562192222
 21
0.6180939079059598
 31
0.0
  0
LINE
  5
1F786CD0F67362F
330
5882B2124CFC1D9C
100
AcDbEntity
  8
TEXT
100
AcDbLine
 10
1.249137457092491
 20
0.4909499756484208
 30
0.0
 11
1.249137457092491
 21
0.6931463139801664
 31
0.0
  0
LWPOLYLINE
  5
1F786CD0F673634
330
5882B2124CFC1D9C
100
AcDbEntity
  8
TEXT
100
AcDbPolyline
 90
        4
 70
     0
 43
0.0
 10
1.310824843179553
 20
0.6855925248140565
 10
1.310824843179553
 20
0.4909499756484208
 10
1.37930312646741
 20
0.4909499756484208
 10
1.37930312646741
 20
0.534440920598859
 42
-1.714843617202739
  0
LINE
  5
1F786CD0F673611
330
5882B2124CFC1D9C
100
AcDbEntity
  8
TEXT
100
AcDbLine
 10
1.05785928826342
 20
0.7574230086369318
 30
0.0
 11
1.05785928826342
 21
0.5565588019045236
 31
0.0
  0
LINE
  5
1F786CD0F673626
330
5882B2124CFC1D9C
100
AcDbEntity
  8
TEXT
100
AcDbLine
 10
1.182079410310651
 20
0.6855925248140565
 30
0.0
 11
1.182079410310651
 21
0.4909499756484208
 31
0.0
  0
LINE
  5
1F786CD0F673628
330
5882B2124CFC1D9C
100
AcDbEntity
  8
TEXT
100
AcDbLine
 10
1.12469034132139
 20
0.4909499756484208
 30
0.0
 11
1.12469034132139
 21
0.6931463139801664
 31
0.0
  0
LINE
  5
1F786CD0F673625
330
5882B2124CFC1D9C
100
AcDbEntity
  8
TEXT
100
AcDbLine
 10
1.182079410310651
 20
0.4909499756484208
 30
0.0
 11
1.249137457092491
 21
0.4909499756484208
 31
0.0
  0
LINE
  5
1F786CD0F673612
330
5882B2124CFC1D9C
100
AcDbEntity
  8
TEXT
100
AcDbLine
 10
1.05785928826342
 20
0.5565588019045236
 30
0.0
 11
1.040865651378819
 21
0.5565588019045236
 31
0.0
  0
LWPOLYLINE
  5
1F786CD0F67357B
330
5882B2124CFC1D9C
100
AcDbEntity
  8
TEXT
100
AcDbPolyline
 90
        2
 70
     0
 43
0.0
 10
1.37930312646741
 20
0.534440920598859
 42
0.2901071551932823
 10
1.422379059335046
 20
0.4909499756484208
 42
5.328517124445801
  0
LWPOLYLINE
  5
1F786CD0F673645
330
5882B2124CFC1D9C
100
AcDbEntity
  8
TEXT
100
AcDbPolyline
 90
        2
 70
     0
 43
0.0
 10
1.191877344194557
 20
0.7574230086369354
 42
-0.3328679258950098
 10
1.227659034907718
 20
0.7302555118760395
 42
6.772930709997214
  0
LWPOLYLINE
  5
1F786CD0F67363F
330
5882B2124CFC1D9C
100
AcDbEntity
  8
TEXT
100
AcDbPolyline
 90
        3
 70
     0
 43
0.0
 10
1.345959193723762
 20
0.7574230086369354
 10
1.227659034907718
 20
0.7574230086369354
 10
1.227659034907718
 20
0.7302555118760395
 42
-1.960274751411753
  0
LINE
  5
1F786CD0F673627
330
5882B2124CFC1D9C
100
AcDbEntity
  8
TEXT
100
AcDbLine
 10
1.12469034132139
 20
0.6931463139801664
 30
0.0
 11
1.174525621144537
 21
0.6931463139801664
 31
0.0
  0
LWPOLYLINE
  5
1F786CD0F673629
330
5882B2124CFC1D9C
100
AcDbEntity
  8
TEXT
100
AcDbPolyline
 90
        2
 70
     0
 43
0.0
 10
1.174525621144535
 20
0.6931463139801664
 42
-0.4142135623731017
 10
1.182079410310649
 20
0.6855925248140565
 42
-0.9999999999999998
  0
LINE
  5
1F786CD0F673644
330
5882B2124CFC1D9C
100
AcDbEntity
  8
TEXT
100
AcDbLine
 10
1.191877344194557
 20
0.7574230086369318
 30
0.0
 11
1.05785928826342
 21
0.7574230086369318
 31
0.0
  0
LINE
  5
1F786CD0F67362E
330
5882B2124CFC1D9C
100
AcDbEntity
  8
TEXT
100
AcDbLine
 10
1.249137457092491
 20
0.6931463139801664
 30
0.0
 11
1.303271054013441
 21
0.6931463139801664
 31
0.0
  0
LWPOLYLINE
  5
1F786CD0F673630
330
5882B2124CFC1D9C
100
AcDbEntity
  8
TEXT
100
AcDbPolyline
 90
        2
 70
     0
 43
0.0
 10
1.303271054013439
 20
0.6931463139801664
 42
-0.4142135623731017
 10
1.310824843179553
 20
0.6855925248140565
 42
-0.9999999999999998
  0
LINE
  5
1F786CD0F673649
330
5882B2124CFC1D9C
100
AcDbEntity
  8
TEXT
100
AcDbLine
 10
1.381740884436929
 20
0.7574230086369318
 30
0.0
 11
1.381740884436929
 21
0.729100462867288
 31
0.0
  0
LWPOLYLINE
  5
1F786CD0F67364A
330
5882B2124CFC1D9C
100
AcDbEntity
  8
TEXT
100
AcDbPolyline
 90
        2
 70
     0
 43
0.0
 10
1.345959193723762
 20
0.7574230086369354
 42
-0.3277054968067132
 10
1.381740884436927
 20
0.7291004628672915
 42
6.667889725900311
  0
LINE
  5
1F786CD0F67364F
330
5882B2124CFC1D9C
100
AcDbEntity
  8
TEXT
100
AcDbLine
 10
1.595532732529029
 20
0.7574230086369318
 30
0.0
 11
1.595532732529029
 21
0.6522110300835045
 31
0.0
  0
LINE
  5
1F786CD0F673666
330
5882B2124CFC1D9C
100
AcDbEntity
  8
TEXT
100
AcDbLine
 10
1.75938148024462
 20
0.6931463139801664
 30
0.0
 11
1.759381480244625
 21
0.4909499756484208
 31
0.0
  0
LINE
  5
1F786CD0F673668
330
5882B2124CFC1D9C
100
AcDbEntity
  8
TEXT
100
AcDbLine
 10
1.657827623669403
 20
0.4909499756484208
 30
0.0
 11
1.657827623669398
 21
0.6682404810798892
 31
0.0
  0
LINE
  5
1F786CD0F673659
330
5882B2124CFC1D9C
100
AcDbEntity
  8
TEXT
100
AcDbLine
 10
1.523342970613631
 20
0.6558713405180341
 30
0.0
 11
1.513078210200067
 21
0.6771218800907284
 31
0.0
  0
LINE
  5
1F786CD0F67364E
330
5882B2124CFC1D9C
100
AcDbEntity
  8
TEXT
100
AcDbLine
 10
1.595532732529029
 20
0.6522110300835045
 30
0.0
 11
1.551781961347128
 21
0.7344613060796497
 31
0.0
  0
LWPOLYLINE
  5
1F786CD0F673669
330
5882B2124CFC1D9C
100
AcDbEntity
  8
TEXT
100
AcDbPolyline
 90
        2
 70
     0
 43
0.0
 10
1.599472409834067
 20
0.4909499756484208
 10
1.657827623669401
 20
0.4909499756484208
  0
LWPOLYLINE
  5
1F786CD0F67366D
330
5882B2124CFC1D9C
100
AcDbEntity
  8
TEXT
100
AcDbPolyline
 90
        2
 70
     0
 43
0.0
 10
1.599472409834067
 20
0.534440920598859
 10
1.599472409834067
 20
0.4909499756484208
  0
LINE
  5
1F786CD0F67365A
330
5882B2124CFC1D9C
100
AcDbEntity
  8
TEXT
100
AcDbLine
 10
1.441054980830248
 20
0.6558713405180341
 30
0.0
 11
1.523342970613631
 21
0.6558713405180341
 31
0.0
  0
LWPOLYLINE
  5
1F786CD0F673654
330
5882B2124CFC1D9C
100
AcDbEntity
  8
TEXT
100
AcDbPolyline
 90
        2
 70
     0
 43
0.0
 10
1.599472409834067
 20
0.534440920598859
 42
-0.2901071551932486
 10
1.556396476966423
 20
0.4909499756484208
 42
-5.328517124445184
  0
LINE
  5
1F786CD0F673653
330
5882B2124CFC1D9C
100
AcDbEntity
  8
TEXT
100
AcDbLine
 10
1.759381480244625
 20
0.4909499756484208
 30
0.0
 11
1.823759664563246
 21
0.4909499756484208
 31
0.0
  0
LINE
  5
1F786CD0F673674
330
5882B2124CFC1D9C
100
AcDbEntity
  8
TEXT
100
AcDbLine
 10
1.823759664563246
 20
0.4909499756484208
 30
0.0
 11
1.823759664563246
 21
0.6225295441246011
 31
0.0
  0
LINE
  5
1F786CD0F673677
330
5882B2124CFC1D9C
100
AcDbEntity
  8
TEXT
100
AcDbLine
 10
1.65942963882853
 20
0.7574230086369318
 30
0.0
 11
1.595532732529029
 21
0.7574230086369318
 31
0.0
  0
ARC
  5
1F786CD0F673658
330
5882B2124CFC1D9C
100
AcDbEntity
  8
TEXT
100
AcDbCircle
 10
1.487541895309508
 20
0.6647869389801691
 30
0.0
 40
0.028359375
100
AcDbArc
 50
25.78218179591245
 51
90.0
  0
ARC
  5
1F786CD0F673676
330
5882B2124CFC1D9C
100
AcDbEntity
  8
TEXT
100
AcDbCircle
 10
1.514545853876919
 20
0.7158394415160294
 30
0.0
 40
0.0416329381542859
100
AcDbArc
 50
26.56974201007528
 51
87.20939649401342
  0
LINE
  5
1F786CD0F673650
330
5882B2124CFC1D9C
100
AcDbEntity
  8
TEXT
100
AcDbLine
 10
1.823216471467398
 20
0.6815576822253937
 30
0.0
 11
1.823216471467398
 21
0.8228872144045325
 31
0.0
  0
LINE
  5
1F786CD0F673665
330
5882B2124CFC1D9C
100
AcDbEntity
  8
TEXT
100
AcDbLine
 10
1.682733498952062
 20
0.6931463139801664
 30
0.0
 11
1.75938148024462
 21
0.6931463139801664
 31
0.0
  0
ARC
  5
1F786CD0F673667
330
5882B2124CFC1D9C
100
AcDbEntity
  8
TEXT
100
AcDbCircle
 10
1.68273349895206
 20
0.6682404386975036
 30
0.0
 40
0.0249058752826653
100
AcDbArc
 50
89.99971217465335
 51
179.9999999999985
  0
LINE
  5
1F786CD0F673678
330
5882B2124CFC1D9C
100
AcDbEntity
  8
TEXT
100
AcDbLine
 10
1.65942963882853
 20
0.7298753587760572
 30
0.0
 11
1.65942963882853
 21
0.7574230086369318
 31
0.0
  0
ARC
  5
1F786CD0F673679
330
5882B2124CFC1D9C
100
AcDbEntity
  8
TEXT
100
AcDbCircle
 10
1.690622455891638
 20
0.726177281354667
 30
0.0
 40
0.0314112657011332
100
AcDbArc
 50
95.88484768694724
 51
173.2388340632136
  0
LINE
  5
1F786CD0F67367A
330
5882B2124CFC1D9C
100
AcDbEntity
  8
TEXT
100
AcDbLine
 10
1.75490159291812
 20
0.7574230086369318
 30
0.0
 11
1.687401875268603
 21
0.7574230086369318
 31
0.0
  0
LINE
  5
1F786CD0F67367B
330
5882B2124CFC1D9C
100
AcDbEntity
  8
TEXT
100
AcDbLine
 10
1.754901592918125
 20
0.8228872144045325
 30
0.0
 11
1.75490159291812
 21
0.7574230086369318
 31
0.0
  0
LINE
  5
1F786CD0F673675
330
5882B2124CFC1D9C
100
AcDbEntity
  8
TEXT
100
AcDbLine
 10
1.823216471467398
 20
0.8228872144045325
 30
0.0
 11
1.754901592918125
 21
0.8228872144045325
 31
0.0
  0
LINE
  5
1F786CD0F673652
330
5882B2124CFC1D9C
100
AcDbEntity
  8
TEXT
100
AcDbLine
 10
1.880749346787306
 20
0.6475297656959583
 30
0.0
 11
1.945306462753011
 21
0.7574230086369318
 31
0.0
  0
LINE
  5
1F786CD0F673671
330
5882B2124CFC1D9C
100
AcDbEntity
  8
TEXT
100
AcDbLine
 10
1.976241570150916
 20
0.4909499756484208
 30
0.0
 11
1.880749346787306
 21
0.6475297656959583
 31
0.0
  0
LINE
  5
1F786CD0F673672
330
5882B2124CFC1D9C
100
AcDbEntity
  8
TEXT
100
AcDbLine
 10
1.89966319777471
 20
0.4909499756484208
 30
0.0
 11
1.976241570150916
 21
0.4909499756484208
 31
0.0
  0
LINE
  5
1F786CD0F67367C
330
5882B2124CFC1D9C
100
AcDbEntity
  8
TEXT
100
AcDbLine
 10
1.945306462753011
 20
0.7574230086369318
 30
0.0
 11
1.870314630023385
 21
0.7574230086369318
 31
0.0
  0
LWPOLYLINE
  5
5882B2124CFC1BB8
330
5882B2124CFC1D9C
100
AcDbEntity
  8
0
100
AcDbPolyline
 90
        6
 70
     1
 43
0.0
 10
1.296315964766714
 20
1.374694073792111
 10
1.296315964766711
 20
1.312194073792111
 42
0.0287482983008426
 10
1.858803302824297
 20
1.308568063418197
 10
1.937757314099286
 20
1.312600941247584
 42
0.9755832799508523
 10
1.921315964766714
 20
1.937193673791856
 10
1.921315964766714
 20
1.374694073792111
  0
ENDSEC
  0
SECTION
  2
OBJECTS
  0
DICTIONARY
  5
5882B2124CFC1D90
330
0
100
AcDbDictionary
  3
ACAD_GROUP
350
5882B2124CFC1D91
  3
ACAD_LAYOUT
350
5882B2124CFC1DB5
  3
ACAD_MLINESTYLE
350
5882B2124CFC1D92
  3
ACAD_PLOTSETTINGS
350
5882B2124CFC1DB6
  3
ACAD_PLOTSTYLENAME
350
5882B2124CFC1DB3
  3
ACDBHEADERROUNDTRIPXREC
350
5882B2124CFC1DC0
  3
ACDBVARIABLEDICTIONARY
350
5882B2124CFC1DBD
  0
DICTIONARY
  5
5882B2124CFC1DE2
330
5882B2124CFC1D9C
100
AcDbDictionary
280
     1
  3
ACAD_LAYOUTSELFREF
360
5882B2124CFC1DE3
  0
DICTIONARY
  5
5882B2124CFC1DE0
330
5882B2124CFC1D99
100
AcDbDictionary
280
     1
  3
ACAD_LAYOUTSELFREF
360
5882B2124CFC1DE1
  0
DICTIONARY
  5
5882B2124CFC1D91
102
{ACAD_REACTORS
330
5882B2124CFC1D90
102
}
330
5882B2124CFC1D90
100
AcDbDictionary
  0
DICTIONARY
  5
5882B2124CFC1DB5
102
{ACAD_REACTORS
330
5882B2124CFC1D90
102
}
330
5882B2124CFC1D90
100
AcDbDictionary
  0
DICTIONARY
  5
5882B2124CFC1D92
102
{ACAD_REACTORS
330
5882B2124CFC1D90
102
}
330
5882B2124CFC1D90
100
AcDbDictionary
  3
STANDARD
350
5882B2124CFC1D9F
  0
DICTIONARY
  5
5882B2124CFC1DB6
102
{ACAD_REACTORS
330
5882B2124CFC1D90
102
}
330
5882B2124CFC1D90
100
AcDbDictionary
  0
ACDBDICTIONARYWDFLT
  5
5882B2124CFC1DB3
102
{ACAD_REACTORS
330
5882B2124CFC1D90
102
}
330
5882B2124CFC1D90
100
AcDbDictionary
281
     1
  3
Normal
350
5882B2124CFC1DB4
100
AcDbDictionaryWithDefault
340
5882B2124CFC1DB4
  0
DICTIONARY
  5
5882B2124CFC1DC0
102
{ACAD_REACTORS
330
5882B2124CFC1D90
102
}
330
5882B2124CFC1D90
100
AcDbDictionary
  3
CEPSNTYPE
350
5882B2124CFC1DCA
  3
FINGERPRINTGUID
350
5882B2124CFC1DCB
  3
HYPERLINKBASE
350
5882B2124CFC1DC3
  3
INSUNITS
350
5882B2124CFC1DC9
  3
LAYOUTDICT
350
5882B2124CFC1DC5
  3
LWETCUNION
350
5882B2124CFC1DC8
  3
PLOTSETDICT
350
5882B2124CFC1DC6
  3
PLOTSTYLNAMDICT
350
5882B2124CFC1DC7
  3
PSVPSCALE
350
5882B2124CFC1DCD
  3
PUCSBASE
350
5882B2124CFC1DD0
  3
PUCSORGBACK
350
5882B2124CFC1DD6
  3
PUCSORGBOTTOM
350
5882B2124CFC1DD2
  3
PUCSORGFRONT
350
5882B2124CFC1DD5
  3
PUCSORGLEFT
350
5882B2124CFC1DD3
  3
PUCSORGRIGHT
350
5882B2124CFC1DD4
  3
PUCSORGTOP
350
5882B2124CFC1DD1
  3
PUCSORTHOREF
350
5882B2124CFC1DCE
  3
PUCSORTHOVIEW
350
5882B2124CFC1DCF
  3
STYLESHEET
350
5882B2124CFC1DC4
  3
TSTACKALIGN
350
5882B2124CFC1DC1
  3
TSTACKSIZE
350
5882B2124CFC1DC2
  3
UCSBASE
350
5882B2124CFC1DD9
  3
UCSORGBACK
350
5882B2124CFC1DDF
  3
UCSORGBOTTOM
350
5882B2124CFC1DDB
  3
UCSORGFRONT
350
5882B2124CFC1DDE
  3
UCSORGLEFT
350
5882B2124CFC1DDC
  3
UCSORGRIGHT
350
5882B2124CFC1DDD
  3
UCSORGTOP
350
5882B2124CFC1DDA
  3
UCSORTHOREF
350
5882B2124CFC1DD7
  3
UCSORTHOVIEW
350
5882B2124CFC1DD8
  3
VERSIONGUID
350
5882B2124CFC1DCC
  0
DICTIONARY
  5
5882B2124CFC1DBD
102
{ACAD_REACTORS
330
5882B2124CFC1D90
102
}
330
5882B2124CFC1D90
100
AcDbDictionary
  3
DIMASSOC
350
5882B2124CFC1DBE
  0
XRECORD
  5
5882B2124CFC1DE3
102
{ACAD_REACTORS
330
5882B2124CFC1DE2
102
}
330
5882B2124CFC1DE2
100
AcDbXrecord
340
5882B2124CFC1D9C
  0
XRECORD
  5
5882B2124CFC1DE1
102
{ACAD_REACTORS
330
5882B2124CFC1DE0
102
}
330
5882B2124CFC1DE0
100
AcDbXrecord
340
5882B2124CFC1D99
  0
MLINESTYLE
  5
5882B2124CFC1D9F
102
{ACAD_REACTORS
330
5882B2124CFC1D92
102
}
330
5882B2124CFC1D92
100
AcDbMlineStyle
  2
STANDARD
 70
     0
  3

 62
     0
 51
90.0
 52
90.0
 71
     2
 49
0.5
 62
   256
  6
BYLAYER
 49
-0.5
 62
   256
  6
BYLAYER
  0
ACDBPLACEHOLDER
  5
5882B2124CFC1DB4
102
{ACAD_REACTORS
330
5882B2124CFC1DB3
102
}
330
5882B2124CFC1DB3
100
AcDbPlaceHolder
280
     0
  0
XRECORD
  5
5882B2124CFC1DCA
102
{ACAD_REACTORS
330
5882B2124CFC1DC0
102
}
330
5882B2124CFC1DC0
100
AcDbXrecord
 90
        0
  0
XRECORD
  5
5882B2124CFC1DCB
102
{ACAD_REACTORS
330
5882B2124CFC1DC0
102
}
330
5882B2124CFC1DC0
100
AcDbXrecord
  1
{582956C0-8DB8-11D6-88E6-0090279574E7}
  0
XRECORD
  5
5882B2124CFC1DC3
102
{ACAD_REACTORS
330
5882B2124CFC1DC0
102
}
330
5882B2124CFC1DC0
100
AcDbXrecord
  1

  0
XRECORD
  5
5882B2124CFC1DC9
102
{ACAD_REACTORS
330
5882B2124CFC1DC0
102
}
330
5882B2124CFC1DC0
100
AcDbXrecord
 90
        0
  0
XRECORD
  5
5882B2124CFC1DC5
102
{ACAD_REACTORS
330
5882B2124CFC1DC0
102
}
330
5882B2124CFC1DC0
100
AcDbXrecord
340
5882B2124CFC1DB5
  0
XRECORD
  5
5882B2124CFC1DC8
102
{ACAD_REACTORS
330
5882B2124CFC1DC0
102
}
330
5882B2124CFC1DC0
100
AcDbXrecord
 90
    14877
  0
XRECORD
  5
5882B2124CFC1DC6
102
{ACAD_REACTORS
330
5882B2124CFC1DC0
102
}
330
5882B2124CFC1DC0
100
AcDbXrecord
340
5882B2124CFC1DB6
  0
XRECORD
  5
5882B2124CFC1DC7
102
{ACAD_REACTORS
330
5882B2124CFC1DC0
102
}
330
5882B2124CFC1DC0
100
AcDbXrecord
340
5882B2124CFC1DB3
  0
XRECORD
  5
5882B2124CFC1DCD
102
{ACAD_REACTORS
330
5882B2124CFC1DC0
102
}
330
5882B2124CFC1DC0
100
AcDbXrecord
 40
0.0
  0
XRECORD
  5
5882B2124CFC1DD0
102
{ACAD_REACTORS
330
5882B2124CFC1DC0
102
}
330
5882B2124CFC1DC0
100
AcDbXrecord
340
0
  0
XRECORD
  5
5882B2124CFC1DD6
102
{ACAD_REACTORS
330
5882B2124CFC1DC0
102
}
330
5882B2124CFC1DC0
100
AcDbXrecord
 10
0.0
 20
0.0
 30
0.0
  0
XRECORD
  5
5882B2124CFC1DD2
102
{ACAD_REACTORS
330
5882B2124CFC1DC0
102
}
330
5882B2124CFC1DC0
100
AcDbXrecord
 10
0.0
 20
0.0
 30
0.0
  0
XRECORD
  5
5882B2124CFC1DD5
102
{ACAD_REACTORS
330
5882B2124CFC1DC0
102
}
330
5882B2124CFC1DC0
100
AcDbXrecord
 10
0.0
 20
0.0
 30
0.0
  0
XRECORD
  5
5882B2124CFC1DD3
102
{ACAD_REACTORS
330
5882B2124CFC1DC0
102
}
330
5882B2124CFC1DC0
100
AcDbXrecord
 10
0.0
 20
0.0
 30
0.0
  0
XRECORD
  5
5882B2124CFC1DD4
102
{ACAD_REACTORS
330
5882B2124CFC1DC0
102
}
330
5882B2124CFC1DC0
100
AcDbXrecord
 10
0.0
 20
0.0
 30
0.0
  0
XRECORD
  5
5882B2124CFC1DD1
102
{ACAD_REACTORS
330
5882B2124CFC1DC0
102
}
330
5882B2124CFC1DC0
100
AcDbXrecord
 10
0.0
 20
0.0
 30
0.0
  0
XRECORD
  5
5882B2124CFC1DCE
102
{ACAD_REACTORS
330
5882B2124CFC1DC0
102
}
330
5882B2124CFC1DC0
100
AcDbXrecord
340
0
  0
XRECORD
  5
5882B2124CFC1DCF
102
{ACAD_REACTORS
330
5882B2124CFC1DC0
102
}
330
5882B2124CFC1DC0
100
AcDbXrecord
 70
     0
  0
XRECORD
  5
5882B2124CFC1DC4
102
{ACAD_REACTORS
330
5882B2124CFC1DC0
102
}
330
5882B2124CFC1DC0
100
AcDbXrecord
  1

  0
XRECORD
  5
5882B2124CFC1DC1
102
{ACAD_REACTORS
330
5882B2124CFC1DC0
102
}
330
5882B2124CFC1DC0
100
AcDbXrecord
 90
        1
  0
XRECORD
  5
5882B2124CFC1DC2
102
{ACAD_REACTORS
330
5882B2124CFC1DC0
102
}
330
5882B2124CFC1DC0
100
AcDbXrecord
 90
       70
  0
XRECORD
  5
5882B2124CFC1DD9
102
{ACAD_REACTORS
330
5882B2124CFC1DC0
102
}
330
5882B2124CFC1DC0
100
AcDbXrecord
340
0
  0
XRECORD
  5
5882B2124CFC1DDF
102
{ACAD_REACTORS
330
5882B2124CFC1DC0
102
}
330
5882B2124CFC1DC0
100
AcDbXrecord
 10
0.0
 20
0.0
 30
0.0
  0
XRECORD
  5
5882B2124CFC1DDB
102
{ACAD_REACTORS
330
5882B2124CFC1DC0
102
}
330
5882B2124CFC1DC0
100
AcDbXrecord
 10
0.0
 20
0.0
 30
0.0
  0
XRECORD
  5
5882B2124CFC1DDE
102
{ACAD_REACTORS
330
5882B2124CFC1DC0
102
}
330
5882B2124CFC1DC0
100
AcDbXrecord
 10
0.0
 20
0.0
 30
0.0
  0
XRECORD
  5
5882B2124CFC1DDC
102
{ACAD_REACTORS
330
5882B2124CFC1DC0
102
}
330
5882B2124CFC1DC0
100
AcDbXrecord
 10
0.0
 20
0.0
 30
0.0
  0
XRECORD
  5
5882B2124CFC1DDD
102
{ACAD_REACTORS
330
5882B2124CFC1DC0
102
}
330
5882B2124CFC1DC0
100
AcDbXrecord
 10
0.0
 20
0.0
 30
0.0
  0
XRECORD
  5
5882B2124CFC1DDA
102
{ACAD_REACTORS
330
5882B2124CFC1DC0
102
}
330
5882B2124CFC1DC0
100
AcDbXrecord
 10
0.0
 20
0.0
 30
0.0
  0
XRECORD
  5
5882B2124CFC1DD7
102
{ACAD_REACTORS
330
5882B2124CFC1DC0
102
}
330
5882B2124CFC1DC0
100
AcDbXrecord
340
0
  0
XRECORD
  5
5882B2124CFC1DD8
102
{ACAD_REACTORS
330
5882B2124CFC1DC0
102
}
330
5882B2124CFC1DC0
100
AcDbXrecord
 70
     0
  0
XRECORD
  5
5882B2124CFC1DCC
102
{ACAD_REACTORS
330
5882B2124CFC1DC0
102
}
330
5882B2124CFC1DC0
100
AcDbXrecord
  1
{582956C2-8DB8-11D6-88E6-0090279574E7}
  0
DICTIONARYVAR
  5
5882B2124CFC1DBE
102
{ACAD_REACTORS
330
5882B2124CFC1DBD
102
}
330
5882B2124CFC1DBD
100
DictionaryVariables
280
     0
  1
1
  0
ENDSEC
  0
EOF
