  0
SECTION
  2
HEADER
  9
$ACADVER
  1
AC1014
  9
$ACADMAINTVER
 70
     9
  9
$DWGCODEPAGE
  3
ANSI_1252
  9
$INSBASE
 10
0.0
 20
0.0
 30
0.0
  9
$EXTMIN
 10
2.207471096218176
 20
5.095160968374759
 30
0.0
  9
$EXTMAX
 10
5.692690417965312
 20
7.506000289316496
 30
0.0
  9
$LIMMIN
 10
0.0
 20
0.0
  9
$LIMMAX
 10
18.0
 20
12.0
  9
$ORTHOMODE
 70
     1
  9
$REGENMODE
 70
     1
  9
$FILLMODE
 70
     1
  9
$QTEXTMODE
 70
     0
  9
$MIRRTEXT
 70
     0
  9
$DRAGMODE
 70
     2
  9
$LTSCALE
 40
1.0
  9
$OSMODE
 70
    39
  9
$ATTMODE
 70
     1
  9
$TEXTSIZE
 40
0.125
  9
$TRACEWID
 40
0.05
  9
$TEXTSTYLE
  7
ROMANS
  9
$CLAYER
  8
0
  9
$CELTYPE
  6
BYLAYER
  9
$CECOLOR
 62
   256
  9
$CELTSCALE
 40
1.0
  9
$DELOBJ
 70
     1
  9
$DISPSILH
 70
     1
  9
$DIMSCALE
 40
1.0
  9
$DIMASZ
 40
0.125
  9
$DIMEXO
 40
0.125
  9
$DIMDLI
 40
0.375
  9
$DIMRND
 40
0.0
  9
$DIMDLE
 40
0.0
  9
$DIMEXE
 40
0.125
  9
$DIMTP
 40
0.008
  9
$DIMTM
 40
0.008
  9
$DIMTXT
 40
0.125
  9
$DIMCEN
 40
-0.125
  9
$DIMTSZ
 40
0.0
  9
$DIMTOL
 70
     0
  9
$DIMLIM
 70
     0
  9
$DIMTIH
 70
     1
  9
$DIMTOH
 70
     1
  9
$DIMSE1
 70
     0
  9
$DIMSE2
 70
     0
  9
$DIMTAD
 70
     0
  9
$DIMZIN
 70
     4
  9
$DIMBLK
  1

  9
$DIMASO
 70
     1
  9
$DIMSHO
 70
     1
  9
$DIMPOST
  1

  9
$DIMAPOST
  1

  9
$DIMALT
 70
     0
  9
$DIMALTD
 70
     2
  9
$DIMALTF
 40
25.4
  9
$DIMLFAC
 40
1.0
  9
$DIMTOFL
 70
     0
  9
$DIMTVP
 40
0.0
  9
$DIMTIX
 70
     0
  9
$DIMSOXD
 70
     0
  9
$DIMSAH
 70
     0
  9
$DIMBLK1
  1

  9
$DIMBLK2
  1

  9
$DIMSTYLE
  2
STANDARD
  9
$DIMCLRD
 70
     0
  9
$DIMCLRE
 70
     0
  9
$DIMCLRT
 70
     0
  9
$DIMTFAC
 40
1.0
  9
$DIMGAP
 40
0.094
  9
$DIMJUST
 70
     0
  9
$DIMSD1
 70
     0
  9
$DIMSD2
 70
     0
  9
$DIMTOLJ
 70
     1
  9
$DIMTZIN
 70
     4
  9
$DIMALTZ
 70
     0
  9
$DIMALTTZ
 70
     0
  9
$DIMFIT
 70
     3
  9
$DIMUPT
 70
     0
  9
$DIMUNIT
 70
     2
  9
$DIMDEC
 70
     3
  9
$DIMTDEC
 70
     3
  9
$DIMALTU
 70
     2
  9
$DIMALTTD
 70
     2
  9
$DIMTXSTY
  7
ROMANS
  9
$DIMAUNIT
 70
     0
  9
$LUNITS
 70
     2
  9
$LUPREC
 70
     3
  9
$SKETCHINC
 40
0.1
  9
$FILLETRAD
 40
0.6
  9
$AUNITS
 70
     0
  9
$AUPREC
 70
     0
  9
$MENU
  1
ACAD
  9
$ELEVATION
 40
0.0
  9
$PELEVATION
 40
0.0
  9
$THICKNESS
 40
0.0
  9
$LIMCHECK
 70
     0
  9
$BLIPMODE
 70
     0
  9
$CHAMFERA
 40
0.0
  9
$CHAMFERB
 40
0.0
  9
$CHAMFERC
 40
0.0
  9
$CHAMFERD
 40
0.0
  9
$SKPOLY
 70
     0
  9
$TDCREATE
 40
2449378.667230208
  9
$TDUPDATE
 40
2452458.316893136
  9
$TDINDWG
 40
0.6495565856
  9
$TDUSRTIMER
 40
0.6495565856
  9
$USRTIMER
 70
     1
  9
$ANGBASE
 50
0.0
  9
$ANGDIR
 70
     0
  9
$PDMODE
 70
    35
  9
$PDSIZE
 40
0.0
  9
$PLINEWID
 40
0.125
  9
$COORDS
 70
     2
  9
$SPLFRAME
 70
     0
  9
$SPLINETYPE
 70
     6
  9
$SPLINESEGS
 70
     8
  9
$ATTDIA
 70
     0
  9
$ATTREQ
 70
     1
  9
$HANDLING
 70
 22529
  9
$HANDSEED
  5
15A2CACFA97289A3
  9
$SURFTAB1
 70
     6
  9
$SURFTAB2
 70
     6
  9
$SURFTYPE
 70
     6
  9
$SURFU
 70
     6
  9
$SURFV
 70
     6
  9
$UCSNAME
  2

  9
$UCSORG
 10
0.0
 20
0.0
 30
0.0
  9
$UCSXDIR
 10
1.0
 20
0.0
 30
0.0
  9
$UCSYDIR
 10
0.0
 20
1.0
 30
0.0
  9
$PUCSNAME
  2

  9
$PUCSORG
 10
0.0
 20
0.0
 30
0.0
  9
$PUCSXDIR
 10
1.0
 20
0.0
 30
0.0
  9
$PUCSYDIR
 10
0.0
 20
1.0
 30
0.0
  9
$USERI1
 70
     0
  9
$USERI2
 70
     0
  9
$USERI3
 70
     0
  9
$USERI4
 70
     0
  9
$USERI5
 70
     0
  9
$USERR1
 40
0.0
  9
$USERR2
 40
0.0
  9
$USERR3
 40
0.0
  9
$USERR4
 40
0.0
  9
$USERR5
 40
0.0
  9
$WORLDVIEW
 70
     1
  9
$SHADEDGE
 70
     3
  9
$SHADEDIF
 70
    70
  9
$TILEMODE
 70
     1
  9
$MAXACTVP
 70
    16
  9
$PINSBASE
 10
0.0
 20
0.0
 30
0.0
  9
$PLIMCHECK
 70
     0
  9
$PEXTMIN
 10
1.000000000000000E+20
 20
1.000000000000000E+20
 30
1.000000000000000E+20
  9
$PEXTMAX
 10
-1.000000000000000E+20
 20
-1.000000000000000E+20
 30
-1.000000000000000E+20
  9
$PLIMMIN
 10
0.0
 20
0.0
  9
$PLIMMAX
 10
12.0
 20
9.0
  9
$UNITMODE
 70
     0
  9
$VISRETAIN
 70
     0
  9
$PLINEGEN
 70
     1
  9
$PSLTSCALE
 70
     0
  9
$TREEDEPTH
 70
  3020
  9
$PICKSTYLE
 70
     1
  9
$CMLSTYLE
  2
STANDARD
  9
$CMLJUST
 70
     0
  9
$CMLSCALE
 40
1.0
  9
$PROXYGRAPHICS
 70
     1
  9
$MEASUREMENT
 70
     0
  0
ENDSEC
  0
SECTION
  2
CLASSES
  0
CLASS
  1
LWPOLYLINE
  2
AcDbPolyline
  3
AutoCAD 2000
 90
        0
280
     0
281
     1
  0
CLASS
  1
DICTIONARYVAR
  2
AcDbDictionaryVar
  3
AutoCAD 2000
 90
        0
280
     0
281
     0
  0
CLASS
  1
ACDBDICTIONARYWDFLT
  2
AcDbDictionaryWithDefault
  3
AutoCAD 2000
 90
        0
280
     0
281
     0
  0
CLASS
  1
ACDBPLACEHOLDER
  2
AcDbPlaceHolder
  3
AutoCAD 2000
 90
        0
280
     0
281
     0
  0
CLASS
  1
LAYOUT
  2
AcDbLayout
  3
AutoCAD 2000
 90
        0
280
     0
281
     0
  0
CLASS
  1
LONG_TRANSACTION
  2
AcDbLongTransaction
  3
AutoCAD 2000
 90
        0
280
     0
281
     0
  0
CLASS
  1
LWPOLYLINE
  2
AcDbPolyline
  3
AutoCAD 2000
 90
        0
280
     0
281
     1
  0
CLASS
  1
HATCH
  2
AcDbHatch
  3
AutoCAD 2000
 90
        0
280
     0
281
     1
  0
CLASS
  1
XRECORD
  2
AcDbXrecord
  3
AutoCAD 2000
 90
        0
280
     0
281
     0
  0
ENDSEC
  0
SECTION
  2
TABLES
  0
TABLE
  2
VPORT
  5
15A2CACFA9726FD2
330
0
100
AcDbSymbolTable
 70
     2
  0
VPORT
  5
15A2CACFA972897E
330
15A2CACFA9726FD2
100
AcDbSymbolTableRecord
100
AcDbViewportTableRecord
  2
*ACTIVE
 70
     0
 10
0.0
 20
0.0
 11
1.0
 21
1.0
 12
7.235745101142098
 22
6.300693167285688
 13
0.0
 23
0.0
 14
0.015625
 24
0.015625
 15
0.0
 25
0.0
 16
0.0
 26
0.0
 36
1.0
 17
0.0
 27
0.0
 37
0.0
 40
2.432948660960571
 41
4.320930232558139
 42
50.0
 43
0.0
 44
0.0
 50
0.0
 51
0.0
 71
     0
 72
  2000
 73
     1
 74
     1
 75
     0
 76
     0
 77
     0
 78
     0
  0
ENDTAB
  0
TABLE
  2
LTYPE
  5
15A2CACFA9726FCF
330
0
100
AcDbSymbolTable
 70
     1
  0
LTYPE
  5
15A2CACFA9726FDC
330
15A2CACFA9726FCF
100
AcDbSymbolTableRecord
100
AcDbLinetypeTableRecord
  2
BYBLOCK
 70
     0
  3

 72
    65
 73
     0
 40
0.0
  0
LTYPE
  5
15A2CACFA9726FDD
330
15A2CACFA9726FCF
100
AcDbSymbolTableRecord
100
AcDbLinetypeTableRecord
  2
BYLAYER
 70
     0
  3

 72
    65
 73
     0
 40
0.0
  0
LTYPE
  5
15A2CACFA9726FDE
330
15A2CACFA9726FCF
100
AcDbSymbolTableRecord
100
AcDbLinetypeTableRecord
  2
CONTINUOUS
 70
     0
  3
Solid line
 72
    65
 73
     0
 40
0.0
  0
ENDTAB
  0
TABLE
  2
LAYER
  5
15A2CACFA9726FCC
330
0
100
AcDbSymbolTable
 70
     2
  0
LAYER
  5
15A2CACFA9726FD9
330
15A2CACFA9726FCC
100
AcDbSymbolTableRecord
100
AcDbLayerTableRecord
  2
0
 70
     0
 62
     7
  6
CONTINUOUS
  0
LAYER
  5
15A2CACFA9726FEF
330
15A2CACFA9726FCC
100
AcDbSymbolTableRecord
100
AcDbLayerTableRecord
  2
TEXT
 70
     0
 62
     3
  6
CONTINUOUS
  0
ENDTAB
  0
TABLE
  2
STYLE
  5
15A2CACFA9726FCD
330
0
100
AcDbSymbolTable
 70
     3
  0
STYLE
  5
15A2CACFA9726FDA
330
15A2CACFA9726FCD
100
AcDbSymbolTableRecord
100
AcDbTextStyleTableRecord
  2
STANDARD
 70
     0
 40
0.0
 41
1.0
 50
0.0
 71
     0
 42
0.125
  3
txt
  4

  0
STYLE
  5
15A2CACFA9726FE8
330
15A2CACFA9726FCD
100
AcDbSymbolTableRecord
100
AcDbTextStyleTableRecord
  2
ROMANS
 70
     0
 40
0.0
 41
1.0
 50
0.0
 71
     0
 42
0.125
  3
romans.shx
  4

  0
STYLE
  5
15A2CACFA972886D
330
15A2CACFA9726FCD
100
AcDbSymbolTableRecord
100
AcDbTextStyleTableRecord
  2
ITALICC
 70
     0
 40
0.0
 41
1.0
 50
0.0
 71
     0
 42
0.125
  3
italicc
  4

  0
ENDTAB
  0
TABLE
  2
VIEW
  5
15A2CACFA9726FD0
330
0
100
AcDbSymbolTable
 70
     1
  0
VIEW
  5
15A2CACFA9726FEB
330
15A2CACFA9726FD0
100
AcDbSymbolTableRecord
100
AcDbViewTableRecord
  2
OLE1
 70
     0
 40
12.95138888888887
 10
10.47936379482071
 20
4.250000000000002
 41
20.61386398849046
 11
0.0
 21
0.0
 31
1.0
 12
0.0
 22
0.0
 32
0.0
 42
50.0
 43
0.0
 44
0.0
 50
0.0
 71
     0
  0
ENDTAB
  0
TABLE
  2
UCS
  5
15A2CACFA9726FD1
330
0
100
AcDbSymbolTable
 70
     0
  0
ENDTAB
  0
TABLE
  2
APPID
  5
15A2CACFA9726FD3
330
0
100
AcDbSymbolTable
 70
     1
  0
APPID
  5
15A2CACFA9726FDB
330
15A2CACFA9726FD3
100
AcDbSymbolTableRecord
100
AcDbRegAppTableRecord
  2
ACAD
 70
     0
  0
ENDTAB
  0
TABLE
  2
DIMSTYLE
  5
15A2CACFA9726FD4
330
0
100
AcDbSymbolTable
 70
     1
  0
DIMSTYLE
105
15A2CACFA9726FF7
330
15A2CACFA9726FD4
100
AcDbSymbolTableRecord
100
AcDbDimStyleTableRecord
  2
STANDARD
 70
     0
  3

  4

  5

  6

  7

 40
1.0
 41
0.125
 42
0.125
 43
0.375
 44
0.125
 45
0.0
 46
0.0
 47
0.008
 48
0.008
140
0.125
141
-0.125
142
0.0
143
25.4
144
1.0
145
0.0
146
1.0
147
0.094
 71
     0
 72
     0
 73
     1
 74
     1
 75
     0
 76
     0
 77
     0
 78
     4
170
     0
171
     2
172
     0
173
     0
174
     0
175
     0
176
     0
177
     0
178
     0
270
     2
271
     3
272
     3
273
     2
274
     2
340
15A2CACFA9726FE8
275
     0
280
     0
281
     0
282
     0
283
     1
284
     4
285
     0
286
     0
287
     3
288
     0
  0
ENDTAB
  0
TABLE
  2
BLOCK_RECORD
  5
15A2CACFA9726FCB
330
0
100
AcDbSymbolTable
 70
     0
  0
BLOCK_RECORD
  5
15A2CACFA9726FE2
102
{ACAD_XDICTIONARY
360
15A2CACFA97289A1
102
}
330
15A2CACFA9726FCB
100
AcDbSymbolTableRecord
100
AcDbBlockTableRecord
  2
*MODEL_SPACE
  0
BLOCK_RECORD
  5
15A2CACFA9726FDF
102
{ACAD_XDICTIONARY
360
15A2CACFA972899F
102
}
330
15A2CACFA9726FCB
100
AcDbSymbolTableRecord
100
AcDbBlockTableRecord
  2
*PAPER_SPACE
  0
ENDTAB
  0
ENDSEC
  0
SECTION
  2
BLOCKS
  0
BLOCK
  5
15A2CACFA9726FF5
330
15A2CACFA9726FE2
100
AcDbEntity
  8
0
100
AcDbBlockBegin
  2
*MODEL_SPACE
 70
     0
 10
0.0
 20
0.0
 30
0.0
  3
*MODEL_SPACE
  1

  0
ENDBLK
  5
15A2CACFA9726FF6
330
15A2CACFA9726FE2
100
AcDbEntity
  8
0
100
AcDbBlockEnd
  0
BLOCK
  5
15A2CACFA9726FF3
330
15A2CACFA9726FDF
100
AcDbEntity
 67
     1
  8
0
100
AcDbBlockBegin
  2
*PAPER_SPACE
 70
     0
 10
0.0
 20
0.0
 30
0.0
  3
*PAPER_SPACE
  1

  0
ENDBLK
  5
15A2CACFA9726FF4
330
15A2CACFA9726FDF
100
AcDbEntity
 67
     1
  8
0
100
AcDbBlockEnd
  0
ENDSEC
  0
SECTION
  2
ENTITIES
  0
LWPOLYLINE
  5
15A2CACFA972668E
330
15A2CACFA9726FE2
100
AcDbEntity
  8
0
100
AcDbPolyline
 90
       38
 70
     1
 43
0.0
 10
4.060717711102213
 20
6.506000289316489
 42
0.4142135623730992
 10
4.310717711102215
 20
6.756000289316494
 42
0.414213562373096
 10
4.060717711102213
 20
7.006000289316496
 10
4.042999397392366
 20
7.006000289316489
 42
-0.4142135623730844
 10
3.949249397392371
 20
7.099750289316487
 10
3.949249397392369
 20
7.193438248133196
 42
0.2938235307382962
 10
3.931106799794141
 20
7.221646176158468
 42
-0.1998737347357121
 10
3.767597556063446
 20
7.397663662499672
 42
0.8369885697360887
 10
3.748217711102217
 20
7.394196890441538
 10
3.748217711102215
 20
7.256000289316496
 10
3.701342711102215
 20
7.283063583184762
 42
-0.2679491924311538
 10
3.685717711102213
 20
7.310126877053022
 10
3.685717711102215
 20
7.443500289316496
 10
3.654467711102215
 20
7.443500289316496
 42
-1.0
 10
3.654467711102215
 20
7.506000289316496
 10
3.810717711102222
 20
7.506000289316496
 42
0.3575806019819093
 10
4.011749397392366
 20
7.260842984199121
 10
4.011749397392367
 20
7.099750289316488
 42
0.4142135623730844
 10
4.042999397392367
 20
7.068500289316489
 10
4.060717711102224
 20
7.068500289316489
 42
-0.4142135623730876
 10
4.373217711102215
 20
6.756000289316496
 42
-0.4142135623730959
 10
4.060717711102215
 20
6.443500289316494
 10
4.042999397392369
 20
6.443500289316494
 42
0.4142135623730912
 10
4.011749397392369
 20
6.412250289316494
 10
4.011749397392369
 20
6.251157594433891
 42
0.3575806019819161
 10
3.810717711102215
 20
6.006000289316494
 10
3.654467711102215
 20
6.006000289316494
 42
-1.0
 10
3.654467711102215
 20
6.068500289316494
 10
3.685717711102215
 20
6.068500289316494
 10
3.685717711102215
 20
6.20187370157997
 42
-0.2679491924311483
 10
3.701342711102213
 20
6.228936995448229
 10
3.748217711102215
 20
6.256000289316496
 10
3.748217711102217
 20
6.117803688191489
 42
0.836988569736046
 10
3.767597556063456
 20
6.11433691613335
 42
-0.1998737347356849
 10
3.93110679979415
 20
6.29035440247453
 42
0.293823530738311
 10
3.949249397392369
 20
6.318562330499799
 10
3.949249397392369
 20
6.412250289316493
 42
-0.4142135623730912
 10
4.042999397392369
 20
6.506000289316494
  0
LINE
  5
15A2CACFA97288F2
330
15A2CACFA9726FE2
100
AcDbEntity
  8
TEXT
100
AcDbLine
 10
4.05866914691272
 20
5.297237254682734
 30
0.0
 11
4.05866914691272
 21
5.438566786861873
 31
0.0
  0
LINE
  5
15A2CACFA97288F3
330
15A2CACFA9726FE2
100
AcDbEntity
  8
TEXT
100
AcDbLine
 10
4.105767305468702
 20
5.373102581094272
 30
0.0
 11
4.05866914691272
 21
5.297237254682734
 31
0.0
  0
LINE
  5
15A2CACFA97288F4
330
15A2CACFA9726FE2
100
AcDbEntity
  8
TEXT
100
AcDbLine
 10
4.116202022232627
 20
5.263209338153298
 30
0.0
 11
4.180759138198332
 21
5.373102581094272
 31
0.0
  0
TEXT
  5
15A2CACFA97288F5
330
15A2CACFA9726FE2
100
AcDbEntity
  8
TEXT
100
AcDbText
 10
4.363757833695641
 20
5.292773783717549
 30
0.0
 40
0.0522247191011236
  1
6536 Main St. N.E. * P.O. Box 32008
 41
0.8388932496075355
 72
     5
 11
5.692690417965305
 21
5.292773783717549
 31
0.0
100
AcDbText
  0
ARC
  5
15A2CACFA97288F6
330
15A2CACFA9726FE2
100
AcDbEntity
  8
TEXT
100
AcDbCircle
 10
3.918186174397382
 20
5.283920011154844
 30
0.0
 40
0.0249058752826653
100
AcDbArc
 50
89.99971217465335
 51
179.9999999999985
  0
LINE
  5
15A2CACFA97288F7
330
15A2CACFA9726FE2
100
AcDbEntity
  8
TEXT
100
AcDbLine
 10
3.830985407974349
 20
5.267890602540845
 30
0.0
 11
3.787234636792447
 21
5.35014087853699
 31
0.0
  0
LINE
  5
15A2CACFA97288F8
330
15A2CACFA9726FE2
100
AcDbEntity
  8
TEXT
100
AcDbLine
 10
3.830985407974349
 20
5.373102581094272
 30
0.0
 11
3.830985407974349
 21
5.267890602540845
 31
0.0
  0
ARC
  5
15A2CACFA97288F9
330
15A2CACFA9726FE2
100
AcDbEntity
  8
TEXT
100
AcDbCircle
 10
3.722994570754829
 20
5.280466511437509
 30
0.0
 40
0.028359375
100
AcDbArc
 50
25.78218179591245
 51
90.0
  0
LINE
  5
15A2CACFA97288FA
330
15A2CACFA9726FE2
100
AcDbEntity
  8
TEXT
100
AcDbLine
 10
3.261000109571082
 20
5.18901738620876
 30
0.0
 11
3.261000109571082
 21
5.441114058833083
 31
0.0
  0
LINE
  5
15A2CACFA97288FB
330
15A2CACFA9726FE2
100
AcDbEntity
  8
TEXT
100
AcDbLine
 10
3.293311963708742
 20
5.373102581094272
 30
0.0
 11
3.293311963708742
 21
5.172238374361864
 31
0.0
  0
LINE
  5
15A2CACFA97288FC
330
15A2CACFA9726FE2
100
AcDbEntity
  8
TEXT
100
AcDbLine
 10
3.164069484211339
 20
5.373102581094272
 30
0.0
 11
3.105320921405475
 21
5.272230584981151
 31
0.0
  0
LINE
  5
15A2CACFA97288FD
330
15A2CACFA9726FE2
100
AcDbEntity
  8
TEXT
100
AcDbLine
 10
3.105320921405475
 20
5.272230584981151
 30
0.0
 11
3.046690600373537
 21
5.373102581094272
 31
0.0
  0
ARC
  5
15A2CACFA97288FE
330
15A2CACFA9726FE2
100
AcDbEntity
  8
TEXT
100
AcDbCircle
 10
2.73911727648711
 20
5.29101512164777
 30
0.0
 40
0.0820874594465043
100
AcDbArc
 50
90.0
 51
270.0
  0
LWPOLYLINE
  5
15A2CACFA97288FF
330
15A2CACFA9726FE2
100
AcDbEntity
  8
TEXT
100
AcDbPolyline
 90
        2
 70
     0
 43
0.0001332181640625
 10
2.331030943386146
 20
5.299832590859896
 10
2.321039581081455
 20
5.373102581094276
  0
LWPOLYLINE
  5
15A2CACFA9728900
330
15A2CACFA9726FE2
100
AcDbEntity
  8
TEXT
100
AcDbPolyline
 90
        2
 70
     0
 43
0.0001332181640625
 10
2.321039581081455
 20
5.346458948281775
 10
2.331030943386146
 20
5.286510774453649
  0
LWPOLYLINE
  5
15A2CACFA9728901
330
15A2CACFA9726FE2
100
AcDbEntity
  8
TEXT
100
AcDbPolyline
 90
        2
 70
     0
 43
0.0001332181640625
 10
2.361005030300207
 20
5.346458948281775
 10
2.351013667995518
 20
5.286510774453649
  0
LWPOLYLINE
  5
15A2CACFA9728902
330
15A2CACFA9726FE2
100
AcDbEntity
  8
TEXT
100
AcDbPolyline
 90
        2
 70
     0
 43
0.0001332181640625
 10
2.361005030300207
 20
5.373102581094276
 10
2.351013667995518
 20
5.299832590859896
  0
LWPOLYLINE
  5
15A2CACFA9728903
330
15A2CACFA9726FE2
100
AcDbEntity
  8
TEXT
100
AcDbPolyline
 90
        3
 70
     0
 43
0.0006660908203125
 10
2.474240469753333
 20
5.259867141641148
 10
2.474240469753333
 20
5.373102581094276
 10
2.361005030300207
 20
5.373102581094276
  0
LWPOLYLINE
  5
15A2CACFA9728904
330
15A2CACFA9726FE2
100
AcDbEntity
  8
TEXT
100
AcDbPolyline
 90
        3
 70
     0
 43
0.0006660908203125
 10
2.447596836940832
 20
5.259867141641148
 10
2.447596836940832
 20
5.346458948281775
 10
2.361005030300207
 20
5.346458948281775
  0
LWPOLYLINE
  5
15A2CACFA9728905
330
15A2CACFA9726FE2
100
AcDbEntity
  8
TEXT
100
AcDbPolyline
 90
        2
 70
     0
 43
0.0001332181640625
 10
2.447596836940832
 20
5.346458948281775
 10
2.387648663112708
 20
5.286510774453649
  0
LWPOLYLINE
  5
15A2CACFA9728906
330
15A2CACFA9726FE2
100
AcDbEntity
  8
TEXT
100
AcDbPolyline
 90
        2
 70
     0
 43
0.0001332181640625
 10
2.23444777444083
 20
5.346458948281775
 10
2.294395948268956
 20
5.286510774453649
  0
LWPOLYLINE
  5
15A2CACFA9728907
330
15A2CACFA9726FE2
100
AcDbEntity
  8
TEXT
100
AcDbPolyline
 90
        3
 70
     0
 43
0.0006660908203125
 10
2.321039581081455
 20
5.373102581094276
 10
2.207804141628333
 20
5.373102581094276
 10
2.207804141628333
 20
5.259867141641148
  0
LWPOLYLINE
  5
15A2CACFA9728908
330
15A2CACFA9726FE2
100
AcDbEntity
  8
TEXT
100
AcDbPolyline
 90
        3
 70
     0
 43
0.0006660908203125
 10
2.321039581081455
 20
5.346458948281775
 10
2.23444777444083
 20
5.346458948281775
 10
2.23444777444083
 20
5.259867141641148
  0
LINE
  5
15A2CACFA9728909
330
15A2CACFA9726FE2
100
AcDbEntity
  8
TEXT
100
AcDbLine
 10
2.809954742845659
 20
5.273021164826879
 30
0.0
 11
2.744354606601358
 21
5.273021164826879
 31
0.0
  0
LINE
  5
15A2CACFA972890A
330
15A2CACFA9726FE2
100
AcDbEntity
  8
TEXT
100
AcDbLine
 10
2.73911727648711
 20
5.208927662201265
 30
0.0
 11
2.814895116751939
 21
5.208927662201265
 31
0.0
  0
LINE
  5
15A2CACFA972890B
330
15A2CACFA9726FE2
100
AcDbEntity
  8
TEXT
100
AcDbLine
 10
2.657029817040607
 20
5.106629548105761
 30
0.0
 11
2.809954742845659
 21
5.106629548105761
 31
0.0
  0
LINE
  5
15A2CACFA972890C
330
15A2CACFA9726FE2
100
AcDbEntity
  8
TEXT
100
AcDbLine
 10
2.814895116751939
 20
5.1749865544392
 30
0.0
 11
2.657029817040605
 21
5.1749865544392
 31
0.0
  0
LINE
  5
15A2CACFA972890D
330
15A2CACFA9726FE2
100
AcDbEntity
  8
TEXT
100
AcDbLine
 10
2.744354606601358
 20
5.308825886437507
 30
0.0
 11
2.911260260630328
 21
5.308825886437507
 31
0.0
  0
LWPOLYLINE
  5
15A2CACFA972890E
330
15A2CACFA9726FE2
100
AcDbEntity
  8
TEXT
100
AcDbPolyline
 90
        2
 70
     0
 43
0.0006660908203125
 10
2.447596836940832
 20
5.259867141641148
 10
2.474240469753333
 20
5.259867141641148
  0
LWPOLYLINE
  5
15A2CACFA972890F
330
15A2CACFA9726FE2
100
AcDbEntity
  8
TEXT
100
AcDbPolyline
 90
        2
 70
     0
 43
0.0001332181640625
 10
2.400970479518957
 20
5.249875779336459
 10
2.474240469753333
 20
5.259867141641148
  0
LWPOLYLINE
  5
15A2CACFA9728910
330
15A2CACFA9726FE2
100
AcDbEntity
  8
TEXT
100
AcDbPolyline
 90
        2
 70
     0
 43
0.0006660908203125
 10
2.447596836940832
 20
5.2199016924224
 10
2.474240469753333
 20
5.2199016924224
  0
LWPOLYLINE
  5
15A2CACFA9728911
330
15A2CACFA9726FE2
100
AcDbEntity
  8
TEXT
100
AcDbPolyline
 90
        3
 70
     0
 43
0.0006660908203125
 10
2.361005030300207
 20
5.106666252969272
 10
2.474240469753333
 20
5.106666252969272
 10
2.474240469753333
 20
5.2199016924224
  0
LWPOLYLINE
  5
15A2CACFA9728912
330
15A2CACFA9726FE2
100
AcDbEntity
  8
TEXT
100
AcDbPolyline
 90
        2
 70
     0
 43
0.0001332181640625
 10
2.474240469753333
 20
5.2199016924224
 10
2.400970479518957
 20
5.229893054727085
  0
LWPOLYLINE
  5
15A2CACFA9728913
330
15A2CACFA9726FE2
100
AcDbEntity
  8
TEXT
100
AcDbPolyline
 90
        3
 70
     0
 43
0.0006660908203125
 10
2.207804141628333
 20
5.2199016924224
 10
2.207804141628333
 20
5.106666252969272
 10
2.321039581081455
 20
5.106666252969272
  0
LWPOLYLINE
  5
15A2CACFA9728914
330
15A2CACFA9726FE2
100
AcDbEntity
  8
TEXT
100
AcDbPolyline
 90
        3
 70
     0
 43
0.0006660908203125
 10
2.23444777444083
 20
5.2199016924224
 10
2.23444777444083
 20
5.133309885781773
 10
2.321039581081455
 20
5.133309885781773
  0
LWPOLYLINE
  5
15A2CACFA9728915
330
15A2CACFA9726FE2
100
AcDbEntity
  8
TEXT
100
AcDbPolyline
 90
        5
 70
     0
 43
0.0001332181640625
 10
2.331030943386146
 20
5.179936243203648
 10
2.331030943386146
 20
5.193258059609899
 10
2.294395948268958
 20
5.193258059609899
 10
2.294395948268958
 20
5.229893054727085
 10
2.281074131862707
 20
5.229893054727085
  0
LWPOLYLINE
  5
15A2CACFA9728916
330
15A2CACFA9726FE2
100
AcDbEntity
  8
TEXT
100
AcDbPolyline
 90
        5
 70
     0
 43
0.0001332181640625
 10
2.281074131862707
 20
5.249875779336459
 10
2.294395948268956
 20
5.249875779336459
 10
2.294395948268956
 20
5.286510774453649
 10
2.331030943386146
 20
5.286510774453649
 10
2.331030943386146
 20
5.299832590859896
  0
LWPOLYLINE
  5
15A2CACFA9728917
330
15A2CACFA9726FE2
100
AcDbEntity
  8
TEXT
100
AcDbPolyline
 90
        2
 70
     0
 43
0.0001332181640625
 10
2.23444777444083
 20
5.259867141641148
 10
2.294395948268956
 20
5.249875779336459
  0
LWPOLYLINE
  5
15A2CACFA9728918
330
15A2CACFA9726FE2
100
AcDbEntity
  8
TEXT
100
AcDbPolyline
 90
        2
 70
     0
 43
0.0001332181640625
 10
2.207804141628333
 20
5.259867141641148
 10
2.281074131862707
 20
5.249875779336459
  0
LWPOLYLINE
  5
15A2CACFA9728919
330
15A2CACFA9726FE2
100
AcDbEntity
  8
TEXT
100
AcDbPolyline
 90
        2
 70
     0
 43
0.0006660908203125
 10
2.23444777444083
 20
5.259867141641148
 10
2.207804141628333
 20
5.259867141641148
  0
LWPOLYLINE
  5
15A2CACFA972891A
330
15A2CACFA9726FE2
100
AcDbEntity
  8
TEXT
100
AcDbPolyline
 90
        2
 70
     0
 43
0.0001332181640625
 10
2.23444777444083
 20
5.133309885781773
 10
2.294395948268958
 20
5.193258059609899
  0
LWPOLYLINE
  5
15A2CACFA972891B
330
15A2CACFA9726FE2
100
AcDbEntity
  8
TEXT
100
AcDbPolyline
 90
        2
 70
     0
 43
0.0006660908203125
 10
2.23444777444083
 20
5.2199016924224
 10
2.207804141628333
 20
5.2199016924224
  0
LWPOLYLINE
  5
15A2CACFA972891C
330
15A2CACFA9726FE2
100
AcDbEntity
  8
TEXT
100
AcDbPolyline
 90
        2
 70
     0
 43
0.0001332181640625
 10
2.281074131862707
 20
5.229893054727085
 10
2.207804141628333
 20
5.2199016924224
  0
LWPOLYLINE
  5
15A2CACFA972891D
330
15A2CACFA9726FE2
100
AcDbEntity
  8
TEXT
100
AcDbPolyline
 90
        2
 70
     0
 43
0.0001332181640625
 10
2.23444777444083
 20
5.2199016924224
 10
2.294395948268958
 20
5.229893054727085
  0
LWPOLYLINE
  5
15A2CACFA972891E
330
15A2CACFA9726FE2
100
AcDbEntity
  8
TEXT
100
AcDbPolyline
 90
        5
 70
     0
 43
0.0001332181640625
 10
2.351013667995518
 20
5.299832590859896
 10
2.351013667995518
 20
5.286510774453649
 10
2.387648663112708
 20
5.286510774453649
 10
2.387648663112708
 20
5.249875779336459
 10
2.400970479518957
 20
5.249875779336459
  0
LWPOLYLINE
  5
15A2CACFA972891F
330
15A2CACFA9726FE2
100
AcDbEntity
  8
TEXT
100
AcDbPolyline
 90
        2
 70
     0
 43
0.0001332181640625
 10
2.447596836940832
 20
5.259867141641148
 10
2.387648663112708
 20
5.249875779336459
  0
LWPOLYLINE
  5
15A2CACFA9728920
330
15A2CACFA9726FE2
100
AcDbEntity
  8
TEXT
100
AcDbPolyline
 90
        2
 70
     0
 43
0.0006660908203125
 10
2.321039581081455
 20
5.133309885781773
 10
2.321039581081455
 20
5.106666252969272
  0
LWPOLYLINE
  5
15A2CACFA9728921
330
15A2CACFA9726FE2
100
AcDbEntity
  8
TEXT
100
AcDbPolyline
 90
        2
 70
     0
 43
0.0001332181640625
 10
2.321039581081455
 20
5.133309885781773
 10
2.331030943386146
 20
5.193258059609899
  0
LWPOLYLINE
  5
15A2CACFA9728922
330
15A2CACFA9726FE2
100
AcDbEntity
  8
TEXT
100
AcDbPolyline
 90
        2
 70
     0
 43
0.0001332181640625
 10
2.321039581081455
 20
5.106666252969272
 10
2.331030943386146
 20
5.179936243203648
  0
LWPOLYLINE
  5
15A2CACFA9728923
330
15A2CACFA9726FE2
100
AcDbEntity
  8
TEXT
100
AcDbPolyline
 90
        2
 70
     0
 43
0.0001332181640625
 10
2.361005030300207
 20
5.133309885781773
 10
2.351013667995518
 20
5.193258059609899
  0
LWPOLYLINE
  5
15A2CACFA9728924
330
15A2CACFA9726FE2
100
AcDbEntity
  8
TEXT
100
AcDbPolyline
 90
        2
 70
     0
 43
0.0001332181640625
 10
2.351013667995518
 20
5.179936243203648
 10
2.361005030300207
 20
5.106666252969272
  0
LWPOLYLINE
  5
15A2CACFA9728925
330
15A2CACFA9726FE2
100
AcDbEntity
  8
TEXT
100
AcDbPolyline
 90
        2
 70
     0
 43
0.0006660908203125
 10
2.361005030300207
 20
5.133309885781773
 10
2.361005030300207
 20
5.106666252969272
  0
LWPOLYLINE
  5
15A2CACFA9728926
330
15A2CACFA9726FE2
100
AcDbEntity
  8
TEXT
100
AcDbPolyline
 90
        2
 70
     0
 43
0.0001332181640625
 10
2.447596836940832
 20
5.133309885781773
 10
2.387648663112708
 20
5.193258059609899
  0
LWPOLYLINE
  5
15A2CACFA9728927
330
15A2CACFA9726FE2
100
AcDbEntity
  8
TEXT
100
AcDbPolyline
 90
        3
 70
     0
 43
0.0006660908203125
 10
2.361005030300207
 20
5.133309885781773
 10
2.447596836940832
 20
5.133309885781773
 10
2.447596836940832
 20
5.2199016924224
  0
LWPOLYLINE
  5
15A2CACFA9728928
330
15A2CACFA9726FE2
100
AcDbEntity
  8
TEXT
100
AcDbPolyline
 90
        2
 70
     0
 43
0.0001332181640625
 10
2.447596836940832
 20
5.2199016924224
 10
2.387648663112708
 20
5.229893054727085
  0
LWPOLYLINE
  5
15A2CACFA9728929
330
15A2CACFA9726FE2
100
AcDbEntity
  8
TEXT
100
AcDbPolyline
 90
        5
 70
     0
 43
0.0001332181640625
 10
2.400970479518957
 20
5.229893054727085
 10
2.387648663112708
 20
5.229893054727085
 10
2.387648663112708
 20
5.193258059609899
 10
2.351013667995518
 20
5.193258059609899
 10
2.351013667995518
 20
5.179936243203648
  0
ARC
  5
15A2CACFA972892A
330
15A2CACFA9726FE2
100
AcDbEntity
  8
TEXT
100
AcDbCircle
 10
2.744354606601358
 20
5.290923525632194
 30
0.0
 40
0.017902360805315
100
AcDbArc
 50
90.0
 51
270.0
  0
LINE
  5
15A2CACFA972892B
330
15A2CACFA9726FE2
100
AcDbEntity
  8
TEXT
100
AcDbLine
 10
2.657029817040605
 20
5.1749865544392
 30
0.0
 11
2.657029817040607
 21
5.106629548105761
 31
0.0
  0
TEXT
  5
15A2CACFA972892C
330
15A2CACFA9726FE2
100
AcDbEntity
  8
TEXT
100
AcDbText
 10
4.363757833695641
 20
5.106256929784965
 30
0.0
 40
0.0522247191011236
  1
Phone  1-800-328-2495
 41
1.272321428571429
 72
     5
 11
5.692690417965305
 21
5.106256929784965
 31
0.0
100
AcDbText
  0
TEXT
  5
15A2CACFA972892D
330
15A2CACFA9726FE2
100
AcDbEntity
  8
TEXT
100
AcDbText
 10
4.363757833695641
 20
5.199515356751257
 30
0.0
 40
0.0522247191011236
  1
Minneapolis, MN 55432-0008
 41
1.11444212721585
 72
     5
 11
5.692690417965305
 21
5.199515356751257
 31
0.0
100
AcDbText
  0
LINE
  5
15A2CACFA972892E
330
15A2CACFA9726FE2
100
AcDbEntity
  8
TEXT
100
AcDbLine
 10
3.918186174397384
 20
5.308825886437507
 30
0.0
 11
3.99483415568994
 21
5.308825886437507
 31
0.0
  0
LINE
  5
15A2CACFA972892F
330
15A2CACFA9726FE2
100
AcDbEntity
  8
TEXT
100
AcDbLine
 10
3.360143016766709
 20
5.308825886437507
 30
0.0
 11
3.409978296589859
 21
5.308825886437507
 31
0.0
  0
ARC
  5
15A2CACFA9728930
330
15A2CACFA9726FE2
100
AcDbEntity
  8
TEXT
100
AcDbCircle
 10
3.061677124496306
 20
5.146177270379457
 30
0.0
 40
0.0392772371940762
100
AcDbArc
 50
270.1604552698595
 51
330.0831797321295
  0
ARC
  5
15A2CACFA9728931
330
15A2CACFA9726FE2
100
AcDbEntity
  8
TEXT
100
AcDbCircle
 10
2.971376278604081
 20
5.166421939443811
 30
0.0
 40
0.0601160179737537
100
AcDbArc
 50
180.0000000000003
 51
264.0521544866073
  0
LINE
  5
15A2CACFA9728932
330
15A2CACFA9726FE2
100
AcDbEntity
  8
TEXT
100
AcDbLine
 10
2.911260260630328
 20
5.308825886437507
 30
0.0
 11
2.911260260630328
 21
5.166421939443811
 31
0.0
  0
ARC
  5
15A2CACFA9728933
330
15A2CACFA9726FE2
100
AcDbEntity
  8
TEXT
100
AcDbCircle
 10
2.814895116751939
 20
5.191957108320234
 30
0.0
 40
0.0169705538810321
100
AcDbArc
 50
270.0
 51
90.0
  0
ARC
  5
15A2CACFA9728934
330
15A2CACFA9726FE2
100
AcDbEntity
  8
TEXT
100
AcDbCircle
 10
2.809954742845659
 20
5.189825356466318
 30
0.0
 40
0.0831958083605586
100
AcDbArc
 50
270.0
 51
90.0
  0
LWPOLYLINE
  5
15A2CACFA9728935
330
15A2CACFA9726FE2
100
AcDbEntity
  8
TEXT
100
AcDbPolyline
 90
        6
 70
     1
 43
0.0
 10
3.007670671685584
 20
5.308825886437507
 10
2.977354077465376
 20
5.308825886437507
 10
2.977354077465376
 20
5.185714888382612
 42
0.407328721240804
 10
2.988897728626852
 20
5.173895973706226
 10
3.049519427671583
 20
5.173895973706226
 10
3.066984768078901
 20
5.206708202749705
  0
LINE
  5
15A2CACFA9728936
330
15A2CACFA9726FE2
100
AcDbEntity
  8
TEXT
100
AcDbLine
 10
2.965146868110434
 20
5.106629548105761
 30
0.0
 11
3.061787119185428
 21
5.106900187204043
 31
0.0
  0
LWPOLYLINE
  5
15A2CACFA9728937
330
15A2CACFA9726FE2
100
AcDbEntity
  8
TEXT
100
AcDbPolyline
 90
        2
 70
     0
 43
0.0
 10
3.193020390501963
 20
5.158180890320689
 42
0.3318488747599744
 10
3.262139683067276
 20
5.106629548105761
 42
-6.868794160588311
  0
LINE
  5
15A2CACFA9728938
330
15A2CACFA9726FE2
100
AcDbEntity
  8
TEXT
100
AcDbLine
 10
3.193020390501963
 20
5.290938265146042
 30
0.0
 11
3.193020390501963
 21
5.158180890320686
 31
0.0
  0
LINE
  5
15A2CACFA9728939
330
15A2CACFA9726FE2
100
AcDbEntity
  8
TEXT
100
AcDbLine
 10
3.095720684408519
 20
5.126588054210774
 30
0.0
 11
3.193020390501963
 21
5.290938265146042
 31
0.0
  0
ARC
  5
15A2CACFA972893A
330
15A2CACFA9726FE2
100
AcDbEntity
  8
TEXT
100
AcDbCircle
 10
3.276318326824139
 20
5.187620180605289
 30
0.0
 40
0.0153818062434269
100
AcDbArc
 50
174.7883570302258
 51
270.0
  0
LINE
  5
15A2CACFA972893B
330
15A2CACFA9726FE2
100
AcDbEntity
  8
TEXT
100
AcDbLine
 10
3.293311963708742
 20
5.172238374361864
 30
0.0
 11
3.276318326824139
 21
5.172238374361864
 31
0.0
  0
LINE
  5
15A2CACFA972893C
330
15A2CACFA9726FE2
100
AcDbEntity
  8
TEXT
100
AcDbLine
 10
3.262139683067275
 20
5.106629548105761
 30
0.0
 11
3.360143016766709
 21
5.106629548105761
 31
0.0
  0
LINE
  5
15A2CACFA972893D
330
15A2CACFA9726FE2
100
AcDbEntity
  8
TEXT
100
AcDbLine
 10
3.360143016766709
 20
5.106629548105761
 30
0.0
 11
3.360143016766709
 21
5.308825886437507
 31
0.0
  0
LINE
  5
15A2CACFA972893E
330
15A2CACFA9726FE2
100
AcDbEntity
  8
TEXT
100
AcDbLine
 10
3.722994570754831
 20
5.308825886437507
 30
0.0
 11
3.61578829736754
 21
5.308825886437507
 31
0.0
  0
LINE
  5
15A2CACFA972893F
330
15A2CACFA9726FE2
100
AcDbEntity
  8
TEXT
100
AcDbLine
 10
3.676507656275568
 20
5.271550912975374
 30
0.0
 11
3.758795646058953
 21
5.271550912975374
 31
0.0
  0
LWPOLYLINE
  5
15A2CACFA9728940
330
15A2CACFA9726FE2
100
AcDbEntity
  8
TEXT
100
AcDbPolyline
 90
        4
 70
     1
 43
0.0
 10
3.771726687341852
 20
5.209593526089786
 10
3.683066368681993
 20
5.209593526089786
 42
0.9999999999999998
 10
3.683066368681993
 20
5.167194985585926
 10
3.771726687341852
 20
5.167194985585926
 42
1.0
  0
LWPOLYLINE
  5
15A2CACFA9728941
330
15A2CACFA9726FE2
100
AcDbEntity
  8
TEXT
100
AcDbPolyline
 90
        2
 70
     0
 43
0.0
 10
3.657831734780367
 20
5.106629548105761
 10
3.791849152411744
 20
5.106629548105761
 42
0.9999999999999998
  0
LINE
  5
15A2CACFA9728942
330
15A2CACFA9726FE2
100
AcDbEntity
  8
TEXT
100
AcDbLine
 10
3.48459013253781
 20
5.308825886437507
 30
0.0
 11
3.538723729458762
 21
5.308825886437507
 31
0.0
  0
LINE
  5
15A2CACFA9728943
330
15A2CACFA9726FE2
100
AcDbEntity
  8
TEXT
100
AcDbLine
 10
3.417532085755972
 20
5.106629548105761
 30
0.0
 11
3.48459013253781
 21
5.106629548105761
 31
0.0
  0
LINE
  5
15A2CACFA9728944
330
15A2CACFA9726FE2
100
AcDbEntity
  8
TEXT
100
AcDbLine
 10
3.48459013253781
 20
5.106629548105761
 30
0.0
 11
3.48459013253781
 21
5.308825886437507
 31
0.0
  0
LINE
  5
15A2CACFA9728945
330
15A2CACFA9726FE2
100
AcDbEntity
  8
TEXT
100
AcDbLine
 10
3.417532085755972
 20
5.301272097271397
 30
0.0
 11
3.417532085755972
 21
5.106629548105761
 31
0.0
  0
LWPOLYLINE
  5
15A2CACFA9728946
330
15A2CACFA9726FE2
100
AcDbEntity
  8
TEXT
100
AcDbPolyline
 90
        2
 70
     0
 43
0.0
 10
3.409978296589857
 20
5.308825886437507
 42
-0.4142135623731017
 10
3.41753208575597
 20
5.301272097271397
 42
-0.9999999999999998
  0
LINE
  5
15A2CACFA9728947
330
15A2CACFA9726FE2
100
AcDbEntity
  8
TEXT
100
AcDbLine
 10
3.61578829736754
 20
5.308825886437507
 30
0.0
 11
3.61578829736754
 21
5.2337734803633
 31
0.0
  0
ARC
  5
15A2CACFA9728948
330
15A2CACFA9726FE2
100
AcDbEntity
  8
TEXT
100
AcDbCircle
 10
3.676507656275568
 20
5.203865331831256
 30
0.0
 40
0.0676855811441166
100
AcDbArc
 50
90.0
 51
153.7768192527749
  0
LWPOLYLINE
  5
15A2CACFA9728949
330
15A2CACFA9726FE2
100
AcDbEntity
  8
TEXT
100
AcDbPolyline
 90
        2
 70
     0
 43
0.0
 10
3.614755801912732
 20
5.150120493056199
 42
0.2901071551932823
 10
3.657831734780367
 20
5.106629548105761
 42
5.328517124445801
  0
LWPOLYLINE
  5
15A2CACFA972894A
330
15A2CACFA9726FE2
100
AcDbEntity
  8
TEXT
100
AcDbPolyline
 90
        2
 70
     0
 43
0.0
 10
3.538723729458761
 20
5.308825886437507
 42
-0.4142135623731017
 10
3.546277518624874
 20
5.301272097271397
 42
-0.9999999999999998
  0
LWPOLYLINE
  5
15A2CACFA972894B
330
15A2CACFA9726FE2
100
AcDbEntity
  8
TEXT
100
AcDbPolyline
 90
        4
 70
     0
 43
0.0
 10
3.546277518624874
 20
5.301272097271397
 10
3.546277518624874
 20
5.106629548105761
 10
3.614755801912732
 20
5.106629548105761
 10
3.614755801912732
 20
5.150120493056199
 42
-1.714843617202739
  0
LWPOLYLINE
  5
15A2CACFA972894C
330
15A2CACFA9726FE2
100
AcDbEntity
  8
TEXT
100
AcDbPolyline
 90
        2
 70
     0
 43
0.0
 10
3.834925085279389
 20
5.150120493056199
 42
-0.2901071551932486
 10
3.791849152411744
 20
5.106629548105761
 42
-5.328517124445184
  0
LWPOLYLINE
  5
15A2CACFA972894D
330
15A2CACFA9726FE2
100
AcDbEntity
  8
TEXT
100
AcDbPolyline
 90
        2
 70
     0
 43
0.0
 10
3.834925085279389
 20
5.106629548105761
 10
3.893280299114723
 20
5.106629548105761
  0
LWPOLYLINE
  5
15A2CACFA972894E
330
15A2CACFA9726FE2
100
AcDbEntity
  8
TEXT
100
AcDbPolyline
 90
        2
 70
     0
 43
0.0
 10
3.834925085279389
 20
5.150120493056199
 10
3.834925085279389
 20
5.106629548105761
  0
LINE
  5
15A2CACFA972894F
330
15A2CACFA9726FE2
100
AcDbEntity
  8
TEXT
100
AcDbLine
 10
3.758795646058953
 20
5.271550912975374
 30
0.0
 11
3.748530885645386
 21
5.292801452548069
 31
0.0
  0
LINE
  5
15A2CACFA9728950
330
15A2CACFA9726FE2
100
AcDbEntity
  8
TEXT
100
AcDbLine
 10
3.893280299114724
 20
5.106629548105761
 30
0.0
 11
3.893280299114717
 21
5.283920053537229
 31
0.0
  0
LINE
  5
15A2CACFA9728951
330
15A2CACFA9726FE2
100
AcDbEntity
  8
TEXT
100
AcDbLine
 10
4.211694245596238
 20
5.106629548105761
 30
0.0
 11
4.116202022232627
 21
5.263209338153298
 31
0.0
  0
LINE
  5
15A2CACFA9728952
330
15A2CACFA9726FE2
100
AcDbEntity
  8
TEXT
100
AcDbLine
 10
4.13511587322003
 20
5.106629548105761
 30
0.0
 11
4.211694245596238
 21
5.106629548105761
 31
0.0
  0
LINE
  5
15A2CACFA9728953
330
15A2CACFA9726FE2
100
AcDbEntity
  8
TEXT
100
AcDbLine
 10
3.994834155689947
 20
5.106629548105761
 30
0.0
 11
4.059212340008567
 21
5.106629548105761
 31
0.0
  0
LINE
  5
15A2CACFA9728954
330
15A2CACFA9726FE2
100
AcDbEntity
  8
TEXT
100
AcDbLine
 10
3.99483415568994
 20
5.308825886437507
 30
0.0
 11
3.994834155689947
 21
5.106629548105761
 31
0.0
  0
LINE
  5
15A2CACFA9728955
330
15A2CACFA9726FE2
100
AcDbEntity
  8
TEXT
100
AcDbLine
 10
4.059212340008567
 20
5.238209116581941
 30
0.0
 11
4.13511587322003
 21
5.106629548105761
 31
0.0
  0
LINE
  5
15A2CACFA9728956
330
15A2CACFA9726FE2
100
AcDbEntity
  8
TEXT
100
AcDbLine
 10
4.059212340008567
 20
5.106629548105761
 30
0.0
 11
4.059212340008567
 21
5.238209116581941
 31
0.0
  0
LINE
  5
15A2CACFA9728957
330
15A2CACFA9726FE2
100
AcDbEntity
  8
TEXT
100
AcDbLine
 10
2.914849029385621
 20
5.373102581094272
 30
0.0
 11
2.73911727648711
 21
5.373102581094272
 31
0.0
  0
LWPOLYLINE
  5
15A2CACFA9728958
330
15A2CACFA9726FE2
100
AcDbEntity
  8
TEXT
100
AcDbPolyline
 90
        2
 70
     0
 43
0.0006660908203125
 10
2.321039581081455
 20
5.346458948281775
 10
2.321039581081455
 20
5.373102581094276
  0
LWPOLYLINE
  5
15A2CACFA9728959
330
15A2CACFA9726FE2
100
AcDbEntity
  8
TEXT
100
AcDbPolyline
 90
        2
 70
     0
 43
0.0006660908203125
 10
2.361005030300207
 20
5.346458948281775
 10
2.361005030300207
 20
5.373102581094276
  0
TEXT
  5
15A2CACFA972895A
330
15A2CACFA9726FE2
100
AcDbEntity
  8
TEXT
100
AcDbText
 10
4.363757833695641
 20
5.386032210683842
 30
0.0
 40
0.0522247191011236
  1
Stylmark  Incorporated
 41
1.221428571428571
 72
     5
 11
5.692690417965305
 21
5.386032210683842
 31
0.0
100
AcDbText
  0
LINE
  5
15A2CACFA972895B
330
15A2CACFA9726FE2
100
AcDbEntity
  8
TEXT
100
AcDbLine
 10
3.990354268363439
 20
5.373102581094272
 30
0.0
 11
3.922854550713925
 21
5.373102581094272
 31
0.0
  0
TEXT
  5
15A2CACFA972895C
330
15A2CACFA9726FE2
100
AcDbEntity
  8
TEXT
100
AcDbText
 10
3.194500294492938
 20
5.553179572457341
 30
0.0
 40
0.125
  1
PART #110535
  7
ITALICC
 72
     1
 11
3.950452675445319
 21
5.553179572457341
 31
0.0
100
AcDbText
  0
LINE
  5
15A2CACFA972895D
330
15A2CACFA9726FE2
100
AcDbEntity
  8
TEXT
100
AcDbLine
 10
3.427330019639878
 20
5.373102581094272
 30
0.0
 11
3.293311963708742
 21
5.373102581094272
 31
0.0
  0
LINE
  5
15A2CACFA972895E
330
15A2CACFA9726FE2
100
AcDbEntity
  8
TEXT
100
AcDbLine
 10
2.974891634229628
 20
5.40749049868841
 30
0.0
 11
2.914849029385621
 21
5.40749049868841
 31
0.0
  0
LINE
  5
15A2CACFA972895F
330
15A2CACFA9726FE2
100
AcDbEntity
  8
TEXT
100
AcDbLine
 10
2.914849029385621
 20
5.40749049868841
 30
0.0
 11
2.914849029385621
 21
5.373102581094272
 31
0.0
  0
LINE
  5
15A2CACFA9728960
330
15A2CACFA9726FE2
100
AcDbEntity
  8
TEXT
100
AcDbLine
 10
3.046690600373537
 20
5.373102581094272
 30
0.0
 11
2.974891634229628
 21
5.373102581094272
 31
0.0
  0
LINE
  5
15A2CACFA9728961
330
15A2CACFA9726FE2
100
AcDbEntity
  8
TEXT
100
AcDbLine
 10
2.974891634229628
 20
5.373102581094272
 30
0.0
 11
2.974891634229628
 21
5.40749049868841
 31
0.0
  0
LINE
  5
15A2CACFA9728962
330
15A2CACFA9726FE2
100
AcDbEntity
  8
TEXT
100
AcDbLine
 10
3.261000109571082
 20
5.441114058833083
 30
0.0
 11
3.194191397004715
 21
5.441114058833083
 31
0.0
  0
LINE
  5
15A2CACFA9728963
330
15A2CACFA9726FE2
100
AcDbEntity
  8
TEXT
100
AcDbLine
 10
3.194191397004715
 20
5.373102581094272
 30
0.0
 11
3.164069484211339
 21
5.373102581094272
 31
0.0
  0
LINE
  5
15A2CACFA9728964
330
15A2CACFA9726FE2
100
AcDbEntity
  8
TEXT
100
AcDbLine
 10
3.194191397004715
 20
5.441114058833083
 30
0.0
 11
3.194191397004715
 21
5.373102581094272
 31
0.0
  0
LINE
  5
15A2CACFA9728965
330
15A2CACFA9726FE2
100
AcDbEntity
  8
TEXT
100
AcDbLine
 10
3.752025469099308
 20
5.373102581094272
 30
0.0
 11
3.617193559882249
 21
5.373102581094272
 31
0.0
  0
LWPOLYLINE
  5
15A2CACFA9728966
330
15A2CACFA9726FE2
100
AcDbEntity
  8
TEXT
100
AcDbPolyline
 90
        3
 70
     0
 43
0.0
 10
3.581411869169084
 20
5.373102581094276
 10
3.463111710353039
 20
5.373102581094276
 10
3.463111710353039
 20
5.34593508433338
 42
-1.960274751411753
  0
LWPOLYLINE
  5
15A2CACFA9728967
330
15A2CACFA9726FE2
100
AcDbEntity
  8
TEXT
100
AcDbPolyline
 90
        2
 70
     0
 43
0.0
 10
3.427330019639878
 20
5.373102581094276
 42
-0.3328679258950098
 10
3.463111710353039
 20
5.34593508433338
 42
6.772930709997214
  0
LINE
  5
15A2CACFA9728968
330
15A2CACFA9726FE2
100
AcDbEntity
  8
TEXT
100
AcDbLine
 10
3.617193559882249
 20
5.373102581094272
 30
0.0
 11
3.617193559882249
 21
5.344780035324628
 31
0.0
  0
LWPOLYLINE
  5
15A2CACFA9728969
330
15A2CACFA9726FE2
100
AcDbEntity
  8
TEXT
100
AcDbPolyline
 90
        2
 70
     0
 43
0.0
 10
3.581411869169084
 20
5.373102581094276
 42
-0.3277054968067132
 10
3.617193559882249
 20
5.344780035324632
 42
6.667889725900311
  0
LINE
  5
15A2CACFA972896A
330
15A2CACFA9726FE2
100
AcDbEntity
  8
TEXT
100
AcDbLine
 10
3.89488231427385
 20
5.373102581094272
 30
0.0
 11
3.830985407974349
 21
5.373102581094272
 31
0.0
  0
ARC
  5
15A2CACFA972896B
330
15A2CACFA9726FE2
100
AcDbEntity
  8
TEXT
100
AcDbCircle
 10
3.74999852932224
 20
5.33151901397337
 30
0.0
 40
0.0416329381542859
100
AcDbArc
 50
26.56974201007528
 51
87.20939649401342
  0
LINE
  5
15A2CACFA972896C
330
15A2CACFA9726FE2
100
AcDbEntity
  8
TEXT
100
AcDbLine
 10
3.89488231427385
 20
5.345554931233397
 30
0.0
 11
3.89488231427385
 21
5.373102581094272
 31
0.0
  0
ARC
  5
15A2CACFA972896D
330
15A2CACFA9726FE2
100
AcDbEntity
  8
TEXT
100
AcDbCircle
 10
3.926075131336959
 20
5.341856853812007
 30
0.0
 40
0.0314112657011332
100
AcDbArc
 50
95.88484768694724
 51
173.2388340632136
  0
LINE
  5
15A2CACFA972896E
330
15A2CACFA9726FE2
100
AcDbEntity
  8
TEXT
100
AcDbLine
 10
4.180759138198332
 20
5.373102581094272
 30
0.0
 11
4.105767305468706
 21
5.373102581094272
 31
0.0
  0
LINE
  5
15A2CACFA972896F
330
15A2CACFA9726FE2
100
AcDbEntity
  8
TEXT
100
AcDbLine
 10
3.990354268363446
 20
5.438566786861873
 30
0.0
 11
3.990354268363439
 21
5.373102581094272
 31
0.0
  0
LINE
  5
15A2CACFA9728970
330
15A2CACFA9726FE2
100
AcDbEntity
  8
TEXT
100
AcDbLine
 10
4.05866914691272
 20
5.438566786861873
 30
0.0
 11
3.990354268363446
 21
5.438566786861873
 31
0.0
  0
ENDSEC
  0
SECTION
  2
OBJECTS
  0
DICTIONARY
  5
15A2CACFA9726FD6
330
0
100
AcDbDictionary
  3
ACAD_GROUP
350
15A2CACFA9726FD7
  3
ACAD_LAYOUT
350
15A2CACFA9728975
  3
ACAD_MLINESTYLE
350
15A2CACFA9726FD8
  3
ACAD_PLOTSETTINGS
350
15A2CACFA9728976
  3
ACAD_PLOTSTYLENAME
350
15A2CACFA9728973
  3
ACDBHEADERROUNDTRIPXREC
350
15A2CACFA972897F
  3
ACDBVARIABLEDICTIONARY
350
15A2CACFA9727026
  0
DICTIONARY
  5
15A2CACFA97289A1
330
15A2CACFA9726FE2
100
AcDbDictionary
280
     1
  3
ACAD_LAYOUTSELFREF
360
15A2CACFA97289A2
  0
DICTIONARY
  5
15A2CACFA972899F
330
15A2CACFA9726FDF
100
AcDbDictionary
280
     1
  3
ACAD_LAYOUTSELFREF
360
15A2CACFA97289A0
  0
DICTIONARY
  5
15A2CACFA9726FD7
102
{ACAD_REACTORS
330
15A2CACFA9726FD6
102
}
330
15A2CACFA9726FD6
100
AcDbDictionary
  3
*A1
350
15A2CACFA972840F
  3
*A2
350
15A2CACFA97285C8
  3
*A3
350
15A2CACFA9728675
  3
*A4
350
15A2CACFA972882E
  0
DICTIONARY
  5
15A2CACFA9728975
102
{ACAD_REACTORS
330
15A2CACFA9726FD6
102
}
330
15A2CACFA9726FD6
100
AcDbDictionary
  0
DICTIONARY
  5
15A2CACFA9726FD8
102
{ACAD_REACTORS
330
15A2CACFA9726FD6
102
}
330
15A2CACFA9726FD6
100
AcDbDictionary
  3
STANDARD
350
15A2CACFA9726FE5
  0
DICTIONARY
  5
15A2CACFA9728976
102
{ACAD_REACTORS
330
15A2CACFA9726FD6
102
}
330
15A2CACFA9726FD6
100
AcDbDictionary
  0
ACDBDICTIONARYWDFLT
  5
15A2CACFA9728973
102
{ACAD_REACTORS
330
15A2CACFA9726FD6
102
}
330
15A2CACFA9726FD6
100
AcDbDictionary
281
     1
  3
Normal
350
15A2CACFA9728974
100
AcDbDictionaryWithDefault
340
15A2CACFA9728974
  0
DICTIONARY
  5
15A2CACFA972897F
102
{ACAD_REACTORS
330
15A2CACFA9726FD6
102
}
330
15A2CACFA9726FD6
100
AcDbDictionary
  3
CEPSNTYPE
350
15A2CACFA9728989
  3
FINGERPRINTGUID
350
15A2CACFA972898A
  3
HYPERLINKBASE
350
15A2CACFA9728982
  3
INSUNITS
350
15A2CACFA9728988
  3
LAYOUTDICT
350
15A2CACFA9728984
  3
LWETCUNION
350
15A2CACFA9728987
  3
PLOTSETDICT
350
15A2CACFA9728985
  3
PLOTSTYLNAMDICT
350
15A2CACFA9728986
  3
PSVPSCALE
350
15A2CACFA972898C
  3
PUCSBASE
350
15A2CACFA972898F
  3
PUCSORGBACK
350
15A2CACFA9728995
  3
PUCSORGBOTTOM
350
15A2CACFA9728991
  3
PUCSORGFRONT
350
15A2CACFA9728994
  3
PUCSORGLEFT
350
15A2CACFA9728992
  3
PUCSORGRIGHT
350
15A2CACFA9728993
  3
PUCSORGTOP
350
15A2CACFA9728990
  3
PUCSORTHOREF
350
15A2CACFA972898D
  3
PUCSORTHOVIEW
350
15A2CACFA972898E
  3
STYLESHEET
350
15A2CACFA9728983
  3
TSTACKALIGN
350
15A2CACFA9728980
  3
TSTACKSIZE
350
15A2CACFA9728981
  3
UCSBASE
350
15A2CACFA9728998
  3
UCSORGBACK
350
15A2CACFA972899E
  3
UCSORGBOTTOM
350
15A2CACFA972899A
  3
UCSORGFRONT
350
15A2CACFA972899D
  3
UCSORGLEFT
350
15A2CACFA972899B
  3
UCSORGRIGHT
350
15A2CACFA972899C
  3
UCSORGTOP
350
15A2CACFA9728999
  3
UCSORTHOREF
350
15A2CACFA9728996
  3
UCSORTHOVIEW
350
15A2CACFA9728997
  3
VERSIONGUID
350
15A2CACFA972898B
  0
DICTIONARY
  5
15A2CACFA9727026
102
{ACAD_REACTORS
330
15A2CACFA9726FD6
102
}
330
15A2CACFA9726FD6
100
AcDbDictionary
  3
DIMASSOC
350
15A2CACFA972897D
  3
SORTENTS
350
15A2CACFA9727027
  0
XRECORD
  5
15A2CACFA97289A2
102
{ACAD_REACTORS
330
15A2CACFA97289A1
102
}
330
15A2CACFA97289A1
100
AcDbXrecord
340
15A2CACFA9726FE2
  0
XRECORD
  5
15A2CACFA97289A0
102
{ACAD_REACTORS
330
15A2CACFA972899F
102
}
330
15A2CACFA972899F
100
AcDbXrecord
340
15A2CACFA9726FDF
  0
GROUP
  5
15A2CACFA972840F
102
{ACAD_REACTORS
330
15A2CACFA9726FD7
102
}
330
15A2CACFA9726FD7
100
AcDbGroup
300
BORDER FRAME 10-1-95
 70
     3
 71
     1
  0
GROUP
  5
15A2CACFA97285C8
102
{ACAD_REACTORS
330
15A2CACFA9726FD7
102
}
330
15A2CACFA9726FD7
100
AcDbGroup
300

 70
     1
 71
     1
  0
GROUP
  5
15A2CACFA9728675
102
{ACAD_REACTORS
330
15A2CACFA9726FD7
102
}
330
15A2CACFA9726FD7
100
AcDbGroup
300
BORDER FRAME 10-1-95
 70
     3
 71
     1
  0
GROUP
  5
15A2CACFA972882E
102
{ACAD_REACTORS
330
15A2CACFA9726FD7
102
}
330
15A2CACFA9726FD7
100
AcDbGroup
300

 70
     1
 71
     1
  0
MLINESTYLE
  5
15A2CACFA9726FE5
102
{ACAD_REACTORS
330
15A2CACFA9726FD8
102
}
330
15A2CACFA9726FD8
100
AcDbMlineStyle
  2
STANDARD
 70
     0
  3

 62
     0
 51
90.0
 52
90.0
 71
     2
 49
0.5
 62
   256
  6
BYLAYER
 49
-0.5
 62
   256
  6
BYLAYER
  0
ACDBPLACEHOLDER
  5
15A2CACFA9728974
102
{ACAD_REACTORS
330
15A2CACFA9728973
102
}
330
15A2CACFA9728973
100
AcDbPlaceHolder
280
     0
  0
XRECORD
  5
15A2CACFA9728989
102
{ACAD_REACTORS
330
15A2CACFA972897F
102
}
330
15A2CACFA972897F
100
AcDbXrecord
 90
        0
  0
XRECORD
  5
15A2CACFA972898A
102
{ACAD_REACTORS
330
15A2CACFA972897F
102
}
330
15A2CACFA972897F
100
AcDbXrecord
  1
{4D788DF0-8DB8-11D6-88E6-0090279574E7}
  0
XRECORD
  5
15A2CACFA9728982
102
{ACAD_REACTORS
330
15A2CACFA972897F
102
}
330
15A2CACFA972897F
100
AcDbXrecord
  1

  0
XRECORD
  5
15A2CACFA9728988
102
{ACAD_REACTORS
330
15A2CACFA972897F
102
}
330
15A2CACFA972897F
100
AcDbXrecord
 90
        0
  0
XRECORD
  5
15A2CACFA9728984
102
{ACAD_REACTORS
330
15A2CACFA972897F
102
}
330
15A2CACFA972897F
100
AcDbXrecord
340
15A2CACFA9728975
  0
XRECORD
  5
15A2CACFA9728987
102
{ACAD_REACTORS
330
15A2CACFA972897F
102
}
330
15A2CACFA972897F
100
AcDbXrecord
 90
    14877
  0
XRECORD
  5
15A2CACFA9728985
102
{ACAD_REACTORS
330
15A2CACFA972897F
102
}
330
15A2CACFA972897F
100
AcDbXrecord
340
15A2CACFA9728976
  0
XRECORD
  5
15A2CACFA9728986
102
{ACAD_REACTORS
330
15A2CACFA972897F
102
}
330
15A2CACFA972897F
100
AcDbXrecord
340
15A2CACFA9728973
  0
XRECORD
  5
15A2CACFA972898C
102
{ACAD_REACTORS
330
15A2CACFA972897F
102
}
330
15A2CACFA972897F
100
AcDbXrecord
 40
0.0
  0
XRECORD
  5
15A2CACFA972898F
102
{ACAD_REACTORS
330
15A2CACFA972897F
102
}
330
15A2CACFA972897F
100
AcDbXrecord
340
0
  0
XRECORD
  5
15A2CACFA9728995
102
{ACAD_REACTORS
330
15A2CACFA972897F
102
}
330
15A2CACFA972897F
100
AcDbXrecord
 10
0.0
 20
0.0
 30
0.0
  0
XRECORD
  5
15A2CACFA9728991
102
{ACAD_REACTORS
330
15A2CACFA972897F
102
}
330
15A2CACFA972897F
100
AcDbXrecord
 10
0.0
 20
0.0
 30
0.0
  0
XRECORD
  5
15A2CACFA9728994
102
{ACAD_REACTORS
330
15A2CACFA972897F
102
}
330
15A2CACFA972897F
100
AcDbXrecord
 10
0.0
 20
0.0
 30
0.0
  0
XRECORD
  5
15A2CACFA9728992
102
{ACAD_REACTORS
330
15A2CACFA972897F
102
}
330
15A2CACFA972897F
100
AcDbXrecord
 10
0.0
 20
0.0
 30
0.0
  0
XRECORD
  5
15A2CACFA9728993
102
{ACAD_REACTORS
330
15A2CACFA972897F
102
}
330
15A2CACFA972897F
100
AcDbXrecord
 10
0.0
 20
0.0
 30
0.0
  0
XRECORD
  5
15A2CACFA9728990
102
{ACAD_REACTORS
330
15A2CACFA972897F
102
}
330
15A2CACFA972897F
100
AcDbXrecord
 10
0.0
 20
0.0
 30
0.0
  0
XRECORD
  5
15A2CACFA972898D
102
{ACAD_REACTORS
330
15A2CACFA972897F
102
}
330
15A2CACFA972897F
100
AcDbXrecord
340
0
  0
XRECORD
  5
15A2CACFA972898E
102
{ACAD_REACTORS
330
15A2CACFA972897F
102
}
330
15A2CACFA972897F
100
AcDbXrecord
 70
     0
  0
XRECORD
  5
15A2CACFA9728983
102
{ACAD_REACTORS
330
15A2CACFA972897F
102
}
330
15A2CACFA972897F
100
AcDbXrecord
  1

  0
XRECORD
  5
15A2CACFA9728980
102
{ACAD_REACTORS
330
15A2CACFA972897F
102
}
330
15A2CACFA972897F
100
AcDbXrecord
 90
        1
  0
XRECORD
  5
15A2CACFA9728981
102
{ACAD_REACTORS
330
15A2CACFA972897F
102
}
330
15A2CACFA972897F
100
AcDbXrecord
 90
       70
  0
XRECORD
  5
15A2CACFA9728998
102
{ACAD_REACTORS
330
15A2CACFA972897F
102
}
330
15A2CACFA972897F
100
AcDbXrecord
340
0
  0
XRECORD
  5
15A2CACFA972899E
102
{ACAD_REACTORS
330
15A2CACFA972897F
102
}
330
15A2CACFA972897F
100
AcDbXrecord
 10
0.0
 20
0.0
 30
0.0
  0
XRECORD
  5
15A2CACFA972899A
102
{ACAD_REACTORS
330
15A2CACFA972897F
102
}
330
15A2CACFA972897F
100
AcDbXrecord
 10
0.0
 20
0.0
 30
0.0
  0
XRECORD
  5
15A2CACFA972899D
102
{ACAD_REACTORS
330
15A2CACFA972897F
102
}
330
15A2CACFA972897F
100
AcDbXrecord
 10
0.0
 20
0.0
 30
0.0
  0
XRECORD
  5
15A2CACFA972899B
102
{ACAD_REACTORS
330
15A2CACFA972897F
102
}
330
15A2CACFA972897F
100
AcDbXrecord
 10
0.0
 20
0.0
 30
0.0
  0
XRECORD
  5
15A2CACFA972899C
102
{ACAD_REACTORS
330
15A2CACFA972897F
102
}
330
15A2CACFA972897F
100
AcDbXrecord
 10
0.0
 20
0.0
 30
0.0
  0
XRECORD
  5
15A2CACFA9728999
102
{ACAD_REACTORS
330
15A2CACFA972897F
102
}
330
15A2CACFA972897F
100
AcDbXrecord
 10
0.0
 20
0.0
 30
0.0
  0
XRECORD
  5
15A2CACFA9728996
102
{ACAD_REACTORS
330
15A2CACFA972897F
102
}
330
15A2CACFA972897F
100
AcDbXrecord
340
0
  0
XRECORD
  5
15A2CACFA9728997
102
{ACAD_REACTORS
330
15A2CACFA972897F
102
}
330
15A2CACFA972897F
100
AcDbXrecord
 70
     0
  0
XRECORD
  5
15A2CACFA972898B
102
{ACAD_REACTORS
330
15A2CACFA972897F
102
}
330
15A2CACFA972897F
100
AcDbXrecord
  1
{4D788DF2-8DB8-11D6-88E6-0090279574E7}
  0
DICTIONARYVAR
  5
15A2CACFA972897D
102
{ACAD_REACTORS
330
15A2CACFA9727026
102
}
330
15A2CACFA9727026
100
DictionaryVariables
280
     0
  1
1
  0
DICTIONARYVAR
  5
15A2CACFA9727027
102
{ACAD_REACTORS
330
15A2CACFA9727026
102
}
330
15A2CACFA9727026
100
DictionaryVariables
280
     0
  1
97
  0
ENDSEC
  0
EOF
