  0
SECTION
  2
HEADER
  9
$ACADVER
  1
AC1014
  9
$ACADMAINTVER
 70
     9
  9
$DWGCODEPAGE
  3
ANSI_1252
  9
$INSBASE
 10
0.0
 20
0.0
 30
0.0
  9
$EXTMIN
 10
0.7714310778138144
 20
2.343161914306111
 30
0.0
  9
$EXTMAX
 10
4.256650399560943
 20
4.962528635484782
 30
0.0
  9
$LIMMIN
 10
0.0
 20
0.0
  9
$LIMMAX
 10
18.0
 20
12.0
  9
$ORTHOMODE
 70
     1
  9
$REGENMODE
 70
     1
  9
$FILLMODE
 70
     1
  9
$QTEXTMODE
 70
     0
  9
$MIRRTEXT
 70
     0
  9
$DRAGMODE
 70
     2
  9
$LTSCALE
 40
0.4
  9
$OSMODE
 70
    39
  9
$ATTMODE
 70
     1
  9
$TEXTSIZE
 40
0.125
  9
$TRACEWID
 40
0.05
  9
$TEXTSTYLE
  7
ROMANS
  9
$CLAYER
  8
TEXT
  9
$CELTYPE
  6
BYLAYER
  9
$CECOLOR
 62
   256
  9
$CELTSCALE
 40
1.0
  9
$DELOBJ
 70
     1
  9
$DISPSILH
 70
     1
  9
$DIMSCALE
 40
1.0
  9
$DIMASZ
 40
0.125
  9
$DIMEXO
 40
0.125
  9
$DIMDLI
 40
0.375
  9
$DIMRND
 40
0.0
  9
$DIMDLE
 40
0.0
  9
$DIMEXE
 40
0.125
  9
$DIMTP
 40
0.005
  9
$DIMTM
 40
0.015
  9
$DIMTXT
 40
0.125
  9
$DIMCEN
 40
-0.125
  9
$DIMTSZ
 40
0.0
  9
$DIMTOL
 70
     1
  9
$DIMLIM
 70
     0
  9
$DIMTIH
 70
     1
  9
$DIMTOH
 70
     1
  9
$DIMSE1
 70
     0
  9
$DIMSE2
 70
     0
  9
$DIMTAD
 70
     0
  9
$DIMZIN
 70
     4
  9
$DIMBLK
  1

  9
$DIMASO
 70
     1
  9
$DIMSHO
 70
     1
  9
$DIMPOST
  1

  9
$DIMAPOST
  1

  9
$DIMALT
 70
     0
  9
$DIMALTD
 70
     2
  9
$DIMALTF
 40
25.4
  9
$DIMLFAC
 40
1.0
  9
$DIMTOFL
 70
     0
  9
$DIMTVP
 40
0.0
  9
$DIMTIX
 70
     0
  9
$DIMSOXD
 70
     0
  9
$DIMSAH
 70
     0
  9
$DIMBLK1
  1

  9
$DIMBLK2
  1

  9
$DIMSTYLE
  2
STANDARD
  9
$DIMCLRD
 70
     0
  9
$DIMCLRE
 70
     0
  9
$DIMCLRT
 70
     0
  9
$DIMTFAC
 40
1.0
  9
$DIMGAP
 40
0.09375
  9
$DIMJUST
 70
     0
  9
$DIMSD1
 70
     0
  9
$DIMSD2
 70
     0
  9
$DIMTOLJ
 70
     1
  9
$DIMTZIN
 70
     4
  9
$DIMALTZ
 70
     0
  9
$DIMALTTZ
 70
     0
  9
$DIMFIT
 70
     3
  9
$DIMUPT
 70
     0
  9
$DIMUNIT
 70
     2
  9
$DIMDEC
 70
     3
  9
$DIMTDEC
 70
     3
  9
$DIMALTU
 70
     2
  9
$DIMALTTD
 70
     2
  9
$DIMTXSTY
  7
ROMANS
  9
$DIMAUNIT
 70
     0
  9
$LUNITS
 70
     2
  9
$LUPREC
 70
     3
  9
$SKETCHINC
 40
0.1
  9
$FILLETRAD
 40
0.0
  9
$AUNITS
 70
     0
  9
$AUPREC
 70
     0
  9
$MENU
  1
U:\ACAD
  9
$ELEVATION
 40
0.0
  9
$PELEVATION
 40
0.0
  9
$THICKNESS
 40
0.0
  9
$LIMCHECK
 70
     0
  9
$BLIPMODE
 70
     0
  9
$CHAMFERA
 40
0.0
  9
$CHAMFERB
 40
0.0
  9
$CHAMFERC
 40
0.0
  9
$CHAMFERD
 40
0.0
  9
$SKPOLY
 70
     0
  9
$TDCREATE
 40
2449344.364470023
  9
$TDUPDATE
 40
2452458.316705486
  9
$TDINDWG
 40
0.0153577315
  9
$TDUSRTIMER
 40
0.0153577315
  9
$USRTIMER
 70
     1
  9
$ANGBASE
 50
0.0
  9
$ANGDIR
 70
     0
  9
$PDMODE
 70
     0
  9
$PDSIZE
 40
0.0
  9
$PLINEWID
 40
0.0
  9
$COORDS
 70
     2
  9
$SPLFRAME
 70
     0
  9
$SPLINETYPE
 70
     6
  9
$SPLINESEGS
 70
     8
  9
$ATTDIA
 70
     0
  9
$ATTREQ
 70
     1
  9
$HANDLING
 70
 22529
  9
$HANDSEED
  5
7FD93A10E9487D3
  9
$SURFTAB1
 70
     6
  9
$SURFTAB2
 70
     6
  9
$SURFTYPE
 70
     6
  9
$SURFU
 70
     6
  9
$SURFV
 70
     6
  9
$UCSNAME
  2

  9
$UCSORG
 10
0.0
 20
0.0
 30
0.0
  9
$UCSXDIR
 10
1.0
 20
0.0
 30
0.0
  9
$UCSYDIR
 10
0.0
 20
1.0
 30
0.0
  9
$PUCSNAME
  2

  9
$PUCSORG
 10
0.0
 20
0.0
 30
0.0
  9
$PUCSXDIR
 10
1.0
 20
0.0
 30
0.0
  9
$PUCSYDIR
 10
0.0
 20
1.0
 30
0.0
  9
$USERI1
 70
     0
  9
$USERI2
 70
     0
  9
$USERI3
 70
     0
  9
$USERI4
 70
     0
  9
$USERI5
 70
     0
  9
$USERR1
 40
0.0
  9
$USERR2
 40
0.0
  9
$USERR3
 40
0.0
  9
$USERR4
 40
0.0
  9
$USERR5
 40
0.0
  9
$WORLDVIEW
 70
     1
  9
$SHADEDGE
 70
     3
  9
$SHADEDIF
 70
    70
  9
$TILEMODE
 70
     1
  9
$MAXACTVP
 70
    16
  9
$PINSBASE
 10
-0.0335989332838598
 20
5.479665690084631
 30
-2.825281702009425
  9
$PLIMCHECK
 70
     0
  9
$PEXTMIN
 10
1.000000000000000E+20
 20
1.000000000000000E+20
 30
1.000000000000000E+20
  9
$PEXTMAX
 10
-1.000000000000000E+20
 20
-1.000000000000000E+20
 30
-1.000000000000000E+20
  9
$PLIMMIN
 10
0.0
 20
0.0
  9
$PLIMMAX
 10
12.0
 20
9.0
  9
$UNITMODE
 70
     0
  9
$VISRETAIN
 70
     0
  9
$PLINEGEN
 70
     1
  9
$PSLTSCALE
 70
     0
  9
$TREEDEPTH
 70
  3020
  9
$PICKSTYLE
 70
     1
  9
$CMLSTYLE
  2
STANDARD
  9
$CMLJUST
 70
     0
  9
$CMLSCALE
 40
1.0
  9
$PROXYGRAPHICS
 70
     1
  9
$MEASUREMENT
 70
     0
  0
ENDSEC
  0
SECTION
  2
CLASSES
  0
CLASS
  1
LWPOLYLINE
  2
AcDbPolyline
  3
AutoCAD 2000
 90
        0
280
     0
281
     1
  0
CLASS
  1
ACDBDICTIONARYWDFLT
  2
AcDbDictionaryWithDefault
  3
AutoCAD 2000
 90
        0
280
     0
281
     0
  0
CLASS
  1
ACDBPLACEHOLDER
  2
AcDbPlaceHolder
  3
AutoCAD 2000
 90
        0
280
     0
281
     0
  0
CLASS
  1
LAYOUT
  2
AcDbLayout
  3
AutoCAD 2000
 90
        0
280
     0
281
     0
  0
CLASS
  1
DICTIONARYVAR
  2
AcDbDictionaryVar
  3
AutoCAD 2000
 90
        0
280
     0
281
     0
  0
CLASS
  1
LONG_TRANSACTION
  2
AcDbLongTransaction
  3
AutoCAD 2000
 90
        0
280
     0
281
     0
  0
CLASS
  1
LWPOLYLINE
  2
AcDbPolyline
  3
AutoCAD 2000
 90
        0
280
     0
281
     1
  0
CLASS
  1
HATCH
  2
AcDbHatch
  3
AutoCAD 2000
 90
        0
280
     0
281
     1
  0
CLASS
  1
XRECORD
  2
AcDbXrecord
  3
AutoCAD 2000
 90
        0
280
     0
281
     0
  0
ENDSEC
  0
SECTION
  2
TABLES
  0
TABLE
  2
VPORT
  5
7FD93A10E9484A1
330
0
100
AcDbSymbolTable
 70
     2
  0
VPORT
  5
7FD93A10E9487AE
330
7FD93A10E9484A1
100
AcDbSymbolTableRecord
100
AcDbViewportTableRecord
  2
*ACTIVE
 70
     0
 10
0.0
 20
0.0
 11
1.0
 21
1.0
 12
6.083028515637593
 22
3.653050610017157
 13
0.0
 23
0.0
 14
0.015625
 24
0.015625
 15
0.0
 25
0.0
 16
0.0
 26
0.0
 36
1.0
 17
0.0
 27
0.0
 37
0.0
 40
2.642736975940838
 41
4.320930232558139
 42
50.0
 43
0.0
 44
0.0
 50
0.0
 51
0.0
 71
     0
 72
  2000
 73
     1
 74
     1
 75
     0
 76
     0
 77
     0
 78
     0
  0
ENDTAB
  0
TABLE
  2
LTYPE
  5
7FD93A10E94849E
330
0
100
AcDbSymbolTable
 70
     1
  0
LTYPE
  5
7FD93A10E9484AB
330
7FD93A10E94849E
100
AcDbSymbolTableRecord
100
AcDbLinetypeTableRecord
  2
BYBLOCK
 70
     0
  3

 72
    65
 73
     0
 40
0.0
  0
LTYPE
  5
7FD93A10E9484AC
330
7FD93A10E94849E
100
AcDbSymbolTableRecord
100
AcDbLinetypeTableRecord
  2
BYLAYER
 70
     0
  3

 72
    65
 73
     0
 40
0.0
  0
LTYPE
  5
7FD93A10E9484AD
330
7FD93A10E94849E
100
AcDbSymbolTableRecord
100
AcDbLinetypeTableRecord
  2
CONTINUOUS
 70
     0
  3
Solid line
 72
    65
 73
     0
 40
0.0
  0
ENDTAB
  0
TABLE
  2
LAYER
  5
7FD93A10E94849B
330
0
100
AcDbSymbolTable
 70
     2
  0
LAYER
  5
7FD93A10E9484A8
330
7FD93A10E94849B
100
AcDbSymbolTableRecord
100
AcDbLayerTableRecord
  2
0
 70
     0
 62
     7
  6
CONTINUOUS
  0
LAYER
  5
7FD93A10E9484BB
330
7FD93A10E94849B
100
AcDbSymbolTableRecord
100
AcDbLayerTableRecord
  2
TEXT
 70
     0
 62
     3
  6
CONTINUOUS
  0
ENDTAB
  0
TABLE
  2
STYLE
  5
7FD93A10E94849C
330
0
100
AcDbSymbolTable
 70
     3
  0
STYLE
  5
7FD93A10E9484A9
330
7FD93A10E94849C
100
AcDbSymbolTableRecord
100
AcDbTextStyleTableRecord
  2
STANDARD
 70
     0
 40
0.0
 41
1.0
 50
0.0
 71
     0
 42
0.125
  3
txt
  4

  0
STYLE
  5
7FD93A10E9484CC
330
7FD93A10E94849C
100
AcDbSymbolTableRecord
100
AcDbTextStyleTableRecord
  2
ROMANS
 70
     0
 40
0.0
 41
1.0
 50
0.0
 71
     0
 42
0.125
  3
romans.shx
  4

  0
STYLE
  5
7FD93A10E94869C
330
7FD93A10E94849C
100
AcDbSymbolTableRecord
100
AcDbTextStyleTableRecord
  2
ITALICC
 70
     0
 40
0.0
 41
1.0
 50
0.0
 71
     0
 42
0.125
  3
italicc
  4

  0
ENDTAB
  0
TABLE
  2
VIEW
  5
7FD93A10E94849F
330
0
100
AcDbSymbolTable
 70
     0
  0
ENDTAB
  0
TABLE
  2
UCS
  5
7FD93A10E9484A0
330
0
100
AcDbSymbolTable
 70
     0
  0
ENDTAB
  0
TABLE
  2
APPID
  5
7FD93A10E9484A2
330
0
100
AcDbSymbolTable
 70
     1
  0
APPID
  5
7FD93A10E9484AA
330
7FD93A10E9484A2
100
AcDbSymbolTableRecord
100
AcDbRegAppTableRecord
  2
ACAD
 70
     0
  0
ENDTAB
  0
TABLE
  2
DIMSTYLE
  5
7FD93A10E9484A3
330
0
100
AcDbSymbolTable
 70
     1
  0
DIMSTYLE
105
7FD93A10E9484C4
330
7FD93A10E9484A3
100
AcDbSymbolTableRecord
100
AcDbDimStyleTableRecord
  2
STANDARD
 70
     0
  3

  4

  5

  6

  7

 40
1.0
 41
0.125
 42
0.125
 43
0.375
 44
0.125
 45
0.0
 46
0.0
 47
0.005
 48
0.015
140
0.125
141
-0.125
142
0.0
143
25.4
144
1.0
145
0.0
146
1.0
147
0.09375
 71
     1
 72
     0
 73
     1
 74
     1
 75
     0
 76
     0
 77
     0
 78
     4
170
     0
171
     2
172
     0
173
     0
174
     0
175
     0
176
     0
177
     0
178
     0
270
     2
271
     3
272
     3
273
     2
274
     2
340
7FD93A10E9484CC
275
     0
280
     0
281
     0
282
     0
283
     1
284
     4
285
     0
286
     0
287
     3
288
     0
  0
ENDTAB
  0
TABLE
  2
BLOCK_RECORD
  5
7FD93A10E94849A
330
0
100
AcDbSymbolTable
 70
     0
  0
BLOCK_RECORD
  5
7FD93A10E9484B1
102
{ACAD_XDICTIONARY
360
7FD93A10E9487D1
102
}
330
7FD93A10E94849A
100
AcDbSymbolTableRecord
100
AcDbBlockTableRecord
  2
*MODEL_SPACE
  0
BLOCK_RECORD
  5
7FD93A10E9484AE
102
{ACAD_XDICTIONARY
360
7FD93A10E9487CF
102
}
330
7FD93A10E94849A
100
AcDbSymbolTableRecord
100
AcDbBlockTableRecord
  2
*PAPER_SPACE
  0
ENDTAB
  0
ENDSEC
  0
SECTION
  2
BLOCKS
  0
BLOCK
  5
7FD93A10E9484C2
330
7FD93A10E9484B1
100
AcDbEntity
  8
0
100
AcDbBlockBegin
  2
*MODEL_SPACE
 70
     0
 10
0.0
 20
0.0
 30
0.0
  3
*MODEL_SPACE
  1

  0
ENDBLK
  5
7FD93A10E9484C3
330
7FD93A10E9484B1
100
AcDbEntity
  8
0
100
AcDbBlockEnd
  0
BLOCK
  5
7FD93A10E9484C0
330
7FD93A10E9484AE
100
AcDbEntity
 67
     1
  8
0
100
AcDbBlockBegin
  2
*PAPER_SPACE
 70
     0
 10
0.0
 20
0.0
 30
0.0
  3
*PAPER_SPACE
  1

  0
ENDBLK
  5
7FD93A10E9484C1
330
7FD93A10E9484AE
100
AcDbEntity
 67
     1
  8
0
100
AcDbBlockEnd
  0
ENDSEC
  0
SECTION
  2
ENTITIES
  0
LWPOLYLINE
  5
7FD93A10E9475C1
330
7FD93A10E9484B1
100
AcDbEntity
  8
0
 62
     7
100
AcDbPolyline
 90
       28
 70
     1
 43
0.0
 10
2.947987245176423
 20
4.382218738356307
 10
2.797859394391868
 20
4.382218738356311
 10
2.797859394391868
 20
4.445218738356309
 10
2.860859394391868
 20
4.445218738356309
 10
2.860859394391868
 20
4.523218738356308
 10
2.797859394391868
 20
4.523218738356309
 10
2.797859394391868
 20
4.817894129947312
 42
0.090590438612512
 10
2.461859394391869
 20
4.879274631612231
 42
0.090590438612512
 10
2.125859394391873
 20
4.817894129947312
 10
2.125859394391873
 20
4.523218738356309
 10
2.062859394391873
 20
4.523218738356308
 10
2.062859394391873
 20
4.445218738356309
 10
2.125859394391873
 20
4.445218738356309
 10
2.125859394391873
 20
4.382218738356311
 10
1.975731543607317
 20
4.382218738356307
 10
1.684182261128676
 20
3.935782346453907
 10
1.638855626241876
 20
3.422427016552433
 42
-1.0
 10
1.576099773062408
 20
3.427968035566732
 10
1.622813131155804
 20
3.957028960003991
 10
2.062859394391872
 20
4.630852144746819
 10
2.062859394391868
 20
4.860414880476138
 42
-0.1015238289350902
 10
2.461859394391869
 20
4.942274631612232
 42
-0.1015238289350903
 10
2.860859394391872
 20
4.860414880476138
 10
2.860859394391868
 20
4.630852144746819
 10
3.300905657627937
 20
3.957028960003991
 10
3.347619015721332
 20
3.427968035566732
 42
-1.0
 10
3.284863162541864
 20
3.422427016552433
 10
3.239536527655064
 20
3.935782346453907
  0
LINE
  5
7FD93A10E948721
330
7FD93A10E9484B1
100
AcDbEntity
  8
TEXT
100
AcDbLine
 10
2.622629128508357
 20
2.545238200614086
 30
0.0
 11
2.622629128508357
 21
2.686567732793225
 31
0.0
  0
LINE
  5
7FD93A10E948722
330
7FD93A10E9484B1
100
AcDbEntity
  8
TEXT
100
AcDbLine
 10
2.66972728706434
 20
2.621103527025624
 30
0.0
 11
2.622629128508357
 21
2.545238200614086
 31
0.0
  0
LINE
  5
7FD93A10E948723
330
7FD93A10E9484B1
100
AcDbEntity
  8
TEXT
100
AcDbLine
 10
2.680162003828264
 20
2.511210284084651
 30
0.0
 11
2.74471911979397
 21
2.621103527025624
 31
0.0
  0
TEXT
  5
7FD93A10E948724
330
7FD93A10E9484B1
100
AcDbEntity
  8
TEXT
100
AcDbText
 10
2.927717815291279
 20
2.540774729648902
 30
0.0
 40
0.0522247191011236
  1
6536 Main St. N.E. * P.O. Box 32008
 41
0.8388932496075355
 72
     5
 11
4.256650399560943
 21
2.540774729648902
 31
0.0
100
AcDbText
  0
ARC
  5
7FD93A10E948725
330
7FD93A10E9484B1
100
AcDbEntity
  8
TEXT
100
AcDbCircle
 10
2.482146155993019
 20
2.531920957086196
 30
0.0
 40
0.0249058752826653
100
AcDbArc
 50
89.99971217465335
 51
179.9999999999985
  0
LINE
  5
7FD93A10E948726
330
7FD93A10E9484B1
100
AcDbEntity
  8
TEXT
100
AcDbLine
 10
2.394945389569986
 20
2.515891548472197
 30
0.0
 11
2.351194618388085
 21
2.598141824468342
 31
0.0
  0
LINE
  5
7FD93A10E948727
330
7FD93A10E9484B1
100
AcDbEntity
  8
TEXT
100
AcDbLine
 10
2.394945389569986
 20
2.621103527025624
 30
0.0
 11
2.394945389569986
 21
2.515891548472197
 31
0.0
  0
ARC
  5
7FD93A10E948728
330
7FD93A10E9484B1
100
AcDbEntity
  8
TEXT
100
AcDbCircle
 10
2.286954552350467
 20
2.528467457368861
 30
0.0
 40
0.028359375
100
AcDbArc
 50
25.78218179591245
 51
90.0
  0
LINE
  5
7FD93A10E948729
330
7FD93A10E9484B1
100
AcDbEntity
  8
TEXT
100
AcDbLine
 10
1.824960091166719
 20
2.437018332140112
 30
0.0
 11
1.824960091166719
 21
2.689115004764435
 31
0.0
  0
LINE
  5
7FD93A10E94872A
330
7FD93A10E9484B1
100
AcDbEntity
  8
TEXT
100
AcDbLine
 10
1.857271945304379
 20
2.621103527025624
 30
0.0
 11
1.857271945304379
 21
2.420239320293216
 31
0.0
  0
LINE
  5
7FD93A10E94872B
330
7FD93A10E9484B1
100
AcDbEntity
  8
TEXT
100
AcDbLine
 10
1.728029465806976
 20
2.621103527025624
 30
0.0
 11
1.669280903001112
 21
2.520231530912504
 31
0.0
  0
LINE
  5
7FD93A10E94872C
330
7FD93A10E9484B1
100
AcDbEntity
  8
TEXT
100
AcDbLine
 10
1.669280903001112
 20
2.520231530912504
 30
0.0
 11
1.610650581969174
 21
2.621103527025624
 31
0.0
  0
ARC
  5
7FD93A10E94872D
330
7FD93A10E9484B1
100
AcDbEntity
  8
TEXT
100
AcDbCircle
 10
1.303077258082748
 20
2.539016067579122
 30
0.0
 40
0.0820874594465043
100
AcDbArc
 50
90.0
 51
270.0
  0
LWPOLYLINE
  5
7FD93A10E94872E
330
7FD93A10E9484B1
100
AcDbEntity
  8
TEXT
100
AcDbPolyline
 90
        2
 70
     0
 43
0.0001332181640625
 10
0.8949909249817835
 20
2.547833536791248
 10
0.884999562677093
 20
2.621103527025628
  0
LWPOLYLINE
  5
7FD93A10E94872F
330
7FD93A10E9484B1
100
AcDbEntity
  8
TEXT
100
AcDbPolyline
 90
        2
 70
     0
 43
0.0001332181640625
 10
0.884999562677093
 20
2.594459894213127
 10
0.8949909249817835
 20
2.534511720385001
  0
LWPOLYLINE
  5
7FD93A10E948730
330
7FD93A10E9484B1
100
AcDbEntity
  8
TEXT
100
AcDbPolyline
 90
        2
 70
     0
 43
0.0001332181640625
 10
0.9249650118958445
 20
2.594459894213127
 10
0.9149736495911557
 20
2.534511720385001
  0
LWPOLYLINE
  5
7FD93A10E948731
330
7FD93A10E9484B1
100
AcDbEntity
  8
TEXT
100
AcDbPolyline
 90
        2
 70
     0
 43
0.0001332181640625
 10
0.9249650118958445
 20
2.621103527025628
 10
0.9149736495911557
 20
2.547833536791248
  0
LWPOLYLINE
  5
7FD93A10E948732
330
7FD93A10E9484B1
100
AcDbEntity
  8
TEXT
100
AcDbPolyline
 90
        3
 70
     0
 43
0.0006660908203125
 10
1.03820045134897
 20
2.5078680875725
 10
1.03820045134897
 20
2.621103527025628
 10
0.9249650118958445
 20
2.621103527025628
  0
LWPOLYLINE
  5
7FD93A10E948733
330
7FD93A10E9484B1
100
AcDbEntity
  8
TEXT
100
AcDbPolyline
 90
        3
 70
     0
 43
0.0006660908203125
 10
1.011556818536469
 20
2.5078680875725
 10
1.011556818536469
 20
2.594459894213127
 10
0.9249650118958445
 20
2.594459894213127
  0
LWPOLYLINE
  5
7FD93A10E948734
330
7FD93A10E9484B1
100
AcDbEntity
  8
TEXT
100
AcDbPolyline
 90
        2
 70
     0
 43
0.0001332181640625
 10
1.011556818536469
 20
2.594459894213127
 10
0.9516086447083456
 20
2.534511720385001
  0
LWPOLYLINE
  5
7FD93A10E948735
330
7FD93A10E9484B1
100
AcDbEntity
  8
TEXT
100
AcDbPolyline
 90
        2
 70
     0
 43
0.0001332181640625
 10
0.7984077560364682
 20
2.594459894213127
 10
0.8583559298645937
 20
2.534511720385001
  0
LWPOLYLINE
  5
7FD93A10E948736
330
7FD93A10E9484B1
100
AcDbEntity
  8
TEXT
100
AcDbPolyline
 90
        3
 70
     0
 43
0.0006660908203125
 10
0.884999562677093
 20
2.621103527025628
 10
0.7717641232239707
 20
2.621103527025628
 10
0.7717641232239707
 20
2.5078680875725
  0
LWPOLYLINE
  5
7FD93A10E948737
330
7FD93A10E9484B1
100
AcDbEntity
  8
TEXT
100
AcDbPolyline
 90
        3
 70
     0
 43
0.0006660908203125
 10
0.884999562677093
 20
2.594459894213127
 10
0.7984077560364682
 20
2.594459894213127
 10
0.7984077560364682
 20
2.5078680875725
  0
LINE
  5
7FD93A10E948738
330
7FD93A10E9484B1
100
AcDbEntity
  8
TEXT
100
AcDbLine
 10
1.373914724441297
 20
2.521022110758231
 30
0.0
 11
1.308314588196996
 21
2.521022110758231
 31
0.0
  0
LINE
  5
7FD93A10E948739
330
7FD93A10E9484B1
100
AcDbEntity
  8
TEXT
100
AcDbLine
 10
1.303077258082748
 20
2.456928608132617
 30
0.0
 11
1.378855098347576
 21
2.456928608132617
 31
0.0
  0
LINE
  5
7FD93A10E94873A
330
7FD93A10E9484B1
100
AcDbEntity
  8
TEXT
100
AcDbLine
 10
1.220989798636244
 20
2.354630494037113
 30
0.0
 11
1.373914724441297
 21
2.354630494037113
 31
0.0
  0
LINE
  5
7FD93A10E94873B
330
7FD93A10E9484B1
100
AcDbEntity
  8
TEXT
100
AcDbLine
 10
1.378855098347576
 20
2.422987500370552
 30
0.0
 11
1.220989798636242
 21
2.422987500370552
 31
0.0
  0
LINE
  5
7FD93A10E94873C
330
7FD93A10E9484B1
100
AcDbEntity
  8
TEXT
100
AcDbLine
 10
1.308314588196996
 20
2.556826832368859
 30
0.0
 11
1.475220242225965
 21
2.556826832368859
 31
0.0
  0
LWPOLYLINE
  5
7FD93A10E94873D
330
7FD93A10E9484B1
100
AcDbEntity
  8
TEXT
100
AcDbPolyline
 90
        2
 70
     0
 43
0.0006660908203125
 10
1.011556818536469
 20
2.5078680875725
 10
1.03820045134897
 20
2.5078680875725
  0
LWPOLYLINE
  5
7FD93A10E94873E
330
7FD93A10E9484B1
100
AcDbEntity
  8
TEXT
100
AcDbPolyline
 90
        2
 70
     0
 43
0.0001332181640625
 10
0.9649304611145943
 20
2.497876725267811
 10
1.03820045134897
 20
2.5078680875725
  0
LWPOLYLINE
  5
7FD93A10E94873F
330
7FD93A10E9484B1
100
AcDbEntity
  8
TEXT
100
AcDbPolyline
 90
        2
 70
     0
 43
0.0006660908203125
 10
1.011556818536469
 20
2.467902638353752
 10
1.03820045134897
 20
2.467902638353752
  0
LWPOLYLINE
  5
7FD93A10E948740
330
7FD93A10E9484B1
100
AcDbEntity
  8
TEXT
100
AcDbPolyline
 90
        3
 70
     0
 43
0.0006660908203125
 10
0.9249650118958445
 20
2.354667198900624
 10
1.03820045134897
 20
2.354667198900624
 10
1.03820045134897
 20
2.467902638353752
  0
LWPOLYLINE
  5
7FD93A10E948741
330
7FD93A10E9484B1
100
AcDbEntity
  8
TEXT
100
AcDbPolyline
 90
        2
 70
     0
 43
0.0001332181640625
 10
1.03820045134897
 20
2.467902638353752
 10
0.9649304611145943
 20
2.477894000658437
  0
LWPOLYLINE
  5
7FD93A10E948742
330
7FD93A10E9484B1
100
AcDbEntity
  8
TEXT
100
AcDbPolyline
 90
        3
 70
     0
 43
0.0006660908203125
 10
0.7717641232239707
 20
2.467902638353752
 10
0.7717641232239707
 20
2.354667198900624
 10
0.884999562677093
 20
2.354667198900624
  0
LWPOLYLINE
  5
7FD93A10E948743
330
7FD93A10E9484B1
100
AcDbEntity
  8
TEXT
100
AcDbPolyline
 90
        3
 70
     0
 43
0.0006660908203125
 10
0.7984077560364682
 20
2.467902638353752
 10
0.7984077560364682
 20
2.381310831713125
 10
0.884999562677093
 20
2.381310831713125
  0
LWPOLYLINE
  5
7FD93A10E948744
330
7FD93A10E9484B1
100
AcDbEntity
  8
TEXT
100
AcDbPolyline
 90
        5
 70
     0
 43
0.0001332181640625
 10
0.8949909249817835
 20
2.427937189135001
 10
0.8949909249817835
 20
2.441259005541251
 10
0.8583559298645955
 20
2.441259005541251
 10
0.8583559298645955
 20
2.477894000658437
 10
0.845034113458345
 20
2.477894000658437
  0
LWPOLYLINE
  5
7FD93A10E948745
330
7FD93A10E9484B1
100
AcDbEntity
  8
TEXT
100
AcDbPolyline
 90
        5
 70
     0
 43
0.0001332181640625
 10
0.845034113458345
 20
2.497876725267811
 10
0.8583559298645937
 20
2.497876725267811
 10
0.8583559298645937
 20
2.534511720385001
 10
0.8949909249817835
 20
2.534511720385001
 10
0.8949909249817835
 20
2.547833536791248
  0
LWPOLYLINE
  5
7FD93A10E948746
330
7FD93A10E9484B1
100
AcDbEntity
  8
TEXT
100
AcDbPolyline
 90
        2
 70
     0
 43
0.0001332181640625
 10
0.7984077560364682
 20
2.5078680875725
 10
0.8583559298645937
 20
2.497876725267811
  0
LWPOLYLINE
  5
7FD93A10E948747
330
7FD93A10E9484B1
100
AcDbEntity
  8
TEXT
100
AcDbPolyline
 90
        2
 70
     0
 43
0.0001332181640625
 10
0.7717641232239707
 20
2.5078680875725
 10
0.845034113458345
 20
2.497876725267811
  0
LWPOLYLINE
  5
7FD93A10E948748
330
7FD93A10E9484B1
100
AcDbEntity
  8
TEXT
100
AcDbPolyline
 90
        2
 70
     0
 43
0.0006660908203125
 10
0.7984077560364682
 20
2.5078680875725
 10
0.7717641232239707
 20
2.5078680875725
  0
LWPOLYLINE
  5
7FD93A10E948749
330
7FD93A10E9484B1
100
AcDbEntity
  8
TEXT
100
AcDbPolyline
 90
        2
 70
     0
 43
0.0001332181640625
 10
0.7984077560364682
 20
2.381310831713125
 10
0.8583559298645955
 20
2.441259005541251
  0
LWPOLYLINE
  5
7FD93A10E94874A
330
7FD93A10E9484B1
100
AcDbEntity
  8
TEXT
100
AcDbPolyline
 90
        2
 70
     0
 43
0.0006660908203125
 10
0.7984077560364682
 20
2.467902638353752
 10
0.7717641232239707
 20
2.467902638353752
  0
LWPOLYLINE
  5
7FD93A10E94874B
330
7FD93A10E9484B1
100
AcDbEntity
  8
TEXT
100
AcDbPolyline
 90
        2
 70
     0
 43
0.0001332181640625
 10
0.845034113458345
 20
2.477894000658437
 10
0.7717641232239707
 20
2.467902638353752
  0
LWPOLYLINE
  5
7FD93A10E94874C
330
7FD93A10E9484B1
100
AcDbEntity
  8
TEXT
100
AcDbPolyline
 90
        2
 70
     0
 43
0.0001332181640625
 10
0.7984077560364682
 20
2.467902638353752
 10
0.8583559298645955
 20
2.477894000658437
  0
LWPOLYLINE
  5
7FD93A10E94874D
330
7FD93A10E9484B1
100
AcDbEntity
  8
TEXT
100
AcDbPolyline
 90
        5
 70
     0
 43
0.0001332181640625
 10
0.9149736495911557
 20
2.547833536791248
 10
0.9149736495911557
 20
2.534511720385001
 10
0.9516086447083456
 20
2.534511720385001
 10
0.9516086447083456
 20
2.497876725267811
 10
0.9649304611145943
 20
2.497876725267811
  0
LWPOLYLINE
  5
7FD93A10E94874E
330
7FD93A10E9484B1
100
AcDbEntity
  8
TEXT
100
AcDbPolyline
 90
        2
 70
     0
 43
0.0001332181640625
 10
1.011556818536469
 20
2.5078680875725
 10
0.9516086447083456
 20
2.497876725267811
  0
LWPOLYLINE
  5
7FD93A10E94874F
330
7FD93A10E9484B1
100
AcDbEntity
  8
TEXT
100
AcDbPolyline
 90
        2
 70
     0
 43
0.0006660908203125
 10
0.884999562677093
 20
2.381310831713125
 10
0.884999562677093
 20
2.354667198900624
  0
LWPOLYLINE
  5
7FD93A10E948750
330
7FD93A10E9484B1
100
AcDbEntity
  8
TEXT
100
AcDbPolyline
 90
        2
 70
     0
 43
0.0001332181640625
 10
0.884999562677093
 20
2.381310831713125
 10
0.8949909249817835
 20
2.441259005541251
  0
LWPOLYLINE
  5
7FD93A10E948751
330
7FD93A10E9484B1
100
AcDbEntity
  8
TEXT
100
AcDbPolyline
 90
        2
 70
     0
 43
0.0001332181640625
 10
0.884999562677093
 20
2.354667198900624
 10
0.8949909249817835
 20
2.427937189135001
  0
LWPOLYLINE
  5
7FD93A10E948752
330
7FD93A10E9484B1
100
AcDbEntity
  8
TEXT
100
AcDbPolyline
 90
        2
 70
     0
 43
0.0001332181640625
 10
0.9249650118958445
 20
2.381310831713125
 10
0.9149736495911557
 20
2.441259005541251
  0
LWPOLYLINE
  5
7FD93A10E948753
330
7FD93A10E9484B1
100
AcDbEntity
  8
TEXT
100
AcDbPolyline
 90
        2
 70
     0
 43
0.0001332181640625
 10
0.9149736495911557
 20
2.427937189135001
 10
0.9249650118958445
 20
2.354667198900624
  0
LWPOLYLINE
  5
7FD93A10E948754
330
7FD93A10E9484B1
100
AcDbEntity
  8
TEXT
100
AcDbPolyline
 90
        2
 70
     0
 43
0.0006660908203125
 10
0.9249650118958445
 20
2.381310831713125
 10
0.9249650118958445
 20
2.354667198900624
  0
LWPOLYLINE
  5
7FD93A10E948755
330
7FD93A10E9484B1
100
AcDbEntity
  8
TEXT
100
AcDbPolyline
 90
        2
 70
     0
 43
0.0001332181640625
 10
1.011556818536469
 20
2.381310831713125
 10
0.9516086447083456
 20
2.441259005541251
  0
LWPOLYLINE
  5
7FD93A10E948756
330
7FD93A10E9484B1
100
AcDbEntity
  8
TEXT
100
AcDbPolyline
 90
        3
 70
     0
 43
0.0006660908203125
 10
0.9249650118958445
 20
2.381310831713125
 10
1.011556818536469
 20
2.381310831713125
 10
1.011556818536469
 20
2.467902638353752
  0
LWPOLYLINE
  5
7FD93A10E948757
330
7FD93A10E9484B1
100
AcDbEntity
  8
TEXT
100
AcDbPolyline
 90
        2
 70
     0
 43
0.0001332181640625
 10
1.011556818536469
 20
2.467902638353752
 10
0.9516086447083456
 20
2.477894000658437
  0
LWPOLYLINE
  5
7FD93A10E948758
330
7FD93A10E9484B1
100
AcDbEntity
  8
TEXT
100
AcDbPolyline
 90
        5
 70
     0
 43
0.0001332181640625
 10
0.9649304611145943
 20
2.477894000658437
 10
0.9516086447083456
 20
2.477894000658437
 10
0.9516086447083456
 20
2.441259005541251
 10
0.9149736495911557
 20
2.441259005541251
 10
0.9149736495911557
 20
2.427937189135001
  0
ARC
  5
7FD93A10E948759
330
7FD93A10E9484B1
100
AcDbEntity
  8
TEXT
100
AcDbCircle
 10
1.308314588196996
 20
2.538924471563547
 30
0.0
 40
0.017902360805315
100
AcDbArc
 50
90.0
 51
270.0
  0
LINE
  5
7FD93A10E94875A
330
7FD93A10E9484B1
100
AcDbEntity
  8
TEXT
100
AcDbLine
 10
1.220989798636242
 20
2.422987500370552
 30
0.0
 11
1.220989798636244
 21
2.354630494037113
 31
0.0
  0
TEXT
  5
7FD93A10E94875B
330
7FD93A10E9484B1
100
AcDbEntity
  8
TEXT
100
AcDbText
 10
2.927717815291279
 20
2.354257875716317
 30
0.0
 40
0.0522247191011236
  1
Phone  1-800-328-2495
 41
1.272321428571429
 72
     5
 11
4.256650399560943
 21
2.354257875716317
 31
0.0
100
AcDbText
  0
TEXT
  5
7FD93A10E94875C
330
7FD93A10E9484B1
100
AcDbEntity
  8
TEXT
100
AcDbText
 10
2.927717815291279
 20
2.447516302682609
 30
0.0
 40
0.0522247191011236
  1
Minneapolis, MN 55432-0008
 41
1.11444212721585
 72
     5
 11
4.256650399560943
 21
2.447516302682609
 31
0.0
100
AcDbText
  0
LINE
  5
7FD93A10E94875D
330
7FD93A10E9484B1
100
AcDbEntity
  8
TEXT
100
AcDbLine
 10
2.482146155993021
 20
2.556826832368859
 30
0.0
 11
2.558794137285577
 21
2.556826832368859
 31
0.0
  0
LINE
  5
7FD93A10E94875E
330
7FD93A10E9484B1
100
AcDbEntity
  8
TEXT
100
AcDbLine
 10
1.924102998362346
 20
2.556826832368859
 30
0.0
 11
1.973938278185496
 21
2.556826832368859
 31
0.0
  0
ARC
  5
7FD93A10E94875F
330
7FD93A10E9484B1
100
AcDbEntity
  8
TEXT
100
AcDbCircle
 10
1.625637106091943
 20
2.394178216310809
 30
0.0
 40
0.0392772371940762
100
AcDbArc
 50
270.1604552698595
 51
330.0831797321295
  0
ARC
  5
7FD93A10E948760
330
7FD93A10E9484B1
100
AcDbEntity
  8
TEXT
100
AcDbCircle
 10
1.535336260199718
 20
2.414422885375163
 30
0.0
 40
0.0601160179737537
100
AcDbArc
 50
180.0000000000003
 51
264.0521544866073
  0
LINE
  5
7FD93A10E948761
330
7FD93A10E9484B1
100
AcDbEntity
  8
TEXT
100
AcDbLine
 10
1.475220242225965
 20
2.556826832368859
 30
0.0
 11
1.475220242225965
 21
2.414422885375163
 31
0.0
  0
ARC
  5
7FD93A10E948762
330
7FD93A10E9484B1
100
AcDbEntity
  8
TEXT
100
AcDbCircle
 10
1.378855098347576
 20
2.439958054251587
 30
0.0
 40
0.0169705538810321
100
AcDbArc
 50
270.0
 51
90.0
  0
ARC
  5
7FD93A10E948763
330
7FD93A10E9484B1
100
AcDbEntity
  8
TEXT
100
AcDbCircle
 10
1.373914724441297
 20
2.43782630239767
 30
0.0
 40
0.0831958083605586
100
AcDbArc
 50
270.0
 51
90.0
  0
LWPOLYLINE
  5
7FD93A10E948764
330
7FD93A10E9484B1
100
AcDbEntity
  8
TEXT
100
AcDbPolyline
 90
        6
 70
     1
 43
0.0
 10
1.571630653281221
 20
2.556826832368859
 10
1.541314059061013
 20
2.556826832368859
 10
1.541314059061013
 20
2.433715834313964
 42
0.407328721240804
 10
1.55285771022249
 20
2.421896919637578
 10
1.61347940926722
 20
2.421896919637578
 10
1.630944749674538
 20
2.454709148681057
  0
LINE
  5
7FD93A10E948765
330
7FD93A10E9484B1
100
AcDbEntity
  8
TEXT
100
AcDbLine
 10
1.529106849706071
 20
2.354630494037113
 30
0.0
 11
1.625747100781065
 21
2.354901133135395
 31
0.0
  0
LWPOLYLINE
  5
7FD93A10E948766
330
7FD93A10E9484B1
100
AcDbEntity
  8
TEXT
100
AcDbPolyline
 90
        2
 70
     0
 43
0.0
 10
1.756980372097601
 20
2.406181836252041
 42
0.3318488747599744
 10
1.826099664662914
 20
2.354630494037113
 42
-6.868794160588311
  0
LINE
  5
7FD93A10E948767
330
7FD93A10E9484B1
100
AcDbEntity
  8
TEXT
100
AcDbLine
 10
1.756980372097601
 20
2.538939211077394
 30
0.0
 11
1.756980372097601
 21
2.406181836252038
 31
0.0
  0
LINE
  5
7FD93A10E948768
330
7FD93A10E9484B1
100
AcDbEntity
  8
TEXT
100
AcDbLine
 10
1.659680666004156
 20
2.374589000142126
 30
0.0
 11
1.756980372097601
 21
2.538939211077394
 31
0.0
  0
ARC
  5
7FD93A10E948769
330
7FD93A10E9484B1
100
AcDbEntity
  8
TEXT
100
AcDbCircle
 10
1.840278308419776
 20
2.435621126536641
 30
0.0
 40
0.0153818062434269
100
AcDbArc
 50
174.7883570302258
 51
270.0
  0
LINE
  5
7FD93A10E94876A
330
7FD93A10E9484B1
100
AcDbEntity
  8
TEXT
100
AcDbLine
 10
1.857271945304379
 20
2.420239320293216
 30
0.0
 11
1.840278308419776
 21
2.420239320293216
 31
0.0
  0
LINE
  5
7FD93A10E94876B
330
7FD93A10E9484B1
100
AcDbEntity
  8
TEXT
100
AcDbLine
 10
1.826099664662912
 20
2.354630494037113
 30
0.0
 11
1.924102998362346
 21
2.354630494037113
 31
0.0
  0
LINE
  5
7FD93A10E94876C
330
7FD93A10E9484B1
100
AcDbEntity
  8
TEXT
100
AcDbLine
 10
1.924102998362346
 20
2.354630494037113
 30
0.0
 11
1.924102998362346
 21
2.556826832368859
 31
0.0
  0
LINE
  5
7FD93A10E94876D
330
7FD93A10E9484B1
100
AcDbEntity
  8
TEXT
100
AcDbLine
 10
2.286954552350469
 20
2.556826832368859
 30
0.0
 11
2.179748278963177
 21
2.556826832368859
 31
0.0
  0
LINE
  5
7FD93A10E94876E
330
7FD93A10E9484B1
100
AcDbEntity
  8
TEXT
100
AcDbLine
 10
2.240467637871205
 20
2.519551858906726
 30
0.0
 11
2.32275562765459
 21
2.519551858906726
 31
0.0
  0
LWPOLYLINE
  5
7FD93A10E94876F
330
7FD93A10E9484B1
100
AcDbEntity
  8
TEXT
100
AcDbPolyline
 90
        4
 70
     1
 43
0.0
 10
2.335686668937489
 20
2.457594472021138
 10
2.24702635027763
 20
2.457594472021138
 42
0.9999999999999998
 10
2.24702635027763
 20
2.415195931517278
 10
2.335686668937489
 20
2.415195931517278
 42
1.0
  0
LWPOLYLINE
  5
7FD93A10E948770
330
7FD93A10E9484B1
100
AcDbEntity
  8
TEXT
100
AcDbPolyline
 90
        2
 70
     0
 43
0.0
 10
2.221791716376005
 20
2.354630494037113
 10
2.355809134007381
 20
2.354630494037113
 42
0.9999999999999998
  0
LINE
  5
7FD93A10E948771
330
7FD93A10E9484B1
100
AcDbEntity
  8
TEXT
100
AcDbLine
 10
2.048550114133448
 20
2.556826832368859
 30
0.0
 11
2.1026837110544
 21
2.556826832368859
 31
0.0
  0
LINE
  5
7FD93A10E948772
330
7FD93A10E9484B1
100
AcDbEntity
  8
TEXT
100
AcDbLine
 10
1.981492067351609
 20
2.354630494037113
 30
0.0
 11
2.048550114133448
 21
2.354630494037113
 31
0.0
  0
LINE
  5
7FD93A10E948773
330
7FD93A10E9484B1
100
AcDbEntity
  8
TEXT
100
AcDbLine
 10
2.048550114133448
 20
2.354630494037113
 30
0.0
 11
2.048550114133448
 21
2.556826832368859
 31
0.0
  0
LINE
  5
7FD93A10E948774
330
7FD93A10E9484B1
100
AcDbEntity
  8
TEXT
100
AcDbLine
 10
1.981492067351609
 20
2.549273043202749
 30
0.0
 11
1.981492067351609
 21
2.354630494037113
 31
0.0
  0
LWPOLYLINE
  5
7FD93A10E948775
330
7FD93A10E9484B1
100
AcDbEntity
  8
TEXT
100
AcDbPolyline
 90
        2
 70
     0
 43
0.0
 10
1.973938278185494
 20
2.556826832368859
 42
-0.4142135623731017
 10
1.981492067351608
 20
2.549273043202749
 42
-0.9999999999999998
  0
LINE
  5
7FD93A10E948776
330
7FD93A10E9484B1
100
AcDbEntity
  8
TEXT
100
AcDbLine
 10
2.179748278963177
 20
2.556826832368859
 30
0.0
 11
2.179748278963177
 21
2.481774426294652
 31
0.0
  0
ARC
  5
7FD93A10E948777
330
7FD93A10E9484B1
100
AcDbEntity
  8
TEXT
100
AcDbCircle
 10
2.240467637871205
 20
2.451866277762608
 30
0.0
 40
0.0676855811441166
100
AcDbArc
 50
90.0
 51
153.7768192527749
  0
LWPOLYLINE
  5
7FD93A10E948778
330
7FD93A10E9484B1
100
AcDbEntity
  8
TEXT
100
AcDbPolyline
 90
        2
 70
     0
 43
0.0
 10
2.178715783508369
 20
2.398121438987551
 42
0.2901071551932823
 10
2.221791716376005
 20
2.354630494037113
 42
5.328517124445801
  0
LWPOLYLINE
  5
7FD93A10E948779
330
7FD93A10E9484B1
100
AcDbEntity
  8
TEXT
100
AcDbPolyline
 90
        2
 70
     0
 43
0.0
 10
2.102683711054398
 20
2.556826832368859
 42
-0.4142135623731017
 10
2.110237500220511
 20
2.549273043202749
 42
-0.9999999999999998
  0
LWPOLYLINE
  5
7FD93A10E94877A
330
7FD93A10E9484B1
100
AcDbEntity
  8
TEXT
100
AcDbPolyline
 90
        4
 70
     0
 43
0.0
 10
2.110237500220511
 20
2.549273043202749
 10
2.110237500220511
 20
2.354630494037113
 10
2.178715783508369
 20
2.354630494037113
 10
2.178715783508369
 20
2.398121438987551
 42
-1.714843617202739
  0
LWPOLYLINE
  5
7FD93A10E94877B
330
7FD93A10E9484B1
100
AcDbEntity
  8
TEXT
100
AcDbPolyline
 90
        2
 70
     0
 43
0.0
 10
2.398885066875026
 20
2.398121438987551
 42
-0.2901071551932486
 10
2.355809134007381
 20
2.354630494037113
 42
-5.328517124445184
  0
LWPOLYLINE
  5
7FD93A10E94877C
330
7FD93A10E9484B1
100
AcDbEntity
  8
TEXT
100
AcDbPolyline
 90
        2
 70
     0
 43
0.0
 10
2.398885066875026
 20
2.354630494037113
 10
2.45724028071036
 20
2.354630494037113
  0
LWPOLYLINE
  5
7FD93A10E94877D
330
7FD93A10E9484B1
100
AcDbEntity
  8
TEXT
100
AcDbPolyline
 90
        2
 70
     0
 43
0.0
 10
2.398885066875026
 20
2.398121438987551
 10
2.398885066875026
 20
2.354630494037113
  0
LINE
  5
7FD93A10E94877E
330
7FD93A10E9484B1
100
AcDbEntity
  8
TEXT
100
AcDbLine
 10
2.32275562765459
 20
2.519551858906726
 30
0.0
 11
2.312490867241024
 21
2.540802398479421
 31
0.0
  0
LINE
  5
7FD93A10E94877F
330
7FD93A10E9484B1
100
AcDbEntity
  8
TEXT
100
AcDbLine
 10
2.457240280710362
 20
2.354630494037113
 30
0.0
 11
2.457240280710355
 21
2.531920999468582
 31
0.0
  0
LINE
  5
7FD93A10E948780
330
7FD93A10E9484B1
100
AcDbEntity
  8
TEXT
100
AcDbLine
 10
2.775654227191875
 20
2.354630494037113
 30
0.0
 11
2.680162003828264
 21
2.511210284084651
 31
0.0
  0
LINE
  5
7FD93A10E948781
330
7FD93A10E9484B1
100
AcDbEntity
  8
TEXT
100
AcDbLine
 10
2.699075854815667
 20
2.354630494037113
 30
0.0
 11
2.775654227191875
 21
2.354630494037113
 31
0.0
  0
LINE
  5
7FD93A10E948782
330
7FD93A10E9484B1
100
AcDbEntity
  8
TEXT
100
AcDbLine
 10
2.558794137285584
 20
2.354630494037113
 30
0.0
 11
2.623172321604204
 21
2.354630494037113
 31
0.0
  0
LINE
  5
7FD93A10E948783
330
7FD93A10E9484B1
100
AcDbEntity
  8
TEXT
100
AcDbLine
 10
2.558794137285577
 20
2.556826832368859
 30
0.0
 11
2.558794137285584
 21
2.354630494037113
 31
0.0
  0
LINE
  5
7FD93A10E948784
330
7FD93A10E9484B1
100
AcDbEntity
  8
TEXT
100
AcDbLine
 10
2.623172321604204
 20
2.486210062513293
 30
0.0
 11
2.699075854815667
 21
2.354630494037113
 31
0.0
  0
LINE
  5
7FD93A10E948785
330
7FD93A10E9484B1
100
AcDbEntity
  8
TEXT
100
AcDbLine
 10
2.623172321604204
 20
2.354630494037113
 30
0.0
 11
2.623172321604204
 21
2.486210062513293
 31
0.0
  0
LINE
  5
7FD93A10E948786
330
7FD93A10E9484B1
100
AcDbEntity
  8
TEXT
100
AcDbLine
 10
1.478809010981258
 20
2.621103527025624
 30
0.0
 11
1.303077258082748
 21
2.621103527025624
 31
0.0
  0
LWPOLYLINE
  5
7FD93A10E948787
330
7FD93A10E9484B1
100
AcDbEntity
  8
TEXT
100
AcDbPolyline
 90
        2
 70
     0
 43
0.0006660908203125
 10
0.884999562677093
 20
2.594459894213127
 10
0.884999562677093
 20
2.621103527025628
  0
LWPOLYLINE
  5
7FD93A10E948788
330
7FD93A10E9484B1
100
AcDbEntity
  8
TEXT
100
AcDbPolyline
 90
        2
 70
     0
 43
0.0006660908203125
 10
0.9249650118958445
 20
2.594459894213127
 10
0.9249650118958445
 20
2.621103527025628
  0
TEXT
  5
7FD93A10E948789
330
7FD93A10E9484B1
100
AcDbEntity
  8
TEXT
100
AcDbText
 10
2.927717815291279
 20
2.634033156615194
 30
0.0
 40
0.0522247191011236
  1
Stylmark  Incorporated
 41
1.221428571428571
 72
     5
 11
4.256650399560943
 21
2.634033156615194
 31
0.0
100
AcDbText
  0
LINE
  5
7FD93A10E94878A
330
7FD93A10E9484B1
100
AcDbEntity
  8
TEXT
100
AcDbLine
 10
2.554314249959077
 20
2.621103527025624
 30
0.0
 11
2.486814532309562
 21
2.621103527025624
 31
0.0
  0
TEXT
  5
7FD93A10E94878B
330
7FD93A10E9484B1
100
AcDbEntity
  8
TEXT
100
AcDbText
 10
1.761436466564766
 20
2.801180518388693
 30
0.0
 40
0.125
  1
PART #110524
  7
ITALICC
 72
     1
 11
2.514412657040956
 21
2.801180518388693
 31
0.0
100
AcDbText
  0
LINE
  5
7FD93A10E94878C
330
7FD93A10E9484B1
100
AcDbEntity
  8
TEXT
100
AcDbLine
 10
1.991290001235515
 20
2.621103527025624
 30
0.0
 11
1.857271945304379
 21
2.621103527025624
 31
0.0
  0
LINE
  5
7FD93A10E94878D
330
7FD93A10E9484B1
100
AcDbEntity
  8
TEXT
100
AcDbLine
 10
1.538851615825265
 20
2.655491444619762
 30
0.0
 11
1.478809010981258
 21
2.655491444619762
 31
0.0
  0
LINE
  5
7FD93A10E94878E
330
7FD93A10E9484B1
100
AcDbEntity
  8
TEXT
100
AcDbLine
 10
1.478809010981258
 20
2.655491444619762
 30
0.0
 11
1.478809010981258
 21
2.621103527025624
 31
0.0
  0
LINE
  5
7FD93A10E94878F
330
7FD93A10E9484B1
100
AcDbEntity
  8
TEXT
100
AcDbLine
 10
1.610650581969174
 20
2.621103527025624
 30
0.0
 11
1.538851615825265
 21
2.621103527025624
 31
0.0
  0
LINE
  5
7FD93A10E948790
330
7FD93A10E9484B1
100
AcDbEntity
  8
TEXT
100
AcDbLine
 10
1.538851615825265
 20
2.621103527025624
 30
0.0
 11
1.538851615825265
 21
2.655491444619762
 31
0.0
  0
LINE
  5
7FD93A10E948791
330
7FD93A10E9484B1
100
AcDbEntity
  8
TEXT
100
AcDbLine
 10
1.824960091166719
 20
2.689115004764435
 30
0.0
 11
1.758151378600352
 21
2.689115004764435
 31
0.0
  0
LINE
  5
7FD93A10E948792
330
7FD93A10E9484B1
100
AcDbEntity
  8
TEXT
100
AcDbLine
 10
1.758151378600352
 20
2.621103527025624
 30
0.0
 11
1.728029465806976
 21
2.621103527025624
 31
0.0
  0
LINE
  5
7FD93A10E948793
330
7FD93A10E9484B1
100
AcDbEntity
  8
TEXT
100
AcDbLine
 10
1.758151378600352
 20
2.689115004764435
 30
0.0
 11
1.758151378600352
 21
2.621103527025624
 31
0.0
  0
LINE
  5
7FD93A10E948794
330
7FD93A10E9484B1
100
AcDbEntity
  8
TEXT
100
AcDbLine
 10
2.315985450694945
 20
2.621103527025624
 30
0.0
 11
2.181153541477886
 21
2.621103527025624
 31
0.0
  0
LWPOLYLINE
  5
7FD93A10E948795
330
7FD93A10E9484B1
100
AcDbEntity
  8
TEXT
100
AcDbPolyline
 90
        3
 70
     0
 43
0.0
 10
2.145371850764721
 20
2.621103527025628
 10
2.027071691948677
 20
2.621103527025628
 10
2.027071691948677
 20
2.593936030264732
 42
-1.960274751411753
  0
LWPOLYLINE
  5
7FD93A10E948796
330
7FD93A10E9484B1
100
AcDbEntity
  8
TEXT
100
AcDbPolyline
 90
        2
 70
     0
 43
0.0
 10
1.991290001235515
 20
2.621103527025628
 42
-0.3328679258950098
 10
2.027071691948677
 20
2.593936030264732
 42
6.772930709997214
  0
LINE
  5
7FD93A10E948797
330
7FD93A10E9484B1
100
AcDbEntity
  8
TEXT
100
AcDbLine
 10
2.181153541477886
 20
2.621103527025624
 30
0.0
 11
2.181153541477886
 21
2.59278098125598
 31
0.0
  0
LWPOLYLINE
  5
7FD93A10E948798
330
7FD93A10E9484B1
100
AcDbEntity
  8
TEXT
100
AcDbPolyline
 90
        2
 70
     0
 43
0.0
 10
2.145371850764721
 20
2.621103527025628
 42
-0.3277054968067132
 10
2.181153541477886
 20
2.592780981255984
 42
6.667889725900311
  0
LINE
  5
7FD93A10E948799
330
7FD93A10E9484B1
100
AcDbEntity
  8
TEXT
100
AcDbLine
 10
2.458842295869487
 20
2.621103527025624
 30
0.0
 11
2.394945389569986
 21
2.621103527025624
 31
0.0
  0
ARC
  5
7FD93A10E94879A
330
7FD93A10E9484B1
100
AcDbEntity
  8
TEXT
100
AcDbCircle
 10
2.313958510917878
 20
2.579519959904722
 30
0.0
 40
0.0416329381542859
100
AcDbArc
 50
26.56974201007528
 51
87.20939649401342
  0
LINE
  5
7FD93A10E94879B
330
7FD93A10E9484B1
100
AcDbEntity
  8
TEXT
100
AcDbLine
 10
2.458842295869487
 20
2.59355587716475
 30
0.0
 11
2.458842295869487
 21
2.621103527025624
 31
0.0
  0
ARC
  5
7FD93A10E94879C
330
7FD93A10E9484B1
100
AcDbEntity
  8
TEXT
100
AcDbCircle
 10
2.490035112932597
 20
2.589857799743359
 30
0.0
 40
0.0314112657011332
100
AcDbArc
 50
95.88484768694724
 51
173.2388340632136
  0
LINE
  5
7FD93A10E94879D
330
7FD93A10E9484B1
100
AcDbEntity
  8
TEXT
100
AcDbLine
 10
2.74471911979397
 20
2.621103527025624
 30
0.0
 11
2.669727287064343
 21
2.621103527025624
 31
0.0
  0
LINE
  5
7FD93A10E94879E
330
7FD93A10E9484B1
100
AcDbEntity
  8
TEXT
100
AcDbLine
 10
2.554314249959084
 20
2.686567732793225
 30
0.0
 11
2.554314249959077
 21
2.621103527025624
 31
0.0
  0
LINE
  5
7FD93A10E94879F
330
7FD93A10E9484B1
100
AcDbEntity
  8
TEXT
100
AcDbLine
 10
2.622629128508357
 20
2.686567732793225
 30
0.0
 11
2.554314249959084
 21
2.686567732793225
 31
0.0
  0
ENDSEC
  0
SECTION
  2
OBJECTS
  0
DICTIONARY
  5
7FD93A10E9484A5
330
0
100
AcDbDictionary
  3
ACAD_GROUP
350
7FD93A10E9484A6
  3
ACAD_LAYOUT
350
7FD93A10E9487A4
  3
ACAD_MLINESTYLE
350
7FD93A10E9484A7
  3
ACAD_PLOTSETTINGS
350
7FD93A10E9487A5
  3
ACAD_PLOTSTYLENAME
350
7FD93A10E9487A2
  3
ACDBHEADERROUNDTRIPXREC
350
7FD93A10E9487AF
  3
ACDBVARIABLEDICTIONARY
350
7FD93A10E9487AC
  0
DICTIONARY
  5
7FD93A10E9487D1
330
7FD93A10E9484B1
100
AcDbDictionary
280
     1
  3
ACAD_LAYOUTSELFREF
360
7FD93A10E9487D2
  0
DICTIONARY
  5
7FD93A10E9487CF
330
7FD93A10E9484AE
100
AcDbDictionary
280
     1
  3
ACAD_LAYOUTSELFREF
360
7FD93A10E9487D0
  0
DICTIONARY
  5
7FD93A10E9484A6
102
{ACAD_REACTORS
330
7FD93A10E9484A5
102
}
330
7FD93A10E9484A5
100
AcDbDictionary
  3
*A1
350
7FD93A10E9484CE
  3
*A2
350
7FD93A10E948687
  0
DICTIONARY
  5
7FD93A10E9487A4
102
{ACAD_REACTORS
330
7FD93A10E9484A5
102
}
330
7FD93A10E9484A5
100
AcDbDictionary
  0
DICTIONARY
  5
7FD93A10E9484A7
102
{ACAD_REACTORS
330
7FD93A10E9484A5
102
}
330
7FD93A10E9484A5
100
AcDbDictionary
  3
STANDARD
350
7FD93A10E9484B4
  0
DICTIONARY
  5
7FD93A10E9487A5
102
{ACAD_REACTORS
330
7FD93A10E9484A5
102
}
330
7FD93A10E9484A5
100
AcDbDictionary
  0
ACDBDICTIONARYWDFLT
  5
7FD93A10E9487A2
102
{ACAD_REACTORS
330
7FD93A10E9484A5
102
}
330
7FD93A10E9484A5
100
AcDbDictionary
281
     1
  3
Normal
350
7FD93A10E9487A3
100
AcDbDictionaryWithDefault
340
7FD93A10E9487A3
  0
DICTIONARY
  5
7FD93A10E9487AF
102
{ACAD_REACTORS
330
7FD93A10E9484A5
102
}
330
7FD93A10E9484A5
100
AcDbDictionary
  3
CEPSNTYPE
350
7FD93A10E9487B9
  3
FINGERPRINTGUID
350
7FD93A10E9487BA
  3
HYPERLINKBASE
350
7FD93A10E9487B2
  3
INSUNITS
350
7FD93A10E9487B8
  3
LAYOUTDICT
350
7FD93A10E9487B4
  3
LWETCUNION
350
7FD93A10E9487B7
  3
PLOTSETDICT
350
7FD93A10E9487B5
  3
PLOTSTYLNAMDICT
350
7FD93A10E9487B6
  3
PSVPSCALE
350
7FD93A10E9487BC
  3
PUCSBASE
350
7FD93A10E9487BF
  3
PUCSORGBACK
350
7FD93A10E9487C5
  3
PUCSORGBOTTOM
350
7FD93A10E9487C1
  3
PUCSORGFRONT
350
7FD93A10E9487C4
  3
PUCSORGLEFT
350
7FD93A10E9487C2
  3
PUCSORGRIGHT
350
7FD93A10E9487C3
  3
PUCSORGTOP
350
7FD93A10E9487C0
  3
PUCSORTHOREF
350
7FD93A10E9487BD
  3
PUCSORTHOVIEW
350
7FD93A10E9487BE
  3
STYLESHEET
350
7FD93A10E9487B3
  3
TSTACKALIGN
350
7FD93A10E9487B0
  3
TSTACKSIZE
350
7FD93A10E9487B1
  3
UCSBASE
350
7FD93A10E9487C8
  3
UCSORGBACK
350
7FD93A10E9487CE
  3
UCSORGBOTTOM
350
7FD93A10E9487CA
  3
UCSORGFRONT
350
7FD93A10E9487CD
  3
UCSORGLEFT
350
7FD93A10E9487CB
  3
UCSORGRIGHT
350
7FD93A10E9487CC
  3
UCSORGTOP
350
7FD93A10E9487C9
  3
UCSORTHOREF
350
7FD93A10E9487C6
  3
UCSORTHOVIEW
350
7FD93A10E9487C7
  3
VERSIONGUID
350
7FD93A10E9487BB
  0
DICTIONARY
  5
7FD93A10E9487AC
102
{ACAD_REACTORS
330
7FD93A10E9484A5
102
}
330
7FD93A10E9484A5
100
AcDbDictionary
  3
DIMASSOC
350
7FD93A10E9487AD
  0
XRECORD
  5
7FD93A10E9487D2
102
{ACAD_REACTORS
330
7FD93A10E9487D1
102
}
330
7FD93A10E9487D1
100
AcDbXrecord
340
7FD93A10E9484B1
  0
XRECORD
  5
7FD93A10E9487D0
102
{ACAD_REACTORS
330
7FD93A10E9487CF
102
}
330
7FD93A10E9487CF
100
AcDbXrecord
340
7FD93A10E9484AE
  0
GROUP
  5
7FD93A10E9484CE
102
{ACAD_REACTORS
330
7FD93A10E9484A6
102
}
330
7FD93A10E9484A6
100
AcDbGroup
300
BORDER FRAME 10-1-95
 70
     3
 71
     1
  0
GROUP
  5
7FD93A10E948687
102
{ACAD_REACTORS
330
7FD93A10E9484A6
102
}
330
7FD93A10E9484A6
100
AcDbGroup
300

 70
     1
 71
     1
  0
MLINESTYLE
  5
7FD93A10E9484B4
102
{ACAD_REACTORS
330
7FD93A10E9484A7
102
}
330
7FD93A10E9484A7
100
AcDbMlineStyle
  2
STANDARD
 70
     0
  3

 62
     0
 51
90.0
 52
90.0
 71
     2
 49
0.5
 62
   256
  6
BYLAYER
 49
-0.5
 62
   256
  6
BYLAYER
  0
ACDBPLACEHOLDER
  5
7FD93A10E9487A3
102
{ACAD_REACTORS
330
7FD93A10E9487A2
102
}
330
7FD93A10E9487A2
100
AcDbPlaceHolder
280
     0
  0
XRECORD
  5
7FD93A10E9487B9
102
{ACAD_REACTORS
330
7FD93A10E9487AF
102
}
330
7FD93A10E9487AF
100
AcDbXrecord
 90
        0
  0
XRECORD
  5
7FD93A10E9487BA
102
{ACAD_REACTORS
330
7FD93A10E9487AF
102
}
330
7FD93A10E9487AF
100
AcDbXrecord
  1
{43D4B620-8DB8-11D6-88E6-0090279574E7}
  0
XRECORD
  5
7FD93A10E9487B2
102
{ACAD_REACTORS
330
7FD93A10E9487AF
102
}
330
7FD93A10E9487AF
100
AcDbXrecord
  1

  0
XRECORD
  5
7FD93A10E9487B8
102
{ACAD_REACTORS
330
7FD93A10E9487AF
102
}
330
7FD93A10E9487AF
100
AcDbXrecord
 90
        0
  0
XRECORD
  5
7FD93A10E9487B4
102
{ACAD_REACTORS
330
7FD93A10E9487AF
102
}
330
7FD93A10E9487AF
100
AcDbXrecord
340
7FD93A10E9487A4
  0
XRECORD
  5
7FD93A10E9487B7
102
{ACAD_REACTORS
330
7FD93A10E9487AF
102
}
330
7FD93A10E9487AF
100
AcDbXrecord
 90
    14877
  0
XRECORD
  5
7FD93A10E9487B5
102
{ACAD_REACTORS
330
7FD93A10E9487AF
102
}
330
7FD93A10E9487AF
100
AcDbXrecord
340
7FD93A10E9487A5
  0
XRECORD
  5
7FD93A10E9487B6
102
{ACAD_REACTORS
330
7FD93A10E9487AF
102
}
330
7FD93A10E9487AF
100
AcDbXrecord
340
7FD93A10E9487A2
  0
XRECORD
  5
7FD93A10E9487BC
102
{ACAD_REACTORS
330
7FD93A10E9487AF
102
}
330
7FD93A10E9487AF
100
AcDbXrecord
 40
0.0
  0
XRECORD
  5
7FD93A10E9487BF
102
{ACAD_REACTORS
330
7FD93A10E9487AF
102
}
330
7FD93A10E9487AF
100
AcDbXrecord
340
0
  0
XRECORD
  5
7FD93A10E9487C5
102
{ACAD_REACTORS
330
7FD93A10E9487AF
102
}
330
7FD93A10E9487AF
100
AcDbXrecord
 10
0.0
 20
0.0
 30
0.0
  0
XRECORD
  5
7FD93A10E9487C1
102
{ACAD_REACTORS
330
7FD93A10E9487AF
102
}
330
7FD93A10E9487AF
100
AcDbXrecord
 10
0.0
 20
0.0
 30
0.0
  0
XRECORD
  5
7FD93A10E9487C4
102
{ACAD_REACTORS
330
7FD93A10E9487AF
102
}
330
7FD93A10E9487AF
100
AcDbXrecord
 10
0.0
 20
0.0
 30
0.0
  0
XRECORD
  5
7FD93A10E9487C2
102
{ACAD_REACTORS
330
7FD93A10E9487AF
102
}
330
7FD93A10E9487AF
100
AcDbXrecord
 10
0.0
 20
0.0
 30
0.0
  0
XRECORD
  5
7FD93A10E9487C3
102
{ACAD_REACTORS
330
7FD93A10E9487AF
102
}
330
7FD93A10E9487AF
100
AcDbXrecord
 10
0.0
 20
0.0
 30
0.0
  0
XRECORD
  5
7FD93A10E9487C0
102
{ACAD_REACTORS
330
7FD93A10E9487AF
102
}
330
7FD93A10E9487AF
100
AcDbXrecord
 10
0.0
 20
0.0
 30
0.0
  0
XRECORD
  5
7FD93A10E9487BD
102
{ACAD_REACTORS
330
7FD93A10E9487AF
102
}
330
7FD93A10E9487AF
100
AcDbXrecord
340
0
  0
XRECORD
  5
7FD93A10E9487BE
102
{ACAD_REACTORS
330
7FD93A10E9487AF
102
}
330
7FD93A10E9487AF
100
AcDbXrecord
 70
     0
  0
XRECORD
  5
7FD93A10E9487B3
102
{ACAD_REACTORS
330
7FD93A10E9487AF
102
}
330
7FD93A10E9487AF
100
AcDbXrecord
  1

  0
XRECORD
  5
7FD93A10E9487B0
102
{ACAD_REACTORS
330
7FD93A10E9487AF
102
}
330
7FD93A10E9487AF
100
AcDbXrecord
 90
        1
  0
XRECORD
  5
7FD93A10E9487B1
102
{ACAD_REACTORS
330
7FD93A10E9487AF
102
}
330
7FD93A10E9487AF
100
AcDbXrecord
 90
       70
  0
XRECORD
  5
7FD93A10E9487C8
102
{ACAD_REACTORS
330
7FD93A10E9487AF
102
}
330
7FD93A10E9487AF
100
AcDbXrecord
340
0
  0
XRECORD
  5
7FD93A10E9487CE
102
{ACAD_REACTORS
330
7FD93A10E9487AF
102
}
330
7FD93A10E9487AF
100
AcDbXrecord
 10
0.0
 20
0.0
 30
0.0
  0
XRECORD
  5
7FD93A10E9487CA
102
{ACAD_REACTORS
330
7FD93A10E9487AF
102
}
330
7FD93A10E9487AF
100
AcDbXrecord
 10
0.0
 20
0.0
 30
0.0
  0
XRECORD
  5
7FD93A10E9487CD
102
{ACAD_REACTORS
330
7FD93A10E9487AF
102
}
330
7FD93A10E9487AF
100
AcDbXrecord
 10
0.0
 20
0.0
 30
0.0
  0
XRECORD
  5
7FD93A10E9487CB
102
{ACAD_REACTORS
330
7FD93A10E9487AF
102
}
330
7FD93A10E9487AF
100
AcDbXrecord
 10
0.0
 20
0.0
 30
0.0
  0
XRECORD
  5
7FD93A10E9487CC
102
{ACAD_REACTORS
330
7FD93A10E9487AF
102
}
330
7FD93A10E9487AF
100
AcDbXrecord
 10
0.0
 20
0.0
 30
0.0
  0
XRECORD
  5
7FD93A10E9487C9
102
{ACAD_REACTORS
330
7FD93A10E9487AF
102
}
330
7FD93A10E9487AF
100
AcDbXrecord
 10
0.0
 20
0.0
 30
0.0
  0
XRECORD
  5
7FD93A10E9487C6
102
{ACAD_REACTORS
330
7FD93A10E9487AF
102
}
330
7FD93A10E9487AF
100
AcDbXrecord
340
0
  0
XRECORD
  5
7FD93A10E9487C7
102
{ACAD_REACTORS
330
7FD93A10E9487AF
102
}
330
7FD93A10E9487AF
100
AcDbXrecord
 70
     0
  0
XRECORD
  5
7FD93A10E9487BB
102
{ACAD_REACTORS
330
7FD93A10E9487AF
102
}
330
7FD93A10E9487AF
100
AcDbXrecord
  1
{43D4B622-8DB8-11D6-88E6-0090279574E7}
  0
DICTIONARYVAR
  5
7FD93A10E9487AD
102
{ACAD_REACTORS
330
7FD93A10E9487AC
102
}
330
7FD93A10E9487AC
100
DictionaryVariables
280
     0
  1
1
  0
ENDSEC
  0
EOF
