  0
SECTION
  2
HEADER
  9
$ACADVER
  1
AC1014
  9
$ACADMAINTVER
 70
     9
  9
$DWGCODEPAGE
  3
ANSI_1252
  9
$INSBASE
 10
0.0
 20
0.0
 30
0.0
  9
$EXTMIN
 10
2.391705811574843
 20
3.208674879446707
 30
0.0
  9
$EXTMAX
 10
5.876925133321979
 20
5.606541030666258
 30
0.0
  9
$LIMMIN
 10
0.0
 20
0.0
  9
$LIMMAX
 10
18.0
 20
12.0
  9
$ORTHOMODE
 70
     1
  9
$REGENMODE
 70
     1
  9
$FILLMODE
 70
     1
  9
$QTEXTMODE
 70
     0
  9
$MIRRTEXT
 70
     0
  9
$DRAGMODE
 70
     2
  9
$LTSCALE
 40
0.4
  9
$OSMODE
 70
    39
  9
$ATTMODE
 70
     1
  9
$TEXTSIZE
 40
0.125
  9
$TRACEWID
 40
0.05
  9
$TEXTSTYLE
  7
ROMANS
  9
$CLAYER
  8
TEXT
  9
$CELTYPE
  6
BYLAYER
  9
$CECOLOR
 62
   256
  9
$CELTSCALE
 40
1.0
  9
$DELOBJ
 70
     1
  9
$DISPSILH
 70
     1
  9
$DIMSCALE
 40
1.0
  9
$DIMASZ
 40
0.125
  9
$DIMEXO
 40
0.125
  9
$DIMDLI
 40
0.375
  9
$DIMRND
 40
0.0
  9
$DIMDLE
 40
0.0
  9
$DIMEXE
 40
0.125
  9
$DIMTP
 40
0.014
  9
$DIMTM
 40
0.01
  9
$DIMTXT
 40
0.125
  9
$DIMCEN
 40
-0.125
  9
$DIMTSZ
 40
0.0
  9
$DIMTOL
 70
     0
  9
$DIMLIM
 70
     0
  9
$DIMTIH
 70
     1
  9
$DIMTOH
 70
     1
  9
$DIMSE1
 70
     0
  9
$DIMSE2
 70
     0
  9
$DIMTAD
 70
     0
  9
$DIMZIN
 70
     4
  9
$DIMBLK
  1

  9
$DIMASO
 70
     1
  9
$DIMSHO
 70
     1
  9
$DIMPOST
  1

  9
$DIMAPOST
  1

  9
$DIMALT
 70
     0
  9
$DIMALTD
 70
     2
  9
$DIMALTF
 40
25.4
  9
$DIMLFAC
 40
1.0
  9
$DIMTOFL
 70
     0
  9
$DIMTVP
 40
0.0
  9
$DIMTIX
 70
     0
  9
$DIMSOXD
 70
     0
  9
$DIMSAH
 70
     0
  9
$DIMBLK1
  1

  9
$DIMBLK2
  1

  9
$DIMSTYLE
  2
STANDARD
  9
$DIMCLRD
 70
     0
  9
$DIMCLRE
 70
     0
  9
$DIMCLRT
 70
     0
  9
$DIMTFAC
 40
1.0
  9
$DIMGAP
 40
0.09
  9
$DIMJUST
 70
     0
  9
$DIMSD1
 70
     0
  9
$DIMSD2
 70
     0
  9
$DIMTOLJ
 70
     1
  9
$DIMTZIN
 70
     4
  9
$DIMALTZ
 70
     0
  9
$DIMALTTZ
 70
     0
  9
$DIMFIT
 70
     3
  9
$DIMUPT
 70
     0
  9
$DIMUNIT
 70
     2
  9
$DIMDEC
 70
     3
  9
$DIMTDEC
 70
     3
  9
$DIMALTU
 70
     2
  9
$DIMALTTD
 70
     2
  9
$DIMTXSTY
  7
ROMANS
  9
$DIMAUNIT
 70
     0
  9
$LUNITS
 70
     2
  9
$LUPREC
 70
     3
  9
$SKETCHINC
 40
0.1
  9
$FILLETRAD
 40
0.0
  9
$AUNITS
 70
     0
  9
$AUPREC
 70
     0
  9
$MENU
  1
acad
  9
$ELEVATION
 40
0.0
  9
$PELEVATION
 40
0.0
  9
$THICKNESS
 40
0.0
  9
$LIMCHECK
 70
     0
  9
$BLIPMODE
 70
     0
  9
$CHAMFERA
 40
0.0
  9
$CHAMFERB
 40
0.0
  9
$CHAMFERC
 40
0.0
  9
$CHAMFERD
 40
0.0
  9
$SKPOLY
 70
     0
  9
$TDCREATE
 40
2449259.715112731
  9
$TDUPDATE
 40
2452458.316616354
  9
$TDINDWG
 40
0.1931998148
  9
$TDUSRTIMER
 40
0.1931998148
  9
$USRTIMER
 70
     1
  9
$ANGBASE
 50
0.0
  9
$ANGDIR
 70
     0
  9
$PDMODE
 70
     0
  9
$PDSIZE
 40
0.0
  9
$PLINEWID
 40
0.0
  9
$COORDS
 70
     2
  9
$SPLFRAME
 70
     0
  9
$SPLINETYPE
 70
     6
  9
$SPLINESEGS
 70
     8
  9
$ATTDIA
 70
     0
  9
$ATTREQ
 70
     1
  9
$HANDLING
 70
 22529
  9
$HANDSEED
  5
81A
  9
$SURFTAB1
 70
     6
  9
$SURFTAB2
 70
     6
  9
$SURFTYPE
 70
     6
  9
$SURFU
 70
     6
  9
$SURFV
 70
     6
  9
$UCSNAME
  2

  9
$UCSORG
 10
0.0
 20
0.0
 30
0.0
  9
$UCSXDIR
 10
1.0
 20
0.0
 30
0.0
  9
$UCSYDIR
 10
0.0
 20
1.0
 30
0.0
  9
$PUCSNAME
  2

  9
$PUCSORG
 10
0.0
 20
0.0
 30
0.0
  9
$PUCSXDIR
 10
1.0
 20
0.0
 30
0.0
  9
$PUCSYDIR
 10
0.0
 20
1.0
 30
0.0
  9
$USERI1
 70
     0
  9
$USERI2
 70
     0
  9
$USERI3
 70
     0
  9
$USERI4
 70
     0
  9
$USERI5
 70
     0
  9
$USERR1
 40
0.0
  9
$USERR2
 40
0.0
  9
$USERR3
 40
0.0
  9
$USERR4
 40
0.0
  9
$USERR5
 40
0.0
  9
$WORLDVIEW
 70
     1
  9
$SHADEDGE
 70
     3
  9
$SHADEDIF
 70
    70
  9
$TILEMODE
 70
     1
  9
$MAXACTVP
 70
    16
  9
$PINSBASE
 10
-2.401439987995868
 20
50.00000000000001
 30
-0.027708029088642
  9
$PLIMCHECK
 70
     0
  9
$PEXTMIN
 10
1.000000000000000E+20
 20
1.000000000000000E+20
 30
1.000000000000000E+20
  9
$PEXTMAX
 10
-1.000000000000000E+20
 20
-1.000000000000000E+20
 30
-1.000000000000000E+20
  9
$PLIMMIN
 10
0.0
 20
0.0
  9
$PLIMMAX
 10
12.0
 20
9.0
  9
$UNITMODE
 70
     0
  9
$VISRETAIN
 70
     0
  9
$PLINEGEN
 70
     1
  9
$PSLTSCALE
 70
     0
  9
$TREEDEPTH
 70
  3020
  9
$PICKSTYLE
 70
     1
  9
$CMLSTYLE
  2
STANDARD
  9
$CMLJUST
 70
     0
  9
$CMLSCALE
 40
1.0
  9
$PROXYGRAPHICS
 70
     1
  9
$MEASUREMENT
 70
     0
  0
ENDSEC
  0
SECTION
  2
CLASSES
  0
CLASS
  1
LWPOLYLINE
  2
AcDbPolyline
  3
AutoCAD 2000
 90
        0
280
     0
281
     1
  0
CLASS
  1
ACDBDICTIONARYWDFLT
  2
AcDbDictionaryWithDefault
  3
AutoCAD 2000
 90
        0
280
     0
281
     0
  0
CLASS
  1
ACDBPLACEHOLDER
  2
AcDbPlaceHolder
  3
AutoCAD 2000
 90
        0
280
     0
281
     0
  0
CLASS
  1
LAYOUT
  2
AcDbLayout
  3
AutoCAD 2000
 90
        0
280
     0
281
     0
  0
CLASS
  1
DICTIONARYVAR
  2
AcDbDictionaryVar
  3
AutoCAD 2000
 90
        0
280
     0
281
     0
  0
CLASS
  1
LONG_TRANSACTION
  2
AcDbLongTransaction
  3
AutoCAD 2000
 90
        0
280
     0
281
     0
  0
CLASS
  1
LWPOLYLINE
  2
AcDbPolyline
  3
AutoCAD 2000
 90
        0
280
     0
281
     1
  0
CLASS
  1
HATCH
  2
AcDbHatch
  3
AutoCAD 2000
 90
        0
280
     0
281
     1
  0
CLASS
  1
XRECORD
  2
AcDbXrecord
  3
AutoCAD 2000
 90
        0
280
     0
281
     0
  0
ENDSEC
  0
SECTION
  2
TABLES
  0
TABLE
  2
VPORT
  5
8
330
0
100
AcDbSymbolTable
 70
     2
  0
VPORT
  5
7F5
330
8
100
AcDbSymbolTableRecord
100
AcDbViewportTableRecord
  2
*ACTIVE
 70
     0
 10
0.0
 20
0.0
 11
1.0
 21
1.0
 12
20.11960888036191
 22
5.654221946397826
 13
0.0
 23
0.0
 14
0.015625
 24
0.015625
 15
0.0
 25
0.0
 16
0.0
 26
0.0
 36
1.0
 17
0.0
 27
0.0
 37
0.0
 40
11.42191102276942
 41
4.320930232558139
 42
50.0
 43
0.0
 44
0.0
 50
0.0
 51
0.0
 71
     0
 72
  2000
 73
     1
 74
     1
 75
     0
 76
     0
 77
     0
 78
     0
  0
ENDTAB
  0
TABLE
  2
LTYPE
  5
5
330
0
100
AcDbSymbolTable
 70
     1
  0
LTYPE
  5
12
330
5
100
AcDbSymbolTableRecord
100
AcDbLinetypeTableRecord
  2
BYBLOCK
 70
     0
  3

 72
    65
 73
     0
 40
0.0
  0
LTYPE
  5
13
330
5
100
AcDbSymbolTableRecord
100
AcDbLinetypeTableRecord
  2
BYLAYER
 70
     0
  3

 72
    65
 73
     0
 40
0.0
  0
LTYPE
  5
14
330
5
100
AcDbSymbolTableRecord
100
AcDbLinetypeTableRecord
  2
CONTINUOUS
 70
     0
  3
Solid line
 72
    65
 73
     0
 40
0.0
  0
ENDTAB
  0
TABLE
  2
LAYER
  5
2
330
0
100
AcDbSymbolTable
 70
     3
  0
LAYER
  5
F
330
2
100
AcDbSymbolTableRecord
100
AcDbLayerTableRecord
  2
0
 70
     0
 62
     7
  6
CONTINUOUS
  0
LAYER
  5
23
330
2
100
AcDbSymbolTableRecord
100
AcDbLayerTableRecord
  2
TEXT
 70
     0
 62
     3
  6
CONTINUOUS
  0
LAYER
  5
24
330
2
100
AcDbSymbolTableRecord
100
AcDbLayerTableRecord
  2
SCALE
 70
     0
 62
     7
  6
CONTINUOUS
  0
ENDTAB
  0
TABLE
  2
STYLE
  5
3
330
0
100
AcDbSymbolTable
 70
     3
  0
STYLE
  5
10
330
3
100
AcDbSymbolTableRecord
100
AcDbTextStyleTableRecord
  2
STANDARD
 70
     0
 40
0.0
 41
1.0
 50
0.0
 71
     0
 42
0.125
  3
txt
  4

  0
STYLE
  5
2C2
330
3
100
AcDbSymbolTableRecord
100
AcDbTextStyleTableRecord
  2
ROMANS
 70
     0
 40
0.0
 41
1.0
 50
0.0
 71
     0
 42
0.125
  3
romans.shx
  4

  0
STYLE
  5
6E3
330
3
100
AcDbSymbolTableRecord
100
AcDbTextStyleTableRecord
  2
ITALICC
 70
     0
 40
0.0
 41
1.0
 50
0.0
 71
     0
 42
0.125
  3
italicc
  4

  0
ENDTAB
  0
TABLE
  2
VIEW
  5
6
330
0
100
AcDbSymbolTable
 70
     0
  0
ENDTAB
  0
TABLE
  2
UCS
  5
7
330
0
100
AcDbSymbolTable
 70
     0
  0
ENDTAB
  0
TABLE
  2
APPID
  5
9
330
0
100
AcDbSymbolTable
 70
     1
  0
APPID
  5
11
330
9
100
AcDbSymbolTableRecord
100
AcDbRegAppTableRecord
  2
ACAD
 70
     0
  0
ENDTAB
  0
TABLE
  2
DIMSTYLE
  5
A
330
0
100
AcDbSymbolTable
 70
     1
  0
DIMSTYLE
105
2BA
330
A
100
AcDbSymbolTableRecord
100
AcDbDimStyleTableRecord
  2
STANDARD
 70
     0
  3

  4

  5

  6

  7

 40
1.0
 41
0.125
 42
0.125
 43
0.375
 44
0.125
 45
0.0
 46
0.0
 47
0.014
 48
0.01
140
0.125
141
-0.125
142
0.0
143
25.4
144
1.0
145
0.0
146
1.0
147
0.09
 71
     0
 72
     0
 73
     1
 74
     1
 75
     0
 76
     0
 77
     0
 78
     4
170
     0
171
     2
172
     0
173
     0
174
     0
175
     0
176
     0
177
     0
178
     0
270
     2
271
     3
272
     3
273
     2
274
     2
340
2C2
275
     0
280
     0
281
     0
282
     0
283
     1
284
     4
285
     0
286
     0
287
     3
288
     0
  0
ENDTAB
  0
TABLE
  2
BLOCK_RECORD
  5
1
330
0
100
AcDbSymbolTable
 70
     0
  0
BLOCK_RECORD
  5
18
102
{ACAD_XDICTIONARY
360
818
102
}
330
1
100
AcDbSymbolTableRecord
100
AcDbBlockTableRecord
  2
*MODEL_SPACE
  0
BLOCK_RECORD
  5
15
102
{ACAD_XDICTIONARY
360
816
102
}
330
1
100
AcDbSymbolTableRecord
100
AcDbBlockTableRecord
  2
*PAPER_SPACE
  0
ENDTAB
  0
ENDSEC
  0
SECTION
  2
BLOCKS
  0
BLOCK
  5
2A
330
18
100
AcDbEntity
  8
0
100
AcDbBlockBegin
  2
*MODEL_SPACE
 70
     0
 10
0.0
 20
0.0
 30
0.0
  3
*MODEL_SPACE
  1

  0
ENDBLK
  5
2B
330
18
100
AcDbEntity
  8
0
100
AcDbBlockEnd
  0
BLOCK
  5
28
330
15
100
AcDbEntity
 67
     1
  8
0
100
AcDbBlockBegin
  2
*PAPER_SPACE
 70
     0
 10
0.0
 20
0.0
 30
0.0
  3
*PAPER_SPACE
  1

  0
ENDBLK
  5
29
330
15
100
AcDbEntity
 67
     1
  8
0
100
AcDbBlockEnd
  0
ENDSEC
  0
SECTION
  2
ENTITIES
  0
LWPOLYLINE
  5
F2
330
18
100
AcDbEntity
  8
SCALE
100
AcDbPolyline
 90
        8
 70
     1
 43
0.0
 10
3.561187383603366
 20
5.534041030666253
 42
0.4142135623730957
 10
3.530187383603366
 20
5.503041030666254
 10
3.530187383603367
 20
5.330666030666254
 42
0.4142135623730951
 10
3.561187383603367
 20
5.299666030666253
 10
4.712187383603366
 20
5.299666030666253
 42
0.4142135623730939
 10
4.743187383603366
 20
5.330666030666254
 10
4.743187383603366
 20
5.503041030666254
 42
0.4142135623730951
 10
4.712187383603366
 20
5.534041030666253
  0
LWPOLYLINE
  5
27C
330
18
100
AcDbEntity
  8
0
100
AcDbPolyline
 90
       46
 70
     1
 43
0.0
 10
4.293187383603366
 20
5.206166030666254
 10
4.293187383603366
 20
5.096541030666253
 42
0.1926480696031571
 10
4.327691978553691
 20
5.010311211781512
 42
1.000000000000005
 10
4.367509956775547
 20
5.048252332090798
 42
-2.33414965951907
 10
4.468864810431183
 20
5.048252332090799
 42
0.9999999999999998
 10
4.508682788653041
 20
5.010311211781513
 42
0.1926480696031525
 10
4.543187383603366
 20
5.096541030666253
 10
4.543187383603367
 20
5.206166030666254
 42
-0.4142135623730908
 10
4.574187383603366
 20
5.237166030666253
 10
4.640187383603366
 20
5.237166030666253
 42
-0.4142135623730951
 10
4.671187383603366
 20
5.206166030666254
 10
4.671187383603366
 20
4.251041030666254
 42
1.0
 10
4.730187383603365
 20
4.251041030666254
 10
4.730187383603364
 20
5.211541030666253
 42
-0.4142135623730951
 10
4.740187383603365
 20
5.221541030666253
 10
4.795687383603366
 20
5.221541030666253
 42
0.4142135623730951
 10
4.805687383603366
 20
5.231541030666253
 10
4.805687383603365
 20
5.565291030666253
 42
0.4142135623730951
 10
4.774437383603377
 20
5.596541030666255
 42
0.0156801254410035
 10
3.498937383603353
 20
5.596541030666255
 42
0.4142135623730951
 10
3.467687383603366
 20
5.565291030666253
 10
3.467687383603366
 20
5.231541030666253
 42
0.4142135623730951
 10
3.477687383603366
 20
5.221541030666253
 10
3.532687383603366
 20
5.221541030666253
 42
-0.4142135623730951
 10
3.542687383603366
 20
5.211541030666253
 10
3.542687383603365
 20
4.251041030666252
 42
1.0
 10
3.601687383603359
 20
4.251041030666252
 10
3.601687383603371
 20
5.206166030666254
 42
-0.4142135623730992
 10
3.632687383603367
 20
5.237166030666253
 10
3.699687383603366
 20
5.237166030666253
 42
-0.4142135623730992
 10
3.730687383603366
 20
5.206166030666254
 10
3.730687383603366
 20
5.096541030666253
 42
0.1926480696031623
 10
3.765191978553694
 20
5.010311211781511
 42
1.0
 10
3.805009956775546
 20
5.048252332090797
 42
-2.334149659519138
 10
3.906364810431182
 20
5.0482523320908
 42
0.9999999999999607
 10
3.946182788653041
 20
5.010311211781512
 42
0.1926480696031543
 10
3.980687383603366
 20
5.096541030666253
 10
3.980687383603366
 20
5.206166030666254
 42
-0.4142135623730951
 10
4.011687383603366
 20
5.237166030666253
 10
4.075687383603368
 20
5.237166030666253
 42
-0.4142135623730866
 10
4.106687383603367
 20
5.206166030666253
 10
4.10668738360336
 20
4.251291030666259
 42
1.0
 10
4.166187383603365
 20
4.251291030666259
 10
4.166187383603365
 20
5.206166030666254
 42
-0.4142135623730951
 10
4.197187383603365
 20
5.237166030666253
 10
4.262187383603366
 20
5.237166030666253
 42
-0.4142135623730909
  0
LINE
  5
768
330
18
100
AcDbEntity
  8
TEXT
100
AcDbLine
 10
4.242903862269386
 20
3.410751165754682
 30
0.0
 11
4.242903862269386
 21
3.552080697933821
 31
0.0
  0
LINE
  5
769
330
18
100
AcDbEntity
  8
TEXT
100
AcDbLine
 10
4.290002020825369
 20
3.48661649216622
 30
0.0
 11
4.242903862269386
 21
3.410751165754682
 31
0.0
  0
LINE
  5
76A
330
18
100
AcDbEntity
  8
TEXT
100
AcDbLine
 10
4.300436737589294
 20
3.376723249225246
 30
0.0
 11
4.364993853554999
 21
3.48661649216622
 31
0.0
  0
TEXT
  5
76B
330
18
100
AcDbEntity
  8
TEXT
100
AcDbText
 10
4.547992549052308
 20
3.406287694789497
 30
0.0
 40
0.0522247191011236
  1
6536 Main St. N.E. * P.O. Box 32008
 41
0.8388932496075355
 72
     5
 11
5.876925133321972
 21
3.406287694789497
 31
0.0
100
AcDbText
  0
ARC
  5
76C
330
18
100
AcDbEntity
  8
TEXT
100
AcDbCircle
 10
4.102420889754048
 20
3.397433922226792
 30
0.0
 40
0.0249058752826653
100
AcDbArc
 50
89.99971217465335
 51
179.9999999999985
  0
LINE
  5
76D
330
18
100
AcDbEntity
  8
TEXT
100
AcDbLine
 10
4.015220123331015
 20
3.381404513612793
 30
0.0
 11
3.971469352149114
 21
3.463654789608938
 31
0.0
  0
LINE
  5
76E
330
18
100
AcDbEntity
  8
TEXT
100
AcDbLine
 10
4.015220123331015
 20
3.48661649216622
 30
0.0
 11
4.015220123331015
 21
3.381404513612793
 31
0.0
  0
ARC
  5
76F
330
18
100
AcDbEntity
  8
TEXT
100
AcDbCircle
 10
3.907229286111496
 20
3.393980422509457
 30
0.0
 40
0.028359375
100
AcDbArc
 50
25.78218179591245
 51
90.0
  0
LINE
  5
770
330
18
100
AcDbEntity
  8
TEXT
100
AcDbLine
 10
3.445234824927748
 20
3.302531297280708
 30
0.0
 11
3.445234824927748
 21
3.55462796990503
 31
0.0
  0
LINE
  5
771
330
18
100
AcDbEntity
  8
TEXT
100
AcDbLine
 10
3.477546679065408
 20
3.48661649216622
 30
0.0
 11
3.477546679065408
 21
3.285752285433812
 31
0.0
  0
LINE
  5
772
330
18
100
AcDbEntity
  8
TEXT
100
AcDbLine
 10
3.348304199568005
 20
3.48661649216622
 30
0.0
 11
3.289555636762141
 21
3.385744496053099
 31
0.0
  0
LINE
  5
773
330
18
100
AcDbEntity
  8
TEXT
100
AcDbLine
 10
3.289555636762141
 20
3.385744496053099
 30
0.0
 11
3.230925315730203
 21
3.48661649216622
 31
0.0
  0
ARC
  5
774
330
18
100
AcDbEntity
  8
TEXT
100
AcDbCircle
 10
2.923351991843777
 20
3.404529032719718
 30
0.0
 40
0.0820874594465043
100
AcDbArc
 50
90.0
 51
270.0
  0
LWPOLYLINE
  5
775
330
18
100
AcDbEntity
  8
TEXT
100
AcDbPolyline
 90
        2
 70
     0
 43
0.0001332181640625
 10
2.515265658742812
 20
3.413346501931844
 10
2.505274296438122
 20
3.486616492166223
  0
LWPOLYLINE
  5
776
330
18
100
AcDbEntity
  8
TEXT
100
AcDbPolyline
 90
        2
 70
     0
 43
0.0001332181640625
 10
2.505274296438122
 20
3.459972859353722
 10
2.515265658742812
 20
3.400024685525597
  0
LWPOLYLINE
  5
777
330
18
100
AcDbEntity
  8
TEXT
100
AcDbPolyline
 90
        2
 70
     0
 43
0.0001332181640625
 10
2.545239745656873
 20
3.459972859353722
 10
2.535248383352184
 20
3.400024685525597
  0
LWPOLYLINE
  5
778
330
18
100
AcDbEntity
  8
TEXT
100
AcDbPolyline
 90
        2
 70
     0
 43
0.0001332181640625
 10
2.545239745656873
 20
3.486616492166223
 10
2.535248383352184
 20
3.413346501931844
  0
LWPOLYLINE
  5
779
330
18
100
AcDbEntity
  8
TEXT
100
AcDbPolyline
 90
        3
 70
     0
 43
0.0006660908203125
 10
2.658475185109999
 20
3.373381052713096
 10
2.658475185109999
 20
3.486616492166223
 10
2.545239745656873
 20
3.486616492166223
  0
LWPOLYLINE
  5
77A
330
18
100
AcDbEntity
  8
TEXT
100
AcDbPolyline
 90
        3
 70
     0
 43
0.0006660908203125
 10
2.631831552297498
 20
3.373381052713096
 10
2.631831552297498
 20
3.459972859353722
 10
2.545239745656873
 20
3.459972859353722
  0
LWPOLYLINE
  5
77B
330
18
100
AcDbEntity
  8
TEXT
100
AcDbPolyline
 90
        2
 70
     0
 43
0.0001332181640625
 10
2.631831552297498
 20
3.459972859353722
 10
2.571883378469374
 20
3.400024685525597
  0
LWPOLYLINE
  5
77C
330
18
100
AcDbEntity
  8
TEXT
100
AcDbPolyline
 90
        2
 70
     0
 43
0.0001332181640625
 10
2.418682489797497
 20
3.459972859353722
 10
2.478630663625622
 20
3.400024685525597
  0
LWPOLYLINE
  5
77D
330
18
100
AcDbEntity
  8
TEXT
100
AcDbPolyline
 90
        3
 70
     0
 43
0.0006660908203125
 10
2.505274296438122
 20
3.486616492166223
 10
2.392038856984999
 20
3.486616492166223
 10
2.392038856984999
 20
3.373381052713096
  0
LWPOLYLINE
  5
77E
330
18
100
AcDbEntity
  8
TEXT
100
AcDbPolyline
 90
        3
 70
     0
 43
0.0006660908203125
 10
2.505274296438122
 20
3.459972859353722
 10
2.418682489797497
 20
3.459972859353722
 10
2.418682489797497
 20
3.373381052713096
  0
LINE
  5
77F
330
18
100
AcDbEntity
  8
TEXT
100
AcDbLine
 10
2.994189458202326
 20
3.386535075898827
 30
0.0
 11
2.928589321958025
 21
3.386535075898827
 31
0.0
  0
LINE
  5
780
330
18
100
AcDbEntity
  8
TEXT
100
AcDbLine
 10
2.923351991843777
 20
3.322441573273213
 30
0.0
 11
2.999129832108605
 21
3.322441573273213
 31
0.0
  0
LINE
  5
781
330
18
100
AcDbEntity
  8
TEXT
100
AcDbLine
 10
2.841264532397273
 20
3.220143459177709
 30
0.0
 11
2.994189458202326
 21
3.220143459177709
 31
0.0
  0
LINE
  5
782
330
18
100
AcDbEntity
  8
TEXT
100
AcDbLine
 10
2.999129832108605
 20
3.288500465511148
 30
0.0
 11
2.841264532397271
 21
3.288500465511148
 31
0.0
  0
LINE
  5
783
330
18
100
AcDbEntity
  8
TEXT
100
AcDbLine
 10
2.928589321958025
 20
3.422339797509454
 30
0.0
 11
3.095494975986994
 21
3.422339797509454
 31
0.0
  0
LWPOLYLINE
  5
784
330
18
100
AcDbEntity
  8
TEXT
100
AcDbPolyline
 90
        2
 70
     0
 43
0.0006660908203125
 10
2.631831552297498
 20
3.373381052713096
 10
2.658475185109999
 20
3.373381052713096
  0
LWPOLYLINE
  5
785
330
18
100
AcDbEntity
  8
TEXT
100
AcDbPolyline
 90
        2
 70
     0
 43
0.0001332181640625
 10
2.585205194875623
 20
3.363389690408407
 10
2.658475185109999
 20
3.373381052713096
  0
LWPOLYLINE
  5
786
330
18
100
AcDbEntity
  8
TEXT
100
AcDbPolyline
 90
        2
 70
     0
 43
0.0006660908203125
 10
2.631831552297498
 20
3.333415603494348
 10
2.658475185109999
 20
3.333415603494348
  0
LWPOLYLINE
  5
787
330
18
100
AcDbEntity
  8
TEXT
100
AcDbPolyline
 90
        3
 70
     0
 43
0.0006660908203125
 10
2.545239745656873
 20
3.22018016404122
 10
2.658475185109999
 20
3.22018016404122
 10
2.658475185109999
 20
3.333415603494348
  0
LWPOLYLINE
  5
788
330
18
100
AcDbEntity
  8
TEXT
100
AcDbPolyline
 90
        2
 70
     0
 43
0.0001332181640625
 10
2.658475185109999
 20
3.333415603494348
 10
2.585205194875623
 20
3.343406965799033
  0
LWPOLYLINE
  5
789
330
18
100
AcDbEntity
  8
TEXT
100
AcDbPolyline
 90
        3
 70
     0
 43
0.0006660908203125
 10
2.392038856984999
 20
3.333415603494348
 10
2.392038856984999
 20
3.22018016404122
 10
2.505274296438122
 20
3.22018016404122
  0
LWPOLYLINE
  5
78A
330
18
100
AcDbEntity
  8
TEXT
100
AcDbPolyline
 90
        3
 70
     0
 43
0.0006660908203125
 10
2.418682489797497
 20
3.333415603494348
 10
2.418682489797497
 20
3.246823796853721
 10
2.505274296438122
 20
3.246823796853721
  0
LWPOLYLINE
  5
78B
330
18
100
AcDbEntity
  8
TEXT
100
AcDbPolyline
 90
        5
 70
     0
 43
0.0001332181640625
 10
2.515265658742812
 20
3.293450154275596
 10
2.515265658742812
 20
3.306771970681847
 10
2.478630663625624
 20
3.306771970681847
 10
2.478630663625624
 20
3.343406965799033
 10
2.465308847219374
 20
3.343406965799033
  0
LWPOLYLINE
  5
78C
330
18
100
AcDbEntity
  8
TEXT
100
AcDbPolyline
 90
        5
 70
     0
 43
0.0001332181640625
 10
2.465308847219374
 20
3.363389690408407
 10
2.478630663625622
 20
3.363389690408407
 10
2.478630663625622
 20
3.400024685525597
 10
2.515265658742812
 20
3.400024685525597
 10
2.515265658742812
 20
3.413346501931844
  0
LWPOLYLINE
  5
78D
330
18
100
AcDbEntity
  8
TEXT
100
AcDbPolyline
 90
        2
 70
     0
 43
0.0001332181640625
 10
2.418682489797497
 20
3.373381052713096
 10
2.478630663625622
 20
3.363389690408407
  0
LWPOLYLINE
  5
78E
330
18
100
AcDbEntity
  8
TEXT
100
AcDbPolyline
 90
        2
 70
     0
 43
0.0001332181640625
 10
2.392038856984999
 20
3.373381052713096
 10
2.465308847219374
 20
3.363389690408407
  0
LWPOLYLINE
  5
78F
330
18
100
AcDbEntity
  8
TEXT
100
AcDbPolyline
 90
        2
 70
     0
 43
0.0006660908203125
 10
2.418682489797497
 20
3.373381052713096
 10
2.392038856984999
 20
3.373381052713096
  0
LWPOLYLINE
  5
790
330
18
100
AcDbEntity
  8
TEXT
100
AcDbPolyline
 90
        2
 70
     0
 43
0.0001332181640625
 10
2.418682489797497
 20
3.246823796853721
 10
2.478630663625624
 20
3.306771970681847
  0
LWPOLYLINE
  5
791
330
18
100
AcDbEntity
  8
TEXT
100
AcDbPolyline
 90
        2
 70
     0
 43
0.0006660908203125
 10
2.418682489797497
 20
3.333415603494348
 10
2.392038856984999
 20
3.333415603494348
  0
LWPOLYLINE
  5
792
330
18
100
AcDbEntity
  8
TEXT
100
AcDbPolyline
 90
        2
 70
     0
 43
0.0001332181640625
 10
2.465308847219374
 20
3.343406965799033
 10
2.392038856984999
 20
3.333415603494348
  0
LWPOLYLINE
  5
793
330
18
100
AcDbEntity
  8
TEXT
100
AcDbPolyline
 90
        2
 70
     0
 43
0.0001332181640625
 10
2.418682489797497
 20
3.333415603494348
 10
2.478630663625624
 20
3.343406965799033
  0
LWPOLYLINE
  5
794
330
18
100
AcDbEntity
  8
TEXT
100
AcDbPolyline
 90
        5
 70
     0
 43
0.0001332181640625
 10
2.535248383352184
 20
3.413346501931844
 10
2.535248383352184
 20
3.400024685525597
 10
2.571883378469374
 20
3.400024685525597
 10
2.571883378469374
 20
3.363389690408407
 10
2.585205194875623
 20
3.363389690408407
  0
LWPOLYLINE
  5
795
330
18
100
AcDbEntity
  8
TEXT
100
AcDbPolyline
 90
        2
 70
     0
 43
0.0001332181640625
 10
2.631831552297498
 20
3.373381052713096
 10
2.571883378469374
 20
3.363389690408407
  0
LWPOLYLINE
  5
796
330
18
100
AcDbEntity
  8
TEXT
100
AcDbPolyline
 90
        2
 70
     0
 43
0.0006660908203125
 10
2.505274296438122
 20
3.246823796853721
 10
2.505274296438122
 20
3.22018016404122
  0
LWPOLYLINE
  5
797
330
18
100
AcDbEntity
  8
TEXT
100
AcDbPolyline
 90
        2
 70
     0
 43
0.0001332181640625
 10
2.505274296438122
 20
3.246823796853721
 10
2.515265658742812
 20
3.306771970681847
  0
LWPOLYLINE
  5
798
330
18
100
AcDbEntity
  8
TEXT
100
AcDbPolyline
 90
        2
 70
     0
 43
0.0001332181640625
 10
2.505274296438122
 20
3.22018016404122
 10
2.515265658742812
 20
3.293450154275596
  0
LWPOLYLINE
  5
799
330
18
100
AcDbEntity
  8
TEXT
100
AcDbPolyline
 90
        2
 70
     0
 43
0.0001332181640625
 10
2.545239745656873
 20
3.246823796853721
 10
2.535248383352184
 20
3.306771970681847
  0
LWPOLYLINE
  5
79A
330
18
100
AcDbEntity
  8
TEXT
100
AcDbPolyline
 90
        2
 70
     0
 43
0.0001332181640625
 10
2.535248383352184
 20
3.293450154275596
 10
2.545239745656873
 20
3.22018016404122
  0
LWPOLYLINE
  5
79B
330
18
100
AcDbEntity
  8
TEXT
100
AcDbPolyline
 90
        2
 70
     0
 43
0.0006660908203125
 10
2.545239745656873
 20
3.246823796853721
 10
2.545239745656873
 20
3.22018016404122
  0
LWPOLYLINE
  5
79C
330
18
100
AcDbEntity
  8
TEXT
100
AcDbPolyline
 90
        2
 70
     0
 43
0.0001332181640625
 10
2.631831552297498
 20
3.246823796853721
 10
2.571883378469374
 20
3.306771970681847
  0
LWPOLYLINE
  5
79D
330
18
100
AcDbEntity
  8
TEXT
100
AcDbPolyline
 90
        3
 70
     0
 43
0.0006660908203125
 10
2.545239745656873
 20
3.246823796853721
 10
2.631831552297498
 20
3.246823796853721
 10
2.631831552297498
 20
3.333415603494348
  0
LWPOLYLINE
  5
79E
330
18
100
AcDbEntity
  8
TEXT
100
AcDbPolyline
 90
        2
 70
     0
 43
0.0001332181640625
 10
2.631831552297498
 20
3.333415603494348
 10
2.571883378469374
 20
3.343406965799033
  0
LWPOLYLINE
  5
79F
330
18
100
AcDbEntity
  8
TEXT
100
AcDbPolyline
 90
        5
 70
     0
 43
0.0001332181640625
 10
2.585205194875623
 20
3.343406965799033
 10
2.571883378469374
 20
3.343406965799033
 10
2.571883378469374
 20
3.306771970681847
 10
2.535248383352184
 20
3.306771970681847
 10
2.535248383352184
 20
3.293450154275596
  0
ARC
  5
7A0
330
18
100
AcDbEntity
  8
TEXT
100
AcDbCircle
 10
2.928589321958025
 20
3.404437436704142
 30
0.0
 40
0.017902360805315
100
AcDbArc
 50
90.0
 51
270.0
  0
LINE
  5
7A1
330
18
100
AcDbEntity
  8
TEXT
100
AcDbLine
 10
2.841264532397271
 20
3.288500465511148
 30
0.0
 11
2.841264532397273
 21
3.220143459177709
 31
0.0
  0
TEXT
  5
7A2
330
18
100
AcDbEntity
  8
TEXT
100
AcDbText
 10
4.547992549052308
 20
3.219770840856913
 30
0.0
 40
0.0522247191011236
  1
Phone  1-800-328-2495
 41
1.272321428571429
 72
     5
 11
5.876925133321972
 21
3.219770840856913
 31
0.0
100
AcDbText
  0
TEXT
  5
7A3
330
18
100
AcDbEntity
  8
TEXT
100
AcDbText
 10
4.547992549052308
 20
3.313029267823205
 30
0.0
 40
0.0522247191011236
  1
Minneapolis, MN 55432-0008
 41
1.11444212721585
 72
     5
 11
5.876925133321972
 21
3.313029267823205
 31
0.0
100
AcDbText
  0
LINE
  5
7A4
330
18
100
AcDbEntity
  8
TEXT
100
AcDbLine
 10
4.10242088975405
 20
3.422339797509454
 30
0.0
 11
4.179068871046606
 21
3.422339797509454
 31
0.0
  0
LINE
  5
7A5
330
18
100
AcDbEntity
  8
TEXT
100
AcDbLine
 10
3.544377732123376
 20
3.422339797509454
 30
0.0
 11
3.594213011946525
 21
3.422339797509454
 31
0.0
  0
ARC
  5
7A6
330
18
100
AcDbEntity
  8
TEXT
100
AcDbCircle
 10
3.245911839852972
 20
3.259691181451405
 30
0.0
 40
0.0392772371940762
100
AcDbArc
 50
270.1604552698595
 51
330.0831797321295
  0
ARC
  5
7A7
330
18
100
AcDbEntity
  8
TEXT
100
AcDbCircle
 10
3.155610993960747
 20
3.279935850515759
 30
0.0
 40
0.0601160179737537
100
AcDbArc
 50
180.0000000000003
 51
264.0521544866073
  0
LINE
  5
7A8
330
18
100
AcDbEntity
  8
TEXT
100
AcDbLine
 10
3.095494975986994
 20
3.422339797509454
 30
0.0
 11
3.095494975986994
 21
3.279935850515759
 31
0.0
  0
ARC
  5
7A9
330
18
100
AcDbEntity
  8
TEXT
100
AcDbCircle
 10
2.999129832108605
 20
3.305471019392182
 30
0.0
 40
0.0169705538810321
100
AcDbArc
 50
270.0
 51
90.0
  0
ARC
  5
7AA
330
18
100
AcDbEntity
  8
TEXT
100
AcDbCircle
 10
2.994189458202326
 20
3.303339267538266
 30
0.0
 40
0.0831958083605586
100
AcDbArc
 50
270.0
 51
90.0
  0
LWPOLYLINE
  5
7AB
330
18
100
AcDbEntity
  8
TEXT
100
AcDbPolyline
 90
        6
 70
     1
 43
0.0
 10
3.19190538704225
 20
3.422339797509454
 10
3.161588792822042
 20
3.422339797509454
 10
3.161588792822042
 20
3.29922879945456
 42
0.407328721240804
 10
3.173132443983519
 20
3.287409884778174
 10
3.233754143028249
 20
3.287409884778174
 10
3.251219483435567
 20
3.320222113821653
  0
LINE
  5
7AC
330
18
100
AcDbEntity
  8
TEXT
100
AcDbLine
 10
3.1493815834671
 20
3.220143459177709
 30
0.0
 11
3.246021834542094
 21
3.220414098275991
 31
0.0
  0
LWPOLYLINE
  5
7AD
330
18
100
AcDbEntity
  8
TEXT
100
AcDbPolyline
 90
        2
 70
     0
 43
0.0
 10
3.37725510585863
 20
3.271694801392637
 42
0.3318488747599744
 10
3.446374398423943
 20
3.220143459177709
 42
-6.868794160588311
  0
LINE
  5
7AE
330
18
100
AcDbEntity
  8
TEXT
100
AcDbLine
 10
3.37725510585863
 20
3.40445217621799
 30
0.0
 11
3.37725510585863
 21
3.271694801392634
 31
0.0
  0
LINE
  5
7AF
330
18
100
AcDbEntity
  8
TEXT
100
AcDbLine
 10
3.279955399765185
 20
3.240101965282722
 30
0.0
 11
3.37725510585863
 21
3.40445217621799
 31
0.0
  0
ARC
  5
7B0
330
18
100
AcDbEntity
  8
TEXT
100
AcDbCircle
 10
3.460553042180805
 20
3.301134091677237
 30
0.0
 40
0.0153818062434269
100
AcDbArc
 50
174.7883570302258
 51
270.0
  0
LINE
  5
7B1
330
18
100
AcDbEntity
  8
TEXT
100
AcDbLine
 10
3.477546679065408
 20
3.285752285433812
 30
0.0
 11
3.460553042180805
 21
3.285752285433812
 31
0.0
  0
LINE
  5
7B2
330
18
100
AcDbEntity
  8
TEXT
100
AcDbLine
 10
3.446374398423941
 20
3.220143459177709
 30
0.0
 11
3.544377732123376
 21
3.220143459177709
 31
0.0
  0
LINE
  5
7B3
330
18
100
AcDbEntity
  8
TEXT
100
AcDbLine
 10
3.544377732123376
 20
3.220143459177709
 30
0.0
 11
3.544377732123376
 21
3.422339797509454
 31
0.0
  0
LINE
  5
7B4
330
18
100
AcDbEntity
  8
TEXT
100
AcDbLine
 10
3.907229286111498
 20
3.422339797509454
 30
0.0
 11
3.800023012724206
 21
3.422339797509454
 31
0.0
  0
LINE
  5
7B5
330
18
100
AcDbEntity
  8
TEXT
100
AcDbLine
 10
3.860742371632234
 20
3.385064824047322
 30
0.0
 11
3.943030361415619
 21
3.385064824047322
 31
0.0
  0
LWPOLYLINE
  5
7B6
330
18
100
AcDbEntity
  8
TEXT
100
AcDbPolyline
 90
        4
 70
     1
 43
0.0
 10
3.955961402698518
 20
3.323107437161734
 10
3.867301084038659
 20
3.323107437161734
 42
0.9999999999999998
 10
3.867301084038659
 20
3.280708896657873
 10
3.955961402698518
 20
3.280708896657873
 42
1.0
  0
LWPOLYLINE
  5
7B7
330
18
100
AcDbEntity
  8
TEXT
100
AcDbPolyline
 90
        2
 70
     0
 43
0.0
 10
3.842066450137034
 20
3.220143459177709
 10
3.97608386776841
 20
3.220143459177709
 42
0.9999999999999998
  0
LINE
  5
7B8
330
18
100
AcDbEntity
  8
TEXT
100
AcDbLine
 10
3.668824847894477
 20
3.422339797509454
 30
0.0
 11
3.722958444815429
 21
3.422339797509454
 31
0.0
  0
LINE
  5
7B9
330
18
100
AcDbEntity
  8
TEXT
100
AcDbLine
 10
3.601766801112638
 20
3.220143459177709
 30
0.0
 11
3.668824847894477
 21
3.220143459177709
 31
0.0
  0
LINE
  5
7BA
330
18
100
AcDbEntity
  8
TEXT
100
AcDbLine
 10
3.668824847894477
 20
3.220143459177709
 30
0.0
 11
3.668824847894477
 21
3.422339797509454
 31
0.0
  0
LINE
  5
7BB
330
18
100
AcDbEntity
  8
TEXT
100
AcDbLine
 10
3.601766801112638
 20
3.414786008343345
 30
0.0
 11
3.601766801112638
 21
3.220143459177709
 31
0.0
  0
LWPOLYLINE
  5
7BC
330
18
100
AcDbEntity
  8
TEXT
100
AcDbPolyline
 90
        2
 70
     0
 43
0.0
 10
3.594213011946523
 20
3.422339797509454
 42
-0.4142135623731017
 10
3.601766801112637
 20
3.414786008343345
 42
-0.9999999999999998
  0
LINE
  5
7BD
330
18
100
AcDbEntity
  8
TEXT
100
AcDbLine
 10
3.800023012724206
 20
3.422339797509454
 30
0.0
 11
3.800023012724206
 21
3.347287391435248
 31
0.0
  0
ARC
  5
7BE
330
18
100
AcDbEntity
  8
TEXT
100
AcDbCircle
 10
3.860742371632234
 20
3.317379242903204
 30
0.0
 40
0.0676855811441166
100
AcDbArc
 50
90.0
 51
153.7768192527749
  0
LWPOLYLINE
  5
7BF
330
18
100
AcDbEntity
  8
TEXT
100
AcDbPolyline
 90
        2
 70
     0
 43
0.0
 10
3.798990517269398
 20
3.263634404128147
 42
0.2901071551932823
 10
3.842066450137034
 20
3.220143459177709
 42
5.328517124445801
  0
LWPOLYLINE
  5
7C0
330
18
100
AcDbEntity
  8
TEXT
100
AcDbPolyline
 90
        2
 70
     0
 43
0.0
 10
3.722958444815427
 20
3.422339797509454
 42
-0.4142135623731017
 10
3.73051223398154
 20
3.414786008343345
 42
-0.9999999999999998
  0
LWPOLYLINE
  5
7C1
330
18
100
AcDbEntity
  8
TEXT
100
AcDbPolyline
 90
        4
 70
     0
 43
0.0
 10
3.73051223398154
 20
3.414786008343345
 10
3.73051223398154
 20
3.220143459177709
 10
3.798990517269398
 20
3.220143459177709
 10
3.798990517269398
 20
3.263634404128147
 42
-1.714843617202739
  0
LWPOLYLINE
  5
7C2
330
18
100
AcDbEntity
  8
TEXT
100
AcDbPolyline
 90
        2
 70
     0
 43
0.0
 10
4.019159800636055
 20
3.263634404128147
 42
-0.2901071551932486
 10
3.97608386776841
 20
3.220143459177709
 42
-5.328517124445184
  0
LWPOLYLINE
  5
7C3
330
18
100
AcDbEntity
  8
TEXT
100
AcDbPolyline
 90
        2
 70
     0
 43
0.0
 10
4.019159800636055
 20
3.220143459177709
 10
4.077515014471389
 20
3.220143459177709
  0
LWPOLYLINE
  5
7C4
330
18
100
AcDbEntity
  8
TEXT
100
AcDbPolyline
 90
        2
 70
     0
 43
0.0
 10
4.019159800636055
 20
3.263634404128147
 10
4.019159800636055
 20
3.220143459177709
  0
LINE
  5
7C5
330
18
100
AcDbEntity
  8
TEXT
100
AcDbLine
 10
3.943030361415619
 20
3.385064824047322
 30
0.0
 11
3.932765601002053
 21
3.406315363620016
 31
0.0
  0
LINE
  5
7C6
330
18
100
AcDbEntity
  8
TEXT
100
AcDbLine
 10
4.077515014471391
 20
3.220143459177709
 30
0.0
 11
4.077515014471384
 21
3.397433964609177
 31
0.0
  0
LINE
  5
7C7
330
18
100
AcDbEntity
  8
TEXT
100
AcDbLine
 10
4.395928960952904
 20
3.220143459177709
 30
0.0
 11
4.300436737589294
 21
3.376723249225246
 31
0.0
  0
LINE
  5
7C8
330
18
100
AcDbEntity
  8
TEXT
100
AcDbLine
 10
4.319350588576696
 20
3.220143459177709
 30
0.0
 11
4.395928960952904
 21
3.220143459177709
 31
0.0
  0
LINE
  5
7C9
330
18
100
AcDbEntity
  8
TEXT
100
AcDbLine
 10
4.179068871046613
 20
3.220143459177709
 30
0.0
 11
4.243447055365233
 21
3.220143459177709
 31
0.0
  0
LINE
  5
7CA
330
18
100
AcDbEntity
  8
TEXT
100
AcDbLine
 10
4.179068871046606
 20
3.422339797509454
 30
0.0
 11
4.179068871046613
 21
3.220143459177709
 31
0.0
  0
LINE
  5
7CB
330
18
100
AcDbEntity
  8
TEXT
100
AcDbLine
 10
4.243447055365233
 20
3.351723027653889
 30
0.0
 11
4.319350588576696
 21
3.220143459177709
 31
0.0
  0
LINE
  5
7CC
330
18
100
AcDbEntity
  8
TEXT
100
AcDbLine
 10
4.243447055365233
 20
3.220143459177709
 30
0.0
 11
4.243447055365233
 21
3.351723027653889
 31
0.0
  0
LINE
  5
7CD
330
18
100
AcDbEntity
  8
TEXT
100
AcDbLine
 10
3.099083744742287
 20
3.48661649216622
 30
0.0
 11
2.923351991843777
 21
3.48661649216622
 31
0.0
  0
LWPOLYLINE
  5
7CE
330
18
100
AcDbEntity
  8
TEXT
100
AcDbPolyline
 90
        2
 70
     0
 43
0.0006660908203125
 10
2.505274296438122
 20
3.459972859353722
 10
2.505274296438122
 20
3.486616492166223
  0
LWPOLYLINE
  5
7CF
330
18
100
AcDbEntity
  8
TEXT
100
AcDbPolyline
 90
        2
 70
     0
 43
0.0006660908203125
 10
2.545239745656873
 20
3.459972859353722
 10
2.545239745656873
 20
3.486616492166223
  0
TEXT
  5
7D0
330
18
100
AcDbEntity
  8
TEXT
100
AcDbText
 10
4.547992549052308
 20
3.499546121755789
 30
0.0
 40
0.0522247191011236
  1
Stylmark  Incorporated
 41
1.221428571428571
 72
     5
 11
5.876925133321972
 21
3.499546121755789
 31
0.0
100
AcDbText
  0
LINE
  5
7D1
330
18
100
AcDbEntity
  8
TEXT
100
AcDbLine
 10
4.174588983720106
 20
3.48661649216622
 30
0.0
 11
4.107089266070591
 21
3.48661649216622
 31
0.0
  0
TEXT
  5
7D2
330
18
100
AcDbEntity
  8
TEXT
100
AcDbText
 10
3.381711200325796
 20
3.666693483529289
 30
0.0
 40
0.125
  1
PART #110523
  7
ITALICC
 72
     1
 11
4.134687390801985
 21
3.666693483529289
 31
0.0
100
AcDbText
  0
LINE
  5
7D3
330
18
100
AcDbEntity
  8
TEXT
100
AcDbLine
 10
3.611564734996544
 20
3.48661649216622
 30
0.0
 11
3.477546679065408
 21
3.48661649216622
 31
0.0
  0
LINE
  5
7D4
330
18
100
AcDbEntity
  8
TEXT
100
AcDbLine
 10
3.159126349586294
 20
3.521004409760358
 30
0.0
 11
3.099083744742287
 21
3.521004409760358
 31
0.0
  0
LINE
  5
7D5
330
18
100
AcDbEntity
  8
TEXT
100
AcDbLine
 10
3.099083744742287
 20
3.521004409760358
 30
0.0
 11
3.099083744742287
 21
3.48661649216622
 31
0.0
  0
LINE
  5
7D6
330
18
100
AcDbEntity
  8
TEXT
100
AcDbLine
 10
3.230925315730203
 20
3.48661649216622
 30
0.0
 11
3.159126349586294
 21
3.48661649216622
 31
0.0
  0
LINE
  5
7D7
330
18
100
AcDbEntity
  8
TEXT
100
AcDbLine
 10
3.159126349586294
 20
3.48661649216622
 30
0.0
 11
3.159126349586294
 21
3.521004409760358
 31
0.0
  0
LINE
  5
7D8
330
18
100
AcDbEntity
  8
TEXT
100
AcDbLine
 10
3.445234824927748
 20
3.55462796990503
 30
0.0
 11
3.378426112361381
 21
3.55462796990503
 31
0.0
  0
LINE
  5
7D9
330
18
100
AcDbEntity
  8
TEXT
100
AcDbLine
 10
3.378426112361381
 20
3.48661649216622
 30
0.0
 11
3.348304199568005
 21
3.48661649216622
 31
0.0
  0
LINE
  5
7DA
330
18
100
AcDbEntity
  8
TEXT
100
AcDbLine
 10
3.378426112361381
 20
3.55462796990503
 30
0.0
 11
3.378426112361381
 21
3.48661649216622
 31
0.0
  0
LINE
  5
7DB
330
18
100
AcDbEntity
  8
TEXT
100
AcDbLine
 10
3.936260184455974
 20
3.48661649216622
 30
0.0
 11
3.801428275238915
 21
3.48661649216622
 31
0.0
  0
LWPOLYLINE
  5
7DC
330
18
100
AcDbEntity
  8
TEXT
100
AcDbPolyline
 90
        3
 70
     0
 43
0.0
 10
3.76564658452575
 20
3.486616492166223
 10
3.647346425709706
 20
3.486616492166223
 10
3.647346425709706
 20
3.459448995405328
 42
-1.960274751411753
  0
LWPOLYLINE
  5
7DD
330
18
100
AcDbEntity
  8
TEXT
100
AcDbPolyline
 90
        2
 70
     0
 43
0.0
 10
3.611564734996544
 20
3.486616492166223
 42
-0.3328679258950098
 10
3.647346425709706
 20
3.459448995405328
 42
6.772930709997214
  0
LINE
  5
7DE
330
18
100
AcDbEntity
  8
TEXT
100
AcDbLine
 10
3.801428275238915
 20
3.48661649216622
 30
0.0
 11
3.801428275238915
 21
3.458293946396576
 31
0.0
  0
LWPOLYLINE
  5
7DF
330
18
100
AcDbEntity
  8
TEXT
100
AcDbPolyline
 90
        2
 70
     0
 43
0.0
 10
3.76564658452575
 20
3.486616492166223
 42
-0.3277054968067132
 10
3.801428275238915
 20
3.45829394639658
 42
6.667889725900311
  0
LINE
  5
7E0
330
18
100
AcDbEntity
  8
TEXT
100
AcDbLine
 10
4.079117029630516
 20
3.48661649216622
 30
0.0
 11
4.015220123331015
 21
3.48661649216622
 31
0.0
  0
ARC
  5
7E1
330
18
100
AcDbEntity
  8
TEXT
100
AcDbCircle
 10
3.934233244678907
 20
3.445032925045317
 30
0.0
 40
0.0416329381542859
100
AcDbArc
 50
26.56974201007528
 51
87.20939649401342
  0
LINE
  5
7E2
330
18
100
AcDbEntity
  8
TEXT
100
AcDbLine
 10
4.079117029630516
 20
3.459068842305345
 30
0.0
 11
4.079117029630516
 21
3.48661649216622
 31
0.0
  0
ARC
  5
7E3
330
18
100
AcDbEntity
  8
TEXT
100
AcDbCircle
 10
4.110309846693626
 20
3.455370764883955
 30
0.0
 40
0.0314112657011332
100
AcDbArc
 50
95.88484768694724
 51
173.2388340632136
  0
LINE
  5
7E4
330
18
100
AcDbEntity
  8
TEXT
100
AcDbLine
 10
4.364993853554999
 20
3.48661649216622
 30
0.0
 11
4.290002020825372
 21
3.48661649216622
 31
0.0
  0
LINE
  5
7E5
330
18
100
AcDbEntity
  8
TEXT
100
AcDbLine
 10
4.174588983720113
 20
3.552080697933821
 30
0.0
 11
4.174588983720106
 21
3.48661649216622
 31
0.0
  0
LINE
  5
7E6
330
18
100
AcDbEntity
  8
TEXT
100
AcDbLine
 10
4.242903862269386
 20
3.552080697933821
 30
0.0
 11
4.174588983720113
 21
3.552080697933821
 31
0.0
  0
ENDSEC
  0
SECTION
  2
OBJECTS
  0
DICTIONARY
  5
C
330
0
100
AcDbDictionary
  3
ACAD_GROUP
350
D
  3
ACAD_LAYOUT
350
7EB
  3
ACAD_MLINESTYLE
350
E
  3
ACAD_PLOTSETTINGS
350
7EC
  3
ACAD_PLOTSTYLENAME
350
7E9
  3
ACDBHEADERROUNDTRIPXREC
350
7F6
  3
ACDBVARIABLEDICTIONARY
350
7F3
  0
DICTIONARY
  5
818
330
18
100
AcDbDictionary
280
     1
  3
ACAD_LAYOUTSELFREF
360
819
  0
DICTIONARY
  5
816
330
15
100
AcDbDictionary
280
     1
  3
ACAD_LAYOUTSELFREF
360
817
  0
DICTIONARY
  5
D
102
{ACAD_REACTORS
330
C
102
}
330
C
100
AcDbDictionary
  3
*A1
350
47E
  3
*A2
350
637
  3
*A3
350
691
  3
*A4
350
692
  0
DICTIONARY
  5
7EB
102
{ACAD_REACTORS
330
C
102
}
330
C
100
AcDbDictionary
  0
DICTIONARY
  5
E
102
{ACAD_REACTORS
330
C
102
}
330
C
100
AcDbDictionary
  3
STANDARD
350
1B
  0
DICTIONARY
  5
7EC
102
{ACAD_REACTORS
330
C
102
}
330
C
100
AcDbDictionary
  0
ACDBDICTIONARYWDFLT
  5
7E9
102
{ACAD_REACTORS
330
C
102
}
330
C
100
AcDbDictionary
281
     1
  3
Normal
350
7EA
100
AcDbDictionaryWithDefault
340
7EA
  0
DICTIONARY
  5
7F6
102
{ACAD_REACTORS
330
C
102
}
330
C
100
AcDbDictionary
  3
CEPSNTYPE
350
800
  3
FINGERPRINTGUID
350
801
  3
HYPERLINKBASE
350
7F9
  3
INSUNITS
350
7FF
  3
LAYOUTDICT
350
7FB
  3
LWETCUNION
350
7FE
  3
PLOTSETDICT
350
7FC
  3
PLOTSTYLNAMDICT
350
7FD
  3
PSVPSCALE
350
803
  3
PUCSBASE
350
806
  3
PUCSORGBACK
350
80C
  3
PUCSORGBOTTOM
350
808
  3
PUCSORGFRONT
350
80B
  3
PUCSORGLEFT
350
809
  3
PUCSORGRIGHT
350
80A
  3
PUCSORGTOP
350
807
  3
PUCSORTHOREF
350
804
  3
PUCSORTHOVIEW
350
805
  3
STYLESHEET
350
7FA
  3
TSTACKALIGN
350
7F7
  3
TSTACKSIZE
350
7F8
  3
UCSBASE
350
80F
  3
UCSORGBACK
350
815
  3
UCSORGBOTTOM
350
811
  3
UCSORGFRONT
350
814
  3
UCSORGLEFT
350
812
  3
UCSORGRIGHT
350
813
  3
UCSORGTOP
350
810
  3
UCSORTHOREF
350
80D
  3
UCSORTHOVIEW
350
80E
  3
VERSIONGUID
350
802
  0
DICTIONARY
  5
7F3
102
{ACAD_REACTORS
330
C
102
}
330
C
100
AcDbDictionary
  3
DIMASSOC
350
7F4
  0
XRECORD
  5
819
102
{ACAD_REACTORS
330
818
102
}
330
818
100
AcDbXrecord
340
18
  0
XRECORD
  5
817
102
{ACAD_REACTORS
330
816
102
}
330
816
100
AcDbXrecord
340
15
  0
GROUP
  5
47E
102
{ACAD_REACTORS
330
D
102
}
330
D
100
AcDbGroup
300
BORDER FRAME 10-1-95
 70
     3
 71
     1
  0
GROUP
  5
637
102
{ACAD_REACTORS
330
D
102
}
330
D
100
AcDbGroup
300

 70
     1
 71
     1
  0
GROUP
  5
691
102
{ACAD_REACTORS
330
D
102
}
330
D
100
AcDbGroup
300
BORDER FRAME 10-1-95
 70
     3
 71
     1
  0
GROUP
  5
692
102
{ACAD_REACTORS
330
D
102
}
330
D
100
AcDbGroup
300

 70
     1
 71
     1
  0
MLINESTYLE
  5
1B
102
{ACAD_REACTORS
330
E
102
}
330
E
100
AcDbMlineStyle
  2
STANDARD
 70
     0
  3

 62
     0
 51
90.0
 52
90.0
 71
     2
 49
0.5
 62
   256
  6
BYLAYER
 49
-0.5
 62
   256
  6
BYLAYER
  0
ACDBPLACEHOLDER
  5
7EA
102
{ACAD_REACTORS
330
7E9
102
}
330
7E9
100
AcDbPlaceHolder
280
     0
  0
XRECORD
  5
800
102
{ACAD_REACTORS
330
7F6
102
}
330
7F6
100
AcDbXrecord
 90
        0
  0
XRECORD
  5
801
102
{ACAD_REACTORS
330
7F6
102
}
330
7F6
100
AcDbXrecord
  1
{3F423480-8DB8-11D6-88E6-0090279574E7}
  0
XRECORD
  5
7F9
102
{ACAD_REACTORS
330
7F6
102
}
330
7F6
100
AcDbXrecord
  1

  0
XRECORD
  5
7FF
102
{ACAD_REACTORS
330
7F6
102
}
330
7F6
100
AcDbXrecord
 90
        0
  0
XRECORD
  5
7FB
102
{ACAD_REACTORS
330
7F6
102
}
330
7F6
100
AcDbXrecord
340
7EB
  0
XRECORD
  5
7FE
102
{ACAD_REACTORS
330
7F6
102
}
330
7F6
100
AcDbXrecord
 90
    14877
  0
XRECORD
  5
7FC
102
{ACAD_REACTORS
330
7F6
102
}
330
7F6
100
AcDbXrecord
340
7EC
  0
XRECORD
  5
7FD
102
{ACAD_REACTORS
330
7F6
102
}
330
7F6
100
AcDbXrecord
340
7E9
  0
XRECORD
  5
803
102
{ACAD_REACTORS
330
7F6
102
}
330
7F6
100
AcDbXrecord
 40
0.0
  0
XRECORD
  5
806
102
{ACAD_REACTORS
330
7F6
102
}
330
7F6
100
AcDbXrecord
340
0
  0
XRECORD
  5
80C
102
{ACAD_REACTORS
330
7F6
102
}
330
7F6
100
AcDbXrecord
 10
0.0
 20
0.0
 30
0.0
  0
XRECORD
  5
808
102
{ACAD_REACTORS
330
7F6
102
}
330
7F6
100
AcDbXrecord
 10
0.0
 20
0.0
 30
0.0
  0
XRECORD
  5
80B
102
{ACAD_REACTORS
330
7F6
102
}
330
7F6
100
AcDbXrecord
 10
0.0
 20
0.0
 30
0.0
  0
XRECORD
  5
809
102
{ACAD_REACTORS
330
7F6
102
}
330
7F6
100
AcDbXrecord
 10
0.0
 20
0.0
 30
0.0
  0
XRECORD
  5
80A
102
{ACAD_REACTORS
330
7F6
102
}
330
7F6
100
AcDbXrecord
 10
0.0
 20
0.0
 30
0.0
  0
XRECORD
  5
807
102
{ACAD_REACTORS
330
7F6
102
}
330
7F6
100
AcDbXrecord
 10
0.0
 20
0.0
 30
0.0
  0
XRECORD
  5
804
102
{ACAD_REACTORS
330
7F6
102
}
330
7F6
100
AcDbXrecord
340
0
  0
XRECORD
  5
805
102
{ACAD_REACTORS
330
7F6
102
}
330
7F6
100
AcDbXrecord
 70
     0
  0
XRECORD
  5
7FA
102
{ACAD_REACTORS
330
7F6
102
}
330
7F6
100
AcDbXrecord
  1

  0
XRECORD
  5
7F7
102
{ACAD_REACTORS
330
7F6
102
}
330
7F6
100
AcDbXrecord
 90
        1
  0
XRECORD
  5
7F8
102
{ACAD_REACTORS
330
7F6
102
}
330
7F6
100
AcDbXrecord
 90
       70
  0
XRECORD
  5
80F
102
{ACAD_REACTORS
330
7F6
102
}
330
7F6
100
AcDbXrecord
340
0
  0
XRECORD
  5
815
102
{ACAD_REACTORS
330
7F6
102
}
330
7F6
100
AcDbXrecord
 10
0.0
 20
0.0
 30
0.0
  0
XRECORD
  5
811
102
{ACAD_REACTORS
330
7F6
102
}
330
7F6
100
AcDbXrecord
 10
0.0
 20
0.0
 30
0.0
  0
XRECORD
  5
814
102
{ACAD_REACTORS
330
7F6
102
}
330
7F6
100
AcDbXrecord
 10
0.0
 20
0.0
 30
0.0
  0
XRECORD
  5
812
102
{ACAD_REACTORS
330
7F6
102
}
330
7F6
100
AcDbXrecord
 10
0.0
 20
0.0
 30
0.0
  0
XRECORD
  5
813
102
{ACAD_REACTORS
330
7F6
102
}
330
7F6
100
AcDbXrecord
 10
0.0
 20
0.0
 30
0.0
  0
XRECORD
  5
810
102
{ACAD_REACTORS
330
7F6
102
}
330
7F6
100
AcDbXrecord
 10
0.0
 20
0.0
 30
0.0
  0
XRECORD
  5
80D
102
{ACAD_REACTORS
330
7F6
102
}
330
7F6
100
AcDbXrecord
340
0
  0
XRECORD
  5
80E
102
{ACAD_REACTORS
330
7F6
102
}
330
7F6
100
AcDbXrecord
 70
     0
  0
XRECORD
  5
802
102
{ACAD_REACTORS
330
7F6
102
}
330
7F6
100
AcDbXrecord
  1
{3F423482-8DB8-11D6-88E6-0090279574E7}
  0
DICTIONARYVAR
  5
7F4
102
{ACAD_REACTORS
330
7F3
102
}
330
7F3
100
DictionaryVariables
280
     0
  1
1
  0
ENDSEC
  0
EOF
