  0
SECTION
  2
HEADER
  9
$ACADVER
  1
AC1014
  9
$ACADMAINTVER
 70
     9
  9
$DWGCODEPAGE
  3
ANSI_1252
  9
$INSBASE
 10
0.0
 20
0.0
 30
0.0
  9
$EXTMIN
 10
9.62679813373924
 20
1.796917819777153
 30
0.0
  9
$EXTMAX
 10
13.11201745548639
 20
2.788052182549555
 30
0.0
  9
$LIMMIN
 10
0.0
 20
0.0
  9
$LIMMAX
 10
18.0
 20
12.0
  9
$ORTHOMODE
 70
     1
  9
$REGENMODE
 70
     1
  9
$FILLMODE
 70
     1
  9
$QTEXTMODE
 70
     0
  9
$MIRRTEXT
 70
     0
  9
$DRAGMODE
 70
     2
  9
$LTSCALE
 40
0.4
  9
$OSMODE
 70
    39
  9
$ATTMODE
 70
     1
  9
$TEXTSIZE
 40
0.125
  9
$TRACEWID
 40
0.05
  9
$TEXTSTYLE
  7
ROMANS
  9
$CLAYER
  8
0
  9
$CELTYPE
  6
BYLAYER
  9
$CECOLOR
 62
   256
  9
$CELTSCALE
 40
1.0
  9
$DELOBJ
 70
     1
  9
$DISPSILH
 70
     1
  9
$DIMSCALE
 40
1.0
  9
$DIMASZ
 40
0.125
  9
$DIMEXO
 40
0.125
  9
$DIMDLI
 40
0.375
  9
$DIMRND
 40
0.0
  9
$DIMDLE
 40
0.0
  9
$DIMEXE
 40
0.125
  9
$DIMTP
 40
0.007
  9
$DIMTM
 40
0.002
  9
$DIMTXT
 40
0.125
  9
$DIMCEN
 40
-0.125
  9
$DIMTSZ
 40
0.0
  9
$DIMTOL
 70
     1
  9
$DIMLIM
 70
     0
  9
$DIMTIH
 70
     1
  9
$DIMTOH
 70
     1
  9
$DIMSE1
 70
     0
  9
$DIMSE2
 70
     0
  9
$DIMTAD
 70
     0
  9
$DIMZIN
 70
     4
  9
$DIMBLK
  1

  9
$DIMASO
 70
     1
  9
$DIMSHO
 70
     1
  9
$DIMPOST
  1

  9
$DIMAPOST
  1

  9
$DIMALT
 70
     0
  9
$DIMALTD
 70
     2
  9
$DIMALTF
 40
25.4
  9
$DIMLFAC
 40
0.5
  9
$DIMTOFL
 70
     0
  9
$DIMTVP
 40
0.0
  9
$DIMTIX
 70
     0
  9
$DIMSOXD
 70
     0
  9
$DIMSAH
 70
     0
  9
$DIMBLK1
  1

  9
$DIMBLK2
  1

  9
$DIMSTYLE
  2
STANDARD
  9
$DIMCLRD
 70
     0
  9
$DIMCLRE
 70
     0
  9
$DIMCLRT
 70
     0
  9
$DIMTFAC
 40
1.0
  9
$DIMGAP
 40
0.09375
  9
$DIMJUST
 70
     0
  9
$DIMSD1
 70
     0
  9
$DIMSD2
 70
     0
  9
$DIMTOLJ
 70
     1
  9
$DIMTZIN
 70
     4
  9
$DIMALTZ
 70
     0
  9
$DIMALTTZ
 70
     0
  9
$DIMFIT
 70
     3
  9
$DIMUPT
 70
     0
  9
$DIMUNIT
 70
     2
  9
$DIMDEC
 70
     3
  9
$DIMTDEC
 70
     3
  9
$DIMALTU
 70
     2
  9
$DIMALTTD
 70
     2
  9
$DIMTXSTY
  7
ROMANS
  9
$DIMAUNIT
 70
     0
  9
$LUNITS
 70
     2
  9
$LUPREC
 70
     3
  9
$SKETCHINC
 40
0.1
  9
$FILLETRAD
 40
0.0
  9
$AUNITS
 70
     0
  9
$AUPREC
 70
     0
  9
$MENU
  1
C:\R13\WIN\ACAD
  9
$ELEVATION
 40
0.0
  9
$PELEVATION
 40
0.0
  9
$THICKNESS
 40
0.0
  9
$LIMCHECK
 70
     0
  9
$BLIPMODE
 70
     0
  9
$CHAMFERA
 40
0.0
  9
$CHAMFERB
 40
0.0
  9
$CHAMFERC
 40
0.0
  9
$CHAMFERD
 40
0.0
  9
$SKPOLY
 70
     0
  9
$TDCREATE
 40
2449247.519537268
  9
$TDUPDATE
 40
2452458.316523865
  9
$TDINDWG
 40
0.3292580671
  9
$TDUSRTIMER
 40
0.3292580671
  9
$USRTIMER
 70
     1
  9
$ANGBASE
 50
0.0
  9
$ANGDIR
 70
     0
  9
$PDMODE
 70
     0
  9
$PDSIZE
 40
0.0
  9
$PLINEWID
 40
0.0
  9
$COORDS
 70
     2
  9
$SPLFRAME
 70
     0
  9
$SPLINETYPE
 70
     6
  9
$SPLINESEGS
 70
     8
  9
$ATTDIA
 70
     0
  9
$ATTREQ
 70
     1
  9
$HANDLING
 70
 22529
  9
$HANDSEED
  5
3CF952D4DD88C79C
  9
$SURFTAB1
 70
     6
  9
$SURFTAB2
 70
     6
  9
$SURFTYPE
 70
     6
  9
$SURFU
 70
     6
  9
$SURFV
 70
     6
  9
$UCSNAME
  2

  9
$UCSORG
 10
0.0
 20
0.0
 30
0.0
  9
$UCSXDIR
 10
1.0
 20
0.0
 30
0.0
  9
$UCSYDIR
 10
0.0
 20
1.0
 30
0.0
  9
$PUCSNAME
  2

  9
$PUCSORG
 10
0.0
 20
0.0
 30
0.0
  9
$PUCSXDIR
 10
1.0
 20
0.0
 30
0.0
  9
$PUCSYDIR
 10
0.0
 20
1.0
 30
0.0
  9
$USERI1
 70
     0
  9
$USERI2
 70
     0
  9
$USERI3
 70
     0
  9
$USERI4
 70
     0
  9
$USERI5
 70
     0
  9
$USERR1
 40
0.0
  9
$USERR2
 40
0.0
  9
$USERR3
 40
0.0
  9
$USERR4
 40
0.0
  9
$USERR5
 40
0.0
  9
$WORLDVIEW
 70
     1
  9
$SHADEDGE
 70
     3
  9
$SHADEDIF
 70
    70
  9
$TILEMODE
 70
     1
  9
$MAXACTVP
 70
    16
  9
$PINSBASE
 10
24.31374088771587
 20
50.00000000000001
 30
13.39138741089376
  9
$PLIMCHECK
 70
     0
  9
$PEXTMIN
 10
1.000000000000000E+20
 20
1.000000000000000E+20
 30
1.000000000000000E+20
  9
$PEXTMAX
 10
-1.000000000000000E+20
 20
-1.000000000000000E+20
 30
-1.000000000000000E+20
  9
$PLIMMIN
 10
0.0
 20
0.0
  9
$PLIMMAX
 10
12.0
 20
9.0
  9
$UNITMODE
 70
     0
  9
$VISRETAIN
 70
     0
  9
$PLINEGEN
 70
     1
  9
$PSLTSCALE
 70
     0
  9
$TREEDEPTH
 70
  3020
  9
$PICKSTYLE
 70
     1
  9
$CMLSTYLE
  2
STANDARD
  9
$CMLJUST
 70
     0
  9
$CMLSCALE
 40
1.0
  9
$PROXYGRAPHICS
 70
     1
  9
$MEASUREMENT
 70
     0
  0
ENDSEC
  0
SECTION
  2
CLASSES
  0
CLASS
  1
LWPOLYLINE
  2
AcDbPolyline
  3
AutoCAD 2000
 90
        0
280
     0
281
     1
  0
CLASS
  1
ACDBDICTIONARYWDFLT
  2
AcDbDictionaryWithDefault
  3
AutoCAD 2000
 90
        0
280
     0
281
     0
  0
CLASS
  1
ACDBPLACEHOLDER
  2
AcDbPlaceHolder
  3
AutoCAD 2000
 90
        0
280
     0
281
     0
  0
CLASS
  1
LAYOUT
  2
AcDbLayout
  3
AutoCAD 2000
 90
        0
280
     0
281
     0
  0
CLASS
  1
DICTIONARYVAR
  2
AcDbDictionaryVar
  3
AutoCAD 2000
 90
        0
280
     0
281
     0
  0
CLASS
  1
LONG_TRANSACTION
  2
AcDbLongTransaction
  3
AutoCAD 2000
 90
        0
280
     0
281
     0
  0
CLASS
  1
LWPOLYLINE
  2
AcDbPolyline
  3
AutoCAD 2000
 90
        0
280
     0
281
     1
  0
CLASS
  1
HATCH
  2
AcDbHatch
  3
AutoCAD 2000
 90
        0
280
     0
281
     1
  0
CLASS
  1
XRECORD
  2
AcDbXrecord
  3
AutoCAD 2000
 90
        0
280
     0
281
     0
  0
ENDSEC
  0
SECTION
  2
TABLES
  0
TABLE
  2
VPORT
  5
3CF952D4DD88BFDC
330
0
100
AcDbSymbolTable
 70
     2
  0
VPORT
  5
3CF952D4DD88C777
330
3CF952D4DD88BFDC
100
AcDbSymbolTableRecord
100
AcDbViewportTableRecord
  2
*ACTIVE
 70
     0
 10
0.0
 20
0.0
 11
1.0
 21
1.0
 12
14.2923242674987
 22
2.292729134370718
 13
0.0
 23
0.0
 14
0.015625
 24
0.015625
 15
0.0
 25
0.0
 16
0.0
 26
0.0
 36
1.0
 17
0.0
 27
0.0
 37
0.0
 40
2.164131440897961
 41
4.320930232558139
 42
50.0
 43
0.0
 44
0.0
 50
0.0
 51
0.0
 71
     0
 72
  2000
 73
     1
 74
     1
 75
     0
 76
     0
 77
     0
 78
     0
  0
ENDTAB
  0
TABLE
  2
LTYPE
  5
3CF952D4DD88BFD9
330
0
100
AcDbSymbolTable
 70
     1
  0
LTYPE
  5
3CF952D4DD88BFE6
330
3CF952D4DD88BFD9
100
AcDbSymbolTableRecord
100
AcDbLinetypeTableRecord
  2
BYBLOCK
 70
     0
  3

 72
    65
 73
     0
 40
0.0
  0
LTYPE
  5
3CF952D4DD88BFE7
330
3CF952D4DD88BFD9
100
AcDbSymbolTableRecord
100
AcDbLinetypeTableRecord
  2
BYLAYER
 70
     0
  3

 72
    65
 73
     0
 40
0.0
  0
LTYPE
  5
3CF952D4DD88BFE8
330
3CF952D4DD88BFD9
100
AcDbSymbolTableRecord
100
AcDbLinetypeTableRecord
  2
CONTINUOUS
 70
     0
  3
Solid line
 72
    65
 73
     0
 40
0.0
  0
ENDTAB
  0
TABLE
  2
LAYER
  5
3CF952D4DD88BFD6
330
0
100
AcDbSymbolTable
 70
     2
  0
LAYER
  5
3CF952D4DD88BFE3
330
3CF952D4DD88BFD6
100
AcDbSymbolTableRecord
100
AcDbLayerTableRecord
  2
0
 70
     0
 62
     7
  6
CONTINUOUS
  0
LAYER
  5
3CF952D4DD88BFF6
330
3CF952D4DD88BFD6
100
AcDbSymbolTableRecord
100
AcDbLayerTableRecord
  2
TEXT
 70
     0
 62
     3
  6
CONTINUOUS
  0
ENDTAB
  0
TABLE
  2
STYLE
  5
3CF952D4DD88BFD7
330
0
100
AcDbSymbolTable
 70
     3
  0
STYLE
  5
3CF952D4DD88BFE4
330
3CF952D4DD88BFD7
100
AcDbSymbolTableRecord
100
AcDbTextStyleTableRecord
  2
STANDARD
 70
     0
 40
0.0
 41
1.0
 50
0.0
 71
     0
 42
0.125
  3
txt
  4

  0
STYLE
  5
3CF952D4DD88BFF3
330
3CF952D4DD88BFD7
100
AcDbSymbolTableRecord
100
AcDbTextStyleTableRecord
  2
ROMANS
 70
     0
 40
0.0
 41
1.0
 50
0.0
 71
     0
 42
0.125
  3
romans.shx
  4

  0
STYLE
  5
3CF952D4DD88C665
330
3CF952D4DD88BFD7
100
AcDbSymbolTableRecord
100
AcDbTextStyleTableRecord
  2
ITALICC
 70
     0
 40
0.0
 41
1.0
 50
0.0
 71
     0
 42
0.125
  3
italicc
  4

  0
ENDTAB
  0
TABLE
  2
VIEW
  5
3CF952D4DD88BFDA
330
0
100
AcDbSymbolTable
 70
     0
  0
ENDTAB
  0
TABLE
  2
UCS
  5
3CF952D4DD88BFDB
330
0
100
AcDbSymbolTable
 70
     0
  0
ENDTAB
  0
TABLE
  2
APPID
  5
3CF952D4DD88BFDD
330
0
100
AcDbSymbolTable
 70
     1
  0
APPID
  5
3CF952D4DD88BFE5
330
3CF952D4DD88BFDD
100
AcDbSymbolTableRecord
100
AcDbRegAppTableRecord
  2
ACAD
 70
     0
  0
ENDTAB
  0
TABLE
  2
DIMSTYLE
  5
3CF952D4DD88BFDE
330
0
100
AcDbSymbolTable
 70
     1
  0
DIMSTYLE
105
3CF952D4DD88BFFE
330
3CF952D4DD88BFDE
100
AcDbSymbolTableRecord
100
AcDbDimStyleTableRecord
  2
STANDARD
 70
     0
  3

  4

  5

  6

  7

 40
1.0
 41
0.125
 42
0.125
 43
0.375
 44
0.125
 45
0.0
 46
0.0
 47
0.007
 48
0.002
140
0.125
141
-0.125
142
0.0
143
25.4
144
0.5
145
0.0
146
1.0
147
0.09375
 71
     1
 72
     0
 73
     1
 74
     1
 75
     0
 76
     0
 77
     0
 78
     4
170
     0
171
     2
172
     0
173
     0
174
     0
175
     0
176
     0
177
     0
178
     0
270
     2
271
     3
272
     3
273
     2
274
     2
340
3CF952D4DD88BFF3
275
     0
280
     0
281
     0
282
     0
283
     1
284
     4
285
     0
286
     0
287
     3
288
     0
  0
ENDTAB
  0
TABLE
  2
BLOCK_RECORD
  5
3CF952D4DD88BFD5
330
0
100
AcDbSymbolTable
 70
     0
  0
BLOCK_RECORD
  5
3CF952D4DD88BFEC
102
{ACAD_XDICTIONARY
360
3CF952D4DD88C79A
102
}
330
3CF952D4DD88BFD5
100
AcDbSymbolTableRecord
100
AcDbBlockTableRecord
  2
*MODEL_SPACE
  0
BLOCK_RECORD
  5
3CF952D4DD88BFE9
102
{ACAD_XDICTIONARY
360
3CF952D4DD88C798
102
}
330
3CF952D4DD88BFD5
100
AcDbSymbolTableRecord
100
AcDbBlockTableRecord
  2
*PAPER_SPACE
  0
ENDTAB
  0
ENDSEC
  0
SECTION
  2
BLOCKS
  0
BLOCK
  5
3CF952D4DD88BFFC
330
3CF952D4DD88BFEC
100
AcDbEntity
  8
0
100
AcDbBlockBegin
  2
*MODEL_SPACE
 70
     0
 10
0.0
 20
0.0
 30
0.0
  3
*MODEL_SPACE
  1

  0
ENDBLK
  5
3CF952D4DD88BFFD
330
3CF952D4DD88BFEC
100
AcDbEntity
  8
0
100
AcDbBlockEnd
  0
BLOCK
  5
3CF952D4DD88BFFA
330
3CF952D4DD88BFE9
100
AcDbEntity
 67
     1
  8
0
100
AcDbBlockBegin
  2
*PAPER_SPACE
 70
     0
 10
0.0
 20
0.0
 30
0.0
  3
*PAPER_SPACE
  1

  0
ENDBLK
  5
3CF952D4DD88BFFB
330
3CF952D4DD88BFE9
100
AcDbEntity
 67
     1
  8
0
100
AcDbBlockEnd
  0
ENDSEC
  0
SECTION
  2
ENTITIES
  0
LWPOLYLINE
  5
3CF952D4DD88C55C
330
3CF952D4DD88BFEC
100
AcDbEntity
  8
0
 62
     7
100
AcDbPolyline
 90
       22
 70
     1
 43
0.0
 10
11.10475185199479
 20
2.663876855584458
 42
-1.00000000000001
 10
11.14859247242835
 20
2.707717476018025
 10
11.15353533027271
 20
2.702774618173668
 42
0.4142135623730644
 10
11.17050589302119
 20
2.702774618173668
 10
11.21756948843195
 20
2.770453905194076
 42
-0.9177665193972776
 10
11.25591971582319
 20
2.748398194772224
 10
11.2141001224961
 20
2.658687606781441
 42
0.6681786379192899
 10
11.22233901291167
 20
2.638797165801241
 10
11.40159322538702
 20
2.638797165801241
 10
11.41159322538702
 20
2.62879716580124
 10
11.42159322538702
 20
2.638797165801241
 10
11.60084743786237
 20
2.638797165801241
 42
0.6681786379193018
 10
11.60908632827795
 20
2.658687606781441
 10
11.56726673495086
 20
2.748398194772225
 42
-0.9177665193972499
 10
11.6056169623421
 20
2.770453905194076
 10
11.65268055775286
 20
2.702774618173668
 42
0.4142135623730644
 10
11.66965112050133
 20
2.702774618173668
 10
11.67459397834569
 20
2.707717476018025
 42
-1.000000000000009
 10
11.71843459877926
 20
2.663876855584458
 10
11.63135490899604
 20
2.576797165801241
 10
11.41159322538703
 20
2.576797165801239
 10
11.191831541778
 20
2.576797165801241
  0
LINE
  5
3CF952D4DD88C6EA
330
3CF952D4DD88BFEC
100
AcDbEntity
  8
TEXT
100
AcDbLine
 10
11.47799618443378
 20
1.998994106085127
 30
0.0
 11
11.47799618443378
 21
2.140323638264266
 31
0.0
  0
LINE
  5
3CF952D4DD88C6EB
330
3CF952D4DD88BFEC
100
AcDbEntity
  8
TEXT
100
AcDbLine
 10
11.52509434298976
 20
2.074859432496666
 30
0.0
 11
11.47799618443378
 21
1.998994106085127
 31
0.0
  0
LINE
  5
3CF952D4DD88C6EC
330
3CF952D4DD88BFEC
100
AcDbEntity
  8
TEXT
100
AcDbLine
 10
11.53552905975369
 20
1.964966189555692
 30
0.0
 11
11.60008617571939
 21
2.074859432496666
 31
0.0
  0
TEXT
  5
3CF952D4DD88C6ED
330
3CF952D4DD88BFEC
100
AcDbEntity
  8
TEXT
100
AcDbText
 10
11.7830848712167
 20
1.994530635119943
 30
0.0
 40
0.0522247191011236
  1
6536 Main St. N.E. * P.O. Box 32008
 41
0.8388932496075355
 72
     5
 11
13.11201745548637
 21
1.994530635119943
 31
0.0
100
AcDbText
  0
ARC
  5
3CF952D4DD88C6EE
330
3CF952D4DD88BFEC
100
AcDbEntity
  8
TEXT
100
AcDbCircle
 10
11.33751321191844
 20
1.985676862557237
 30
0.0
 40
0.0249058752826653
100
AcDbArc
 50
89.99971217465335
 51
179.9999999999985
  0
LINE
  5
3CF952D4DD88C6EF
330
3CF952D4DD88BFEC
100
AcDbEntity
  8
TEXT
100
AcDbLine
 10
11.25031244549541
 20
1.969647453943238
 30
0.0
 11
11.20656167431351
 21
2.051897729939383
 31
0.0
  0
LINE
  5
3CF952D4DD88C6F0
330
3CF952D4DD88BFEC
100
AcDbEntity
  8
TEXT
100
AcDbLine
 10
11.25031244549541
 20
2.074859432496666
 30
0.0
 11
11.25031244549541
 21
1.969647453943238
 31
0.0
  0
ARC
  5
3CF952D4DD88C6F1
330
3CF952D4DD88BFEC
100
AcDbEntity
  8
TEXT
100
AcDbCircle
 10
11.14232160827589
 20
1.982223362839903
 30
0.0
 40
0.028359375
100
AcDbArc
 50
25.78218179591245
 51
90.0
  0
LINE
  5
3CF952D4DD88C6F2
330
3CF952D4DD88BFEC
100
AcDbEntity
  8
TEXT
100
AcDbLine
 10
10.68032714709214
 20
1.890774237611154
 30
0.0
 11
10.68032714709214
 21
2.142870910235476
 31
0.0
  0
LINE
  5
3CF952D4DD88C6F3
330
3CF952D4DD88BFEC
100
AcDbEntity
  8
TEXT
100
AcDbLine
 10
10.7126390012298
 20
2.074859432496666
 30
0.0
 11
10.7126390012298
 21
1.873995225764257
 31
0.0
  0
LINE
  5
3CF952D4DD88C6F4
330
3CF952D4DD88BFEC
100
AcDbEntity
  8
TEXT
100
AcDbLine
 10
10.5833965217324
 20
2.074859432496666
 30
0.0
 11
10.52464795892654
 21
1.973987436383545
 31
0.0
  0
LINE
  5
3CF952D4DD88C6F5
330
3CF952D4DD88BFEC
100
AcDbEntity
  8
TEXT
100
AcDbLine
 10
10.52464795892654
 20
1.973987436383545
 30
0.0
 11
10.4660176378946
 21
2.074859432496666
 31
0.0
  0
ARC
  5
3CF952D4DD88C6F6
330
3CF952D4DD88BFEC
100
AcDbEntity
  8
TEXT
100
AcDbCircle
 10
10.15844431400817
 20
1.992771973050164
 30
0.0
 40
0.0820874594465043
100
AcDbArc
 50
90.0
 51
270.0
  0
LWPOLYLINE
  5
3CF952D4DD88C6F7
330
3CF952D4DD88BFEC
100
AcDbEntity
  8
TEXT
100
AcDbPolyline
 90
        2
 70
     0
 43
0.0001332181640625
 10
9.75035798090721
 20
2.001589442262289
 10
9.74036661860252
 20
2.074859432496669
  0
LWPOLYLINE
  5
3CF952D4DD88C6F8
330
3CF952D4DD88BFEC
100
AcDbEntity
  8
TEXT
100
AcDbPolyline
 90
        2
 70
     0
 43
0.0001332181640625
 10
9.74036661860252
 20
2.048215799684168
 10
9.75035798090721
 20
1.988267625856042
  0
LWPOLYLINE
  5
3CF952D4DD88C6F9
330
3CF952D4DD88BFEC
100
AcDbEntity
  8
TEXT
100
AcDbPolyline
 90
        2
 70
     0
 43
0.0001332181640625
 10
9.780332067821271
 20
2.048215799684168
 10
9.770340705516582
 20
1.988267625856042
  0
LWPOLYLINE
  5
3CF952D4DD88C6FA
330
3CF952D4DD88BFEC
100
AcDbEntity
  8
TEXT
100
AcDbPolyline
 90
        2
 70
     0
 43
0.0001332181640625
 10
9.780332067821271
 20
2.074859432496669
 10
9.770340705516582
 20
2.001589442262289
  0
LWPOLYLINE
  5
3CF952D4DD88C6FB
330
3CF952D4DD88BFEC
100
AcDbEntity
  8
TEXT
100
AcDbPolyline
 90
        3
 70
     0
 43
0.0006660908203125
 10
9.893567507274397
 20
1.961623993043541
 10
9.893567507274397
 20
2.074859432496669
 10
9.780332067821271
 20
2.074859432496669
  0
LWPOLYLINE
  5
3CF952D4DD88C6FC
330
3CF952D4DD88BFEC
100
AcDbEntity
  8
TEXT
100
AcDbPolyline
 90
        3
 70
     0
 43
0.0006660908203125
 10
9.866923874461896
 20
1.961623993043541
 10
9.866923874461896
 20
2.048215799684168
 10
9.780332067821271
 20
2.048215799684168
  0
LWPOLYLINE
  5
3CF952D4DD88C6FD
330
3CF952D4DD88BFEC
100
AcDbEntity
  8
TEXT
100
AcDbPolyline
 90
        2
 70
     0
 43
0.0001332181640625
 10
9.866923874461896
 20
2.048215799684168
 10
9.806975700633772
 20
1.988267625856042
  0
LWPOLYLINE
  5
3CF952D4DD88C6FE
330
3CF952D4DD88BFEC
100
AcDbEntity
  8
TEXT
100
AcDbPolyline
 90
        2
 70
     0
 43
0.0001332181640625
 10
9.653774811961895
 20
2.048215799684168
 10
9.71372298579002
 20
1.988267625856042
  0
LWPOLYLINE
  5
3CF952D4DD88C6FF
330
3CF952D4DD88BFEC
100
AcDbEntity
  8
TEXT
100
AcDbPolyline
 90
        3
 70
     0
 43
0.0006660908203125
 10
9.74036661860252
 20
2.074859432496669
 10
9.627131179149397
 20
2.074859432496669
 10
9.627131179149397
 20
1.961623993043541
  0
LWPOLYLINE
  5
3CF952D4DD88C700
330
3CF952D4DD88BFEC
100
AcDbEntity
  8
TEXT
100
AcDbPolyline
 90
        3
 70
     0
 43
0.0006660908203125
 10
9.74036661860252
 20
2.048215799684168
 10
9.653774811961895
 20
2.048215799684168
 10
9.653774811961895
 20
1.961623993043541
  0
LINE
  5
3CF952D4DD88C701
330
3CF952D4DD88BFEC
100
AcDbEntity
  8
TEXT
100
AcDbLine
 10
10.22928178036672
 20
1.974778016229272
 30
0.0
 11
10.16368164412242
 21
1.974778016229272
 31
0.0
  0
LINE
  5
3CF952D4DD88C702
330
3CF952D4DD88BFEC
100
AcDbEntity
  8
TEXT
100
AcDbLine
 10
10.15844431400817
 20
1.910684513603658
 30
0.0
 11
10.234222154273
 21
1.910684513603658
 31
0.0
  0
LINE
  5
3CF952D4DD88C703
330
3CF952D4DD88BFEC
100
AcDbEntity
  8
TEXT
100
AcDbLine
 10
10.07635685456167
 20
1.808386399508155
 30
0.0
 11
10.22928178036672
 21
1.808386399508155
 31
0.0
  0
LINE
  5
3CF952D4DD88C704
330
3CF952D4DD88BFEC
100
AcDbEntity
  8
TEXT
100
AcDbLine
 10
10.234222154273
 20
1.876743405841594
 30
0.0
 11
10.07635685456166
 21
1.876743405841594
 31
0.0
  0
LINE
  5
3CF952D4DD88C705
330
3CF952D4DD88BFEC
100
AcDbEntity
  8
TEXT
100
AcDbLine
 10
10.16368164412242
 20
2.0105827378399
 30
0.0
 11
10.33058729815139
 21
2.0105827378399
 31
0.0
  0
LWPOLYLINE
  5
3CF952D4DD88C706
330
3CF952D4DD88BFEC
100
AcDbEntity
  8
TEXT
100
AcDbPolyline
 90
        2
 70
     0
 43
0.0006660908203125
 10
9.866923874461896
 20
1.961623993043541
 10
9.893567507274397
 20
1.961623993043541
  0
LWPOLYLINE
  5
3CF952D4DD88C707
330
3CF952D4DD88BFEC
100
AcDbEntity
  8
TEXT
100
AcDbPolyline
 90
        2
 70
     0
 43
0.0001332181640625
 10
9.820297517040021
 20
1.951632630738853
 10
9.893567507274397
 20
1.961623993043541
  0
LWPOLYLINE
  5
3CF952D4DD88C708
330
3CF952D4DD88BFEC
100
AcDbEntity
  8
TEXT
100
AcDbPolyline
 90
        2
 70
     0
 43
0.0006660908203125
 10
9.866923874461896
 20
1.921658543824793
 10
9.893567507274397
 20
1.921658543824793
  0
LWPOLYLINE
  5
3CF952D4DD88C709
330
3CF952D4DD88BFEC
100
AcDbEntity
  8
TEXT
100
AcDbPolyline
 90
        3
 70
     0
 43
0.0006660908203125
 10
9.780332067821271
 20
1.808423104371666
 10
9.893567507274397
 20
1.808423104371666
 10
9.893567507274397
 20
1.921658543824793
  0
LWPOLYLINE
  5
3CF952D4DD88C70A
330
3CF952D4DD88BFEC
100
AcDbEntity
  8
TEXT
100
AcDbPolyline
 90
        2
 70
     0
 43
0.0001332181640625
 10
9.893567507274397
 20
1.921658543824793
 10
9.820297517040021
 20
1.931649906129479
  0
LWPOLYLINE
  5
3CF952D4DD88C70B
330
3CF952D4DD88BFEC
100
AcDbEntity
  8
TEXT
100
AcDbPolyline
 90
        3
 70
     0
 43
0.0006660908203125
 10
9.627131179149397
 20
1.921658543824793
 10
9.627131179149397
 20
1.808423104371666
 10
9.74036661860252
 20
1.808423104371666
  0
LWPOLYLINE
  5
3CF952D4DD88C70C
330
3CF952D4DD88BFEC
100
AcDbEntity
  8
TEXT
100
AcDbPolyline
 90
        3
 70
     0
 43
0.0006660908203125
 10
9.653774811961895
 20
1.921658543824793
 10
9.653774811961895
 20
1.835066737184167
 10
9.74036661860252
 20
1.835066737184167
  0
LWPOLYLINE
  5
3CF952D4DD88C70D
330
3CF952D4DD88BFEC
100
AcDbEntity
  8
TEXT
100
AcDbPolyline
 90
        5
 70
     0
 43
0.0001332181640625
 10
9.75035798090721
 20
1.881693094606042
 10
9.75035798090721
 20
1.895014911012292
 10
9.713722985790022
 20
1.895014911012292
 10
9.713722985790022
 20
1.931649906129479
 10
9.700401169383772
 20
1.931649906129479
  0
LWPOLYLINE
  5
3CF952D4DD88C70E
330
3CF952D4DD88BFEC
100
AcDbEntity
  8
TEXT
100
AcDbPolyline
 90
        5
 70
     0
 43
0.0001332181640625
 10
9.700401169383772
 20
1.951632630738853
 10
9.71372298579002
 20
1.951632630738853
 10
9.71372298579002
 20
1.988267625856042
 10
9.75035798090721
 20
1.988267625856042
 10
9.75035798090721
 20
2.001589442262289
  0
LWPOLYLINE
  5
3CF952D4DD88C70F
330
3CF952D4DD88BFEC
100
AcDbEntity
  8
TEXT
100
AcDbPolyline
 90
        2
 70
     0
 43
0.0001332181640625
 10
9.653774811961895
 20
1.961623993043541
 10
9.71372298579002
 20
1.951632630738853
  0
LWPOLYLINE
  5
3CF952D4DD88C710
330
3CF952D4DD88BFEC
100
AcDbEntity
  8
TEXT
100
AcDbPolyline
 90
        2
 70
     0
 43
0.0001332181640625
 10
9.627131179149397
 20
1.961623993043541
 10
9.700401169383772
 20
1.951632630738853
  0
LWPOLYLINE
  5
3CF952D4DD88C711
330
3CF952D4DD88BFEC
100
AcDbEntity
  8
TEXT
100
AcDbPolyline
 90
        2
 70
     0
 43
0.0006660908203125
 10
9.653774811961895
 20
1.961623993043541
 10
9.627131179149397
 20
1.961623993043541
  0
LWPOLYLINE
  5
3CF952D4DD88C712
330
3CF952D4DD88BFEC
100
AcDbEntity
  8
TEXT
100
AcDbPolyline
 90
        2
 70
     0
 43
0.0001332181640625
 10
9.653774811961895
 20
1.835066737184167
 10
9.713722985790022
 20
1.895014911012292
  0
LWPOLYLINE
  5
3CF952D4DD88C713
330
3CF952D4DD88BFEC
100
AcDbEntity
  8
TEXT
100
AcDbPolyline
 90
        2
 70
     0
 43
0.0006660908203125
 10
9.653774811961895
 20
1.921658543824793
 10
9.627131179149397
 20
1.921658543824793
  0
LWPOLYLINE
  5
3CF952D4DD88C714
330
3CF952D4DD88BFEC
100
AcDbEntity
  8
TEXT
100
AcDbPolyline
 90
        2
 70
     0
 43
0.0001332181640625
 10
9.700401169383772
 20
1.931649906129479
 10
9.627131179149397
 20
1.921658543824793
  0
LWPOLYLINE
  5
3CF952D4DD88C715
330
3CF952D4DD88BFEC
100
AcDbEntity
  8
TEXT
100
AcDbPolyline
 90
        2
 70
     0
 43
0.0001332181640625
 10
9.653774811961895
 20
1.921658543824793
 10
9.713722985790022
 20
1.931649906129479
  0
LWPOLYLINE
  5
3CF952D4DD88C716
330
3CF952D4DD88BFEC
100
AcDbEntity
  8
TEXT
100
AcDbPolyline
 90
        5
 70
     0
 43
0.0001332181640625
 10
9.770340705516582
 20
2.001589442262289
 10
9.770340705516582
 20
1.988267625856042
 10
9.806975700633772
 20
1.988267625856042
 10
9.806975700633772
 20
1.951632630738853
 10
9.820297517040021
 20
1.951632630738853
  0
LWPOLYLINE
  5
3CF952D4DD88C717
330
3CF952D4DD88BFEC
100
AcDbEntity
  8
TEXT
100
AcDbPolyline
 90
        2
 70
     0
 43
0.0001332181640625
 10
9.866923874461896
 20
1.961623993043541
 10
9.806975700633772
 20
1.951632630738853
  0
LWPOLYLINE
  5
3CF952D4DD88C718
330
3CF952D4DD88BFEC
100
AcDbEntity
  8
TEXT
100
AcDbPolyline
 90
        2
 70
     0
 43
0.0006660908203125
 10
9.74036661860252
 20
1.835066737184167
 10
9.74036661860252
 20
1.808423104371666
  0
LWPOLYLINE
  5
3CF952D4DD88C719
330
3CF952D4DD88BFEC
100
AcDbEntity
  8
TEXT
100
AcDbPolyline
 90
        2
 70
     0
 43
0.0001332181640625
 10
9.74036661860252
 20
1.835066737184167
 10
9.75035798090721
 20
1.895014911012292
  0
LWPOLYLINE
  5
3CF952D4DD88C71A
330
3CF952D4DD88BFEC
100
AcDbEntity
  8
TEXT
100
AcDbPolyline
 90
        2
 70
     0
 43
0.0001332181640625
 10
9.74036661860252
 20
1.808423104371666
 10
9.75035798090721
 20
1.881693094606042
  0
LWPOLYLINE
  5
3CF952D4DD88C71B
330
3CF952D4DD88BFEC
100
AcDbEntity
  8
TEXT
100
AcDbPolyline
 90
        2
 70
     0
 43
0.0001332181640625
 10
9.780332067821271
 20
1.835066737184167
 10
9.770340705516582
 20
1.895014911012292
  0
LWPOLYLINE
  5
3CF952D4DD88C71C
330
3CF952D4DD88BFEC
100
AcDbEntity
  8
TEXT
100
AcDbPolyline
 90
        2
 70
     0
 43
0.0001332181640625
 10
9.770340705516582
 20
1.881693094606042
 10
9.780332067821271
 20
1.808423104371666
  0
LWPOLYLINE
  5
3CF952D4DD88C71D
330
3CF952D4DD88BFEC
100
AcDbEntity
  8
TEXT
100
AcDbPolyline
 90
        2
 70
     0
 43
0.0006660908203125
 10
9.780332067821271
 20
1.835066737184167
 10
9.780332067821271
 20
1.808423104371666
  0
LWPOLYLINE
  5
3CF952D4DD88C71E
330
3CF952D4DD88BFEC
100
AcDbEntity
  8
TEXT
100
AcDbPolyline
 90
        2
 70
     0
 43
0.0001332181640625
 10
9.866923874461896
 20
1.835066737184167
 10
9.806975700633772
 20
1.895014911012292
  0
LWPOLYLINE
  5
3CF952D4DD88C71F
330
3CF952D4DD88BFEC
100
AcDbEntity
  8
TEXT
100
AcDbPolyline
 90
        3
 70
     0
 43
0.0006660908203125
 10
9.780332067821271
 20
1.835066737184167
 10
9.866923874461896
 20
1.835066737184167
 10
9.866923874461896
 20
1.921658543824793
  0
LWPOLYLINE
  5
3CF952D4DD88C720
330
3CF952D4DD88BFEC
100
AcDbEntity
  8
TEXT
100
AcDbPolyline
 90
        2
 70
     0
 43
0.0001332181640625
 10
9.866923874461896
 20
1.921658543824793
 10
9.806975700633772
 20
1.931649906129479
  0
LWPOLYLINE
  5
3CF952D4DD88C721
330
3CF952D4DD88BFEC
100
AcDbEntity
  8
TEXT
100
AcDbPolyline
 90
        5
 70
     0
 43
0.0001332181640625
 10
9.820297517040021
 20
1.931649906129479
 10
9.806975700633772
 20
1.931649906129479
 10
9.806975700633772
 20
1.895014911012292
 10
9.770340705516582
 20
1.895014911012292
 10
9.770340705516582
 20
1.881693094606042
  0
ARC
  5
3CF952D4DD88C722
330
3CF952D4DD88BFEC
100
AcDbEntity
  8
TEXT
100
AcDbCircle
 10
10.16368164412242
 20
1.992680377034588
 30
0.0
 40
0.017902360805315
100
AcDbArc
 50
90.0
 51
270.0
  0
LINE
  5
3CF952D4DD88C723
330
3CF952D4DD88BFEC
100
AcDbEntity
  8
TEXT
100
AcDbLine
 10
10.07635685456166
 20
1.876743405841594
 30
0.0
 11
10.07635685456167
 21
1.808386399508155
 31
0.0
  0
TEXT
  5
3CF952D4DD88C724
330
3CF952D4DD88BFEC
100
AcDbEntity
  8
TEXT
100
AcDbText
 10
11.7830848712167
 20
1.808013781187359
 30
0.0
 40
0.0522247191011236
  1
Phone  1-800-328-2495
 41
1.272321428571429
 72
     5
 11
13.11201745548637
 21
1.808013781187359
 31
0.0
100
AcDbText
  0
TEXT
  5
3CF952D4DD88C725
330
3CF952D4DD88BFEC
100
AcDbEntity
  8
TEXT
100
AcDbText
 10
11.7830848712167
 20
1.901272208153651
 30
0.0
 40
0.0522247191011236
  1
Minneapolis, MN 55432-0008
 41
1.11444212721585
 72
     5
 11
13.11201745548637
 21
1.901272208153651
 31
0.0
100
AcDbText
  0
LINE
  5
3CF952D4DD88C726
330
3CF952D4DD88BFEC
100
AcDbEntity
  8
TEXT
100
AcDbLine
 10
11.33751321191844
 20
2.0105827378399
 30
0.0
 11
11.414161193211
 21
2.0105827378399
 31
0.0
  0
LINE
  5
3CF952D4DD88C727
330
3CF952D4DD88BFEC
100
AcDbEntity
  8
TEXT
100
AcDbLine
 10
10.77947005428777
 20
2.0105827378399
 30
0.0
 11
10.82930533411092
 21
2.0105827378399
 31
0.0
  0
ARC
  5
3CF952D4DD88C728
330
3CF952D4DD88BFEC
100
AcDbEntity
  8
TEXT
100
AcDbCircle
 10
10.48100416201737
 20
1.84793412178185
 30
0.0
 40
0.0392772371940762
100
AcDbArc
 50
270.1604552698595
 51
330.0831797321295
  0
ARC
  5
3CF952D4DD88C729
330
3CF952D4DD88BFEC
100
AcDbEntity
  8
TEXT
100
AcDbCircle
 10
10.39070331612514
 20
1.868178790846204
 30
0.0
 40
0.0601160179737537
100
AcDbArc
 50
180.0000000000003
 51
264.0521544866073
  0
LINE
  5
3CF952D4DD88C72A
330
3CF952D4DD88BFEC
100
AcDbEntity
  8
TEXT
100
AcDbLine
 10
10.33058729815139
 20
2.0105827378399
 30
0.0
 11
10.33058729815139
 21
1.868178790846204
 31
0.0
  0
ARC
  5
3CF952D4DD88C72B
330
3CF952D4DD88BFEC
100
AcDbEntity
  8
TEXT
100
AcDbCircle
 10
10.234222154273
 20
1.893713959722628
 30
0.0
 40
0.0169705538810321
100
AcDbArc
 50
270.0
 51
90.0
  0
ARC
  5
3CF952D4DD88C72C
330
3CF952D4DD88BFEC
100
AcDbEntity
  8
TEXT
100
AcDbCircle
 10
10.22928178036672
 20
1.891582207868712
 30
0.0
 40
0.0831958083605586
100
AcDbArc
 50
270.0
 51
90.0
  0
LWPOLYLINE
  5
3CF952D4DD88C72D
330
3CF952D4DD88BFEC
100
AcDbEntity
  8
TEXT
100
AcDbPolyline
 90
        6
 70
     1
 43
0.0
 10
10.42699770920664
 20
2.0105827378399
 10
10.39668111498644
 20
2.0105827378399
 10
10.39668111498644
 20
1.887471739785006
 42
0.407328721240804
 10
10.40822476614791
 20
1.87565282510862
 10
10.46884646519264
 20
1.87565282510862
 10
10.48631180559996
 20
1.908465054152099
  0
LINE
  5
3CF952D4DD88C72E
330
3CF952D4DD88BFEC
100
AcDbEntity
  8
TEXT
100
AcDbLine
 10
10.38447390563149
 20
1.808386399508155
 30
0.0
 11
10.48111415670649
 21
1.808657038606437
 31
0.0
  0
LWPOLYLINE
  5
3CF952D4DD88C72F
330
3CF952D4DD88BFEC
100
AcDbEntity
  8
TEXT
100
AcDbPolyline
 90
        2
 70
     0
 43
0.0
 10
10.61234742802302
 20
1.859937741723083
 42
0.3318488747599744
 10
10.68146672058834
 20
1.808386399508155
 42
-6.868794160588311
  0
LINE
  5
3CF952D4DD88C730
330
3CF952D4DD88BFEC
100
AcDbEntity
  8
TEXT
100
AcDbLine
 10
10.61234742802302
 20
1.992695116548436
 30
0.0
 11
10.61234742802302
 21
1.859937741723079
 31
0.0
  0
LINE
  5
3CF952D4DD88C731
330
3CF952D4DD88BFEC
100
AcDbEntity
  8
TEXT
100
AcDbLine
 10
10.51504772192958
 20
1.828344905613167
 30
0.0
 11
10.61234742802302
 21
1.992695116548436
 31
0.0
  0
ARC
  5
3CF952D4DD88C732
330
3CF952D4DD88BFEC
100
AcDbEntity
  8
TEXT
100
AcDbCircle
 10
10.6956453643452
 20
1.889377032007683
 30
0.0
 40
0.0153818062434269
100
AcDbArc
 50
174.7883570302258
 51
270.0
  0
LINE
  5
3CF952D4DD88C733
330
3CF952D4DD88BFEC
100
AcDbEntity
  8
TEXT
100
AcDbLine
 10
10.7126390012298
 20
1.873995225764257
 30
0.0
 11
10.6956453643452
 21
1.873995225764257
 31
0.0
  0
LINE
  5
3CF952D4DD88C734
330
3CF952D4DD88BFEC
100
AcDbEntity
  8
TEXT
100
AcDbLine
 10
10.68146672058833
 20
1.808386399508155
 30
0.0
 11
10.77947005428777
 21
1.808386399508155
 31
0.0
  0
LINE
  5
3CF952D4DD88C735
330
3CF952D4DD88BFEC
100
AcDbEntity
  8
TEXT
100
AcDbLine
 10
10.77947005428777
 20
1.808386399508155
 30
0.0
 11
10.77947005428777
 21
2.0105827378399
 31
0.0
  0
LINE
  5
3CF952D4DD88C736
330
3CF952D4DD88BFEC
100
AcDbEntity
  8
TEXT
100
AcDbLine
 10
11.14232160827589
 20
2.0105827378399
 30
0.0
 11
11.0351153348886
 21
2.0105827378399
 31
0.0
  0
LINE
  5
3CF952D4DD88C737
330
3CF952D4DD88BFEC
100
AcDbEntity
  8
TEXT
100
AcDbLine
 10
11.09583469379663
 20
1.973307764377768
 30
0.0
 11
11.17812268358001
 21
1.973307764377768
 31
0.0
  0
LWPOLYLINE
  5
3CF952D4DD88C738
330
3CF952D4DD88BFEC
100
AcDbEntity
  8
TEXT
100
AcDbPolyline
 90
        4
 70
     1
 43
0.0
 10
11.19105372486291
 20
1.91135037749218
 10
11.10239340620305
 20
1.91135037749218
 42
0.9999999999999998
 10
11.10239340620305
 20
1.868951836988319
 10
11.19105372486291
 20
1.868951836988319
 42
1.0
  0
LWPOLYLINE
  5
3CF952D4DD88C739
330
3CF952D4DD88BFEC
100
AcDbEntity
  8
TEXT
100
AcDbPolyline
 90
        2
 70
     0
 43
0.0
 10
11.07715877230143
 20
1.808386399508155
 10
11.2111761899328
 20
1.808386399508155
 42
0.9999999999999998
  0
LINE
  5
3CF952D4DD88C73A
330
3CF952D4DD88BFEC
100
AcDbEntity
  8
TEXT
100
AcDbLine
 10
10.90391717005887
 20
2.0105827378399
 30
0.0
 11
10.95805076697982
 21
2.0105827378399
 31
0.0
  0
LINE
  5
3CF952D4DD88C73B
330
3CF952D4DD88BFEC
100
AcDbEntity
  8
TEXT
100
AcDbLine
 10
10.83685912327703
 20
1.808386399508155
 30
0.0
 11
10.90391717005887
 21
1.808386399508155
 31
0.0
  0
LINE
  5
3CF952D4DD88C73C
330
3CF952D4DD88BFEC
100
AcDbEntity
  8
TEXT
100
AcDbLine
 10
10.90391717005887
 20
1.808386399508155
 30
0.0
 11
10.90391717005887
 21
2.0105827378399
 31
0.0
  0
LINE
  5
3CF952D4DD88C73D
330
3CF952D4DD88BFEC
100
AcDbEntity
  8
TEXT
100
AcDbLine
 10
10.83685912327703
 20
2.00302894867379
 30
0.0
 11
10.83685912327703
 21
1.808386399508155
 31
0.0
  0
LWPOLYLINE
  5
3CF952D4DD88C73E
330
3CF952D4DD88BFEC
100
AcDbEntity
  8
TEXT
100
AcDbPolyline
 90
        2
 70
     0
 43
0.0
 10
10.82930533411092
 20
2.0105827378399
 42
-0.4142135623731017
 10
10.83685912327703
 20
2.00302894867379
 42
-0.9999999999999998
  0
LINE
  5
3CF952D4DD88C73F
330
3CF952D4DD88BFEC
100
AcDbEntity
  8
TEXT
100
AcDbLine
 10
11.0351153348886
 20
2.0105827378399
 30
0.0
 11
11.0351153348886
 21
1.935530331765694
 31
0.0
  0
ARC
  5
3CF952D4DD88C740
330
3CF952D4DD88BFEC
100
AcDbEntity
  8
TEXT
100
AcDbCircle
 10
11.09583469379663
 20
1.905622183233649
 30
0.0
 40
0.0676855811441166
100
AcDbArc
 50
90.0
 51
153.7768192527749
  0
LWPOLYLINE
  5
3CF952D4DD88C741
330
3CF952D4DD88BFEC
100
AcDbEntity
  8
TEXT
100
AcDbPolyline
 90
        2
 70
     0
 43
0.0
 10
11.03408283943379
 20
1.851877344458593
 42
0.2901071551932823
 10
11.07715877230143
 20
1.808386399508155
 42
5.328517124445801
  0
LWPOLYLINE
  5
3CF952D4DD88C742
330
3CF952D4DD88BFEC
100
AcDbEntity
  8
TEXT
100
AcDbPolyline
 90
        2
 70
     0
 43
0.0
 10
10.95805076697982
 20
2.0105827378399
 42
-0.4142135623731017
 10
10.96560455614594
 20
2.00302894867379
 42
-0.9999999999999998
  0
LWPOLYLINE
  5
3CF952D4DD88C743
330
3CF952D4DD88BFEC
100
AcDbEntity
  8
TEXT
100
AcDbPolyline
 90
        4
 70
     0
 43
0.0
 10
10.96560455614594
 20
2.00302894867379
 10
10.96560455614594
 20
1.808386399508155
 10
11.03408283943379
 20
1.808386399508155
 10
11.03408283943379
 20
1.851877344458593
 42
-1.714843617202739
  0
LWPOLYLINE
  5
3CF952D4DD88C744
330
3CF952D4DD88BFEC
100
AcDbEntity
  8
TEXT
100
AcDbPolyline
 90
        2
 70
     0
 43
0.0
 10
11.25425212280045
 20
1.851877344458593
 42
-0.2901071551932486
 10
11.2111761899328
 20
1.808386399508155
 42
-5.328517124445184
  0
LWPOLYLINE
  5
3CF952D4DD88C745
330
3CF952D4DD88BFEC
100
AcDbEntity
  8
TEXT
100
AcDbPolyline
 90
        2
 70
     0
 43
0.0
 10
11.25425212280045
 20
1.808386399508155
 10
11.31260733663578
 20
1.808386399508155
  0
LWPOLYLINE
  5
3CF952D4DD88C746
330
3CF952D4DD88BFEC
100
AcDbEntity
  8
TEXT
100
AcDbPolyline
 90
        2
 70
     0
 43
0.0
 10
11.25425212280045
 20
1.851877344458593
 10
11.25425212280045
 20
1.808386399508155
  0
LINE
  5
3CF952D4DD88C747
330
3CF952D4DD88BFEC
100
AcDbEntity
  8
TEXT
100
AcDbLine
 10
11.17812268358001
 20
1.973307764377768
 30
0.0
 11
11.16785792316645
 21
1.994558303950462
 31
0.0
  0
LINE
  5
3CF952D4DD88C748
330
3CF952D4DD88BFEC
100
AcDbEntity
  8
TEXT
100
AcDbLine
 10
11.31260733663578
 20
1.808386399508155
 30
0.0
 11
11.31260733663578
 21
1.985676904939623
 31
0.0
  0
LINE
  5
3CF952D4DD88C749
330
3CF952D4DD88BFEC
100
AcDbEntity
  8
TEXT
100
AcDbLine
 10
11.6310212831173
 20
1.808386399508155
 30
0.0
 11
11.53552905975369
 21
1.964966189555692
 31
0.0
  0
LINE
  5
3CF952D4DD88C74A
330
3CF952D4DD88BFEC
100
AcDbEntity
  8
TEXT
100
AcDbLine
 10
11.55444291074109
 20
1.808386399508155
 30
0.0
 11
11.6310212831173
 21
1.808386399508155
 31
0.0
  0
LINE
  5
3CF952D4DD88C74B
330
3CF952D4DD88BFEC
100
AcDbEntity
  8
TEXT
100
AcDbLine
 10
11.41416119321101
 20
1.808386399508155
 30
0.0
 11
11.47853937752963
 21
1.808386399508155
 31
0.0
  0
LINE
  5
3CF952D4DD88C74C
330
3CF952D4DD88BFEC
100
AcDbEntity
  8
TEXT
100
AcDbLine
 10
11.414161193211
 20
2.0105827378399
 30
0.0
 11
11.41416119321101
 21
1.808386399508155
 31
0.0
  0
LINE
  5
3CF952D4DD88C74D
330
3CF952D4DD88BFEC
100
AcDbEntity
  8
TEXT
100
AcDbLine
 10
11.47853937752963
 20
1.939965967984335
 30
0.0
 11
11.55444291074109
 21
1.808386399508155
 31
0.0
  0
LINE
  5
3CF952D4DD88C74E
330
3CF952D4DD88BFEC
100
AcDbEntity
  8
TEXT
100
AcDbLine
 10
11.47853937752963
 20
1.808386399508155
 30
0.0
 11
11.47853937752963
 21
1.939965967984335
 31
0.0
  0
LINE
  5
3CF952D4DD88C74F
330
3CF952D4DD88BFEC
100
AcDbEntity
  8
TEXT
100
AcDbLine
 10
10.33417606690668
 20
2.074859432496666
 30
0.0
 11
10.15844431400817
 21
2.074859432496666
 31
0.0
  0
LWPOLYLINE
  5
3CF952D4DD88C750
330
3CF952D4DD88BFEC
100
AcDbEntity
  8
TEXT
100
AcDbPolyline
 90
        2
 70
     0
 43
0.0006660908203125
 10
9.74036661860252
 20
2.048215799684168
 10
9.74036661860252
 20
2.074859432496669
  0
LWPOLYLINE
  5
3CF952D4DD88C751
330
3CF952D4DD88BFEC
100
AcDbEntity
  8
TEXT
100
AcDbPolyline
 90
        2
 70
     0
 43
0.0006660908203125
 10
9.780332067821271
 20
2.048215799684168
 10
9.780332067821271
 20
2.074859432496669
  0
TEXT
  5
3CF952D4DD88C752
330
3CF952D4DD88BFEC
100
AcDbEntity
  8
TEXT
100
AcDbText
 10
11.7830848712167
 20
2.087789062086235
 30
0.0
 40
0.0522247191011236
  1
Stylmark  Incorporated
 41
1.221428571428571
 72
     5
 11
13.11201745548637
 21
2.087789062086235
 31
0.0
100
AcDbText
  0
LINE
  5
3CF952D4DD88C753
330
3CF952D4DD88BFEC
100
AcDbEntity
  8
TEXT
100
AcDbLine
 10
11.4096813058845
 20
2.074859432496666
 30
0.0
 11
11.34218158823498
 21
2.074859432496666
 31
0.0
  0
TEXT
  5
3CF952D4DD88C754
330
3CF952D4DD88BFEC
100
AcDbEntity
  8
TEXT
100
AcDbText
 10
10.61680352249019
 20
2.254936423859734
 30
0.0
 40
0.125
  1
PART #110522
  7
ITALICC
 72
     1
 11
11.36977971296638
 21
2.254936423859734
 31
0.0
100
AcDbText
  0
LINE
  5
3CF952D4DD88C755
330
3CF952D4DD88BFEC
100
AcDbEntity
  8
TEXT
100
AcDbLine
 10
10.84665705716094
 20
2.074859432496666
 30
0.0
 11
10.7126390012298
 21
2.074859432496666
 31
0.0
  0
LINE
  5
3CF952D4DD88C756
330
3CF952D4DD88BFEC
100
AcDbEntity
  8
TEXT
100
AcDbLine
 10
10.39421867175069
 20
2.109247350090804
 30
0.0
 11
10.33417606690668
 21
2.109247350090804
 31
0.0
  0
LINE
  5
3CF952D4DD88C757
330
3CF952D4DD88BFEC
100
AcDbEntity
  8
TEXT
100
AcDbLine
 10
10.33417606690668
 20
2.109247350090804
 30
0.0
 11
10.33417606690668
 21
2.074859432496666
 31
0.0
  0
LINE
  5
3CF952D4DD88C758
330
3CF952D4DD88BFEC
100
AcDbEntity
  8
TEXT
100
AcDbLine
 10
10.4660176378946
 20
2.074859432496666
 30
0.0
 11
10.39421867175069
 21
2.074859432496666
 31
0.0
  0
LINE
  5
3CF952D4DD88C759
330
3CF952D4DD88BFEC
100
AcDbEntity
  8
TEXT
100
AcDbLine
 10
10.39421867175069
 20
2.074859432496666
 30
0.0
 11
10.39421867175069
 21
2.109247350090804
 31
0.0
  0
LINE
  5
3CF952D4DD88C75A
330
3CF952D4DD88BFEC
100
AcDbEntity
  8
TEXT
100
AcDbLine
 10
10.68032714709214
 20
2.142870910235476
 30
0.0
 11
10.61351843452577
 21
2.142870910235476
 31
0.0
  0
LINE
  5
3CF952D4DD88C75B
330
3CF952D4DD88BFEC
100
AcDbEntity
  8
TEXT
100
AcDbLine
 10
10.61351843452577
 20
2.074859432496666
 30
0.0
 11
10.5833965217324
 21
2.074859432496666
 31
0.0
  0
LINE
  5
3CF952D4DD88C75C
330
3CF952D4DD88BFEC
100
AcDbEntity
  8
TEXT
100
AcDbLine
 10
10.61351843452577
 20
2.142870910235476
 30
0.0
 11
10.61351843452577
 21
2.074859432496666
 31
0.0
  0
LINE
  5
3CF952D4DD88C75D
330
3CF952D4DD88BFEC
100
AcDbEntity
  8
TEXT
100
AcDbLine
 10
11.17135250662037
 20
2.074859432496666
 30
0.0
 11
11.03652059740331
 21
2.074859432496666
 31
0.0
  0
LWPOLYLINE
  5
3CF952D4DD88C75E
330
3CF952D4DD88BFEC
100
AcDbEntity
  8
TEXT
100
AcDbPolyline
 90
        3
 70
     0
 43
0.0
 10
11.00073890669014
 20
2.074859432496669
 10
10.8824387478741
 20
2.074859432496669
 10
10.8824387478741
 20
2.047691935735773
 42
-1.960274751411753
  0
LWPOLYLINE
  5
3CF952D4DD88C75F
330
3CF952D4DD88BFEC
100
AcDbEntity
  8
TEXT
100
AcDbPolyline
 90
        2
 70
     0
 43
0.0
 10
10.84665705716094
 20
2.074859432496669
 42
-0.3328679258950098
 10
10.8824387478741
 20
2.047691935735773
 42
6.772930709997214
  0
LINE
  5
3CF952D4DD88C760
330
3CF952D4DD88BFEC
100
AcDbEntity
  8
TEXT
100
AcDbLine
 10
11.03652059740331
 20
2.074859432496666
 30
0.0
 11
11.03652059740331
 21
2.046536886727022
 31
0.0
  0
LWPOLYLINE
  5
3CF952D4DD88C761
330
3CF952D4DD88BFEC
100
AcDbEntity
  8
TEXT
100
AcDbPolyline
 90
        2
 70
     0
 43
0.0
 10
11.00073890669014
 20
2.074859432496669
 42
-0.3277054968067132
 10
11.03652059740331
 20
2.046536886727025
 42
6.667889725900311
  0
LINE
  5
3CF952D4DD88C762
330
3CF952D4DD88BFEC
100
AcDbEntity
  8
TEXT
100
AcDbLine
 10
11.31420935179491
 20
2.074859432496666
 30
0.0
 11
11.25031244549541
 21
2.074859432496666
 31
0.0
  0
ARC
  5
3CF952D4DD88C763
330
3CF952D4DD88BFEC
100
AcDbEntity
  8
TEXT
100
AcDbCircle
 10
11.1693255668433
 20
2.033275865375763
 30
0.0
 40
0.0416329381542859
100
AcDbArc
 50
26.56974201007528
 51
87.20939649401342
  0
LINE
  5
3CF952D4DD88C764
330
3CF952D4DD88BFEC
100
AcDbEntity
  8
TEXT
100
AcDbLine
 10
11.31420935179491
 20
2.047311782635791
 30
0.0
 11
11.31420935179491
 21
2.074859432496666
 31
0.0
  0
ARC
  5
3CF952D4DD88C765
330
3CF952D4DD88BFEC
100
AcDbEntity
  8
TEXT
100
AcDbCircle
 10
11.34540216885802
 20
2.043613705214401
 30
0.0
 40
0.0314112657011332
100
AcDbArc
 50
95.88484768694724
 51
173.2388340632136
  0
LINE
  5
3CF952D4DD88C766
330
3CF952D4DD88BFEC
100
AcDbEntity
  8
TEXT
100
AcDbLine
 10
11.60008617571939
 20
2.074859432496666
 30
0.0
 11
11.52509434298977
 21
2.074859432496666
 31
0.0
  0
LINE
  5
3CF952D4DD88C767
330
3CF952D4DD88BFEC
100
AcDbEntity
  8
TEXT
100
AcDbLine
 10
11.40968130588451
 20
2.140323638264266
 30
0.0
 11
11.4096813058845
 21
2.074859432496666
 31
0.0
  0
LINE
  5
3CF952D4DD88C768
330
3CF952D4DD88BFEC
100
AcDbEntity
  8
TEXT
100
AcDbLine
 10
11.47799618443378
 20
2.140323638264266
 30
0.0
 11
11.40968130588451
 21
2.140323638264266
 31
0.0
  0
ENDSEC
  0
SECTION
  2
OBJECTS
  0
DICTIONARY
  5
3CF952D4DD88BFE0
330
0
100
AcDbDictionary
  3
ACAD_GROUP
350
3CF952D4DD88BFE1
  3
ACAD_LAYOUT
350
3CF952D4DD88C76D
  3
ACAD_MLINESTYLE
350
3CF952D4DD88BFE2
  3
ACAD_PLOTSETTINGS
350
3CF952D4DD88C76E
  3
ACAD_PLOTSTYLENAME
350
3CF952D4DD88C76B
  3
ACDBHEADERROUNDTRIPXREC
350
3CF952D4DD88C778
  3
ACDBVARIABLEDICTIONARY
350
3CF952D4DD88C775
  0
DICTIONARY
  5
3CF952D4DD88C79A
330
3CF952D4DD88BFEC
100
AcDbDictionary
280
     1
  3
ACAD_LAYOUTSELFREF
360
3CF952D4DD88C79B
  0
DICTIONARY
  5
3CF952D4DD88C798
330
3CF952D4DD88BFE9
100
AcDbDictionary
280
     1
  3
ACAD_LAYOUTSELFREF
360
3CF952D4DD88C799
  0
DICTIONARY
  5
3CF952D4DD88BFE1
102
{ACAD_REACTORS
330
3CF952D4DD88BFE0
102
}
330
3CF952D4DD88BFE0
100
AcDbDictionary
  3
*A1
350
3CF952D4DD88C007
  3
*A2
350
3CF952D4DD88C370
  3
*A3
350
3CF952D4DD88C3C4
  3
*A4
350
3CF952D4DD88C3C5
  3
*A5
350
3CF952D4DD88C63C
  0
DICTIONARY
  5
3CF952D4DD88C76D
102
{ACAD_REACTORS
330
3CF952D4DD88BFE0
102
}
330
3CF952D4DD88BFE0
100
AcDbDictionary
  0
DICTIONARY
  5
3CF952D4DD88BFE2
102
{ACAD_REACTORS
330
3CF952D4DD88BFE0
102
}
330
3CF952D4DD88BFE0
100
AcDbDictionary
  3
STANDARD
350
3CF952D4DD88BFEF
  0
DICTIONARY
  5
3CF952D4DD88C76E
102
{ACAD_REACTORS
330
3CF952D4DD88BFE0
102
}
330
3CF952D4DD88BFE0
100
AcDbDictionary
  0
ACDBDICTIONARYWDFLT
  5
3CF952D4DD88C76B
102
{ACAD_REACTORS
330
3CF952D4DD88BFE0
102
}
330
3CF952D4DD88BFE0
100
AcDbDictionary
281
     1
  3
Normal
350
3CF952D4DD88C76C
100
AcDbDictionaryWithDefault
340
3CF952D4DD88C76C
  0
DICTIONARY
  5
3CF952D4DD88C778
102
{ACAD_REACTORS
330
3CF952D4DD88BFE0
102
}
330
3CF952D4DD88BFE0
100
AcDbDictionary
  3
CEPSNTYPE
350
3CF952D4DD88C782
  3
FINGERPRINTGUID
350
3CF952D4DD88C783
  3
HYPERLINKBASE
350
3CF952D4DD88C77B
  3
INSUNITS
350
3CF952D4DD88C781
  3
LAYOUTDICT
350
3CF952D4DD88C77D
  3
LWETCUNION
350
3CF952D4DD88C780
  3
PLOTSETDICT
350
3CF952D4DD88C77E
  3
PLOTSTYLNAMDICT
350
3CF952D4DD88C77F
  3
PSVPSCALE
350
3CF952D4DD88C785
  3
PUCSBASE
350
3CF952D4DD88C788
  3
PUCSORGBACK
350
3CF952D4DD88C78E
  3
PUCSORGBOTTOM
350
3CF952D4DD88C78A
  3
PUCSORGFRONT
350
3CF952D4DD88C78D
  3
PUCSORGLEFT
350
3CF952D4DD88C78B
  3
PUCSORGRIGHT
350
3CF952D4DD88C78C
  3
PUCSORGTOP
350
3CF952D4DD88C789
  3
PUCSORTHOREF
350
3CF952D4DD88C786
  3
PUCSORTHOVIEW
350
3CF952D4DD88C787
  3
STYLESHEET
350
3CF952D4DD88C77C
  3
TSTACKALIGN
350
3CF952D4DD88C779
  3
TSTACKSIZE
350
3CF952D4DD88C77A
  3
UCSBASE
350
3CF952D4DD88C791
  3
UCSORGBACK
350
3CF952D4DD88C797
  3
UCSORGBOTTOM
350
3CF952D4DD88C793
  3
UCSORGFRONT
350
3CF952D4DD88C796
  3
UCSORGLEFT
350
3CF952D4DD88C794
  3
UCSORGRIGHT
350
3CF952D4DD88C795
  3
UCSORGTOP
350
3CF952D4DD88C792
  3
UCSORTHOREF
350
3CF952D4DD88C78F
  3
UCSORTHOVIEW
350
3CF952D4DD88C790
  3
VERSIONGUID
350
3CF952D4DD88C784
  0
DICTIONARY
  5
3CF952D4DD88C775
102
{ACAD_REACTORS
330
3CF952D4DD88BFE0
102
}
330
3CF952D4DD88BFE0
100
AcDbDictionary
  3
DIMASSOC
350
3CF952D4DD88C776
  0
XRECORD
  5
3CF952D4DD88C79B
102
{ACAD_REACTORS
330
3CF952D4DD88C79A
102
}
330
3CF952D4DD88C79A
100
AcDbXrecord
340
3CF952D4DD88BFEC
  0
XRECORD
  5
3CF952D4DD88C799
102
{ACAD_REACTORS
330
3CF952D4DD88C798
102
}
330
3CF952D4DD88C798
100
AcDbXrecord
340
3CF952D4DD88BFE9
  0
GROUP
  5
3CF952D4DD88C007
102
{ACAD_REACTORS
330
3CF952D4DD88BFE1
102
}
330
3CF952D4DD88BFE1
100
AcDbGroup
300
BORDER FRAME 10-1-95
 70
     3
 71
     1
  0
GROUP
  5
3CF952D4DD88C370
102
{ACAD_REACTORS
330
3CF952D4DD88BFE1
102
}
330
3CF952D4DD88BFE1
100
AcDbGroup
300

 70
     1
 71
     1
  0
GROUP
  5
3CF952D4DD88C3C4
102
{ACAD_REACTORS
330
3CF952D4DD88BFE1
102
}
330
3CF952D4DD88BFE1
100
AcDbGroup
300
BORDER FRAME 10-1-95
 70
     3
 71
     1
  0
GROUP
  5
3CF952D4DD88C3C5
102
{ACAD_REACTORS
330
3CF952D4DD88BFE1
102
}
330
3CF952D4DD88BFE1
100
AcDbGroup
300

 70
     3
 71
     1
  0
GROUP
  5
3CF952D4DD88C63C
102
{ACAD_REACTORS
330
3CF952D4DD88BFE1
102
}
330
3CF952D4DD88BFE1
100
AcDbGroup
300

 70
     1
 71
     1
  0
MLINESTYLE
  5
3CF952D4DD88BFEF
102
{ACAD_REACTORS
330
3CF952D4DD88BFE2
102
}
330
3CF952D4DD88BFE2
100
AcDbMlineStyle
  2
STANDARD
 70
     0
  3

 62
     0
 51
90.0
 52
90.0
 71
     2
 49
0.5
 62
   256
  6
BYLAYER
 49
-0.5
 62
   256
  6
BYLAYER
  0
ACDBPLACEHOLDER
  5
3CF952D4DD88C76C
102
{ACAD_REACTORS
330
3CF952D4DD88C76B
102
}
330
3CF952D4DD88C76B
100
AcDbPlaceHolder
280
     0
  0
XRECORD
  5
3CF952D4DD88C782
102
{ACAD_REACTORS
330
3CF952D4DD88C778
102
}
330
3CF952D4DD88C778
100
AcDbXrecord
 90
        0
  0
XRECORD
  5
3CF952D4DD88C783
102
{ACAD_REACTORS
330
3CF952D4DD88C778
102
}
330
3CF952D4DD88C778
100
AcDbXrecord
  1
{3A78B020-8DB8-11D6-88E6-0090279574E7}
  0
XRECORD
  5
3CF952D4DD88C77B
102
{ACAD_REACTORS
330
3CF952D4DD88C778
102
}
330
3CF952D4DD88C778
100
AcDbXrecord
  1

  0
XRECORD
  5
3CF952D4DD88C781
102
{ACAD_REACTORS
330
3CF952D4DD88C778
102
}
330
3CF952D4DD88C778
100
AcDbXrecord
 90
        0
  0
XRECORD
  5
3CF952D4DD88C77D
102
{ACAD_REACTORS
330
3CF952D4DD88C778
102
}
330
3CF952D4DD88C778
100
AcDbXrecord
340
3CF952D4DD88C76D
  0
XRECORD
  5
3CF952D4DD88C780
102
{ACAD_REACTORS
330
3CF952D4DD88C778
102
}
330
3CF952D4DD88C778
100
AcDbXrecord
 90
    14877
  0
XRECORD
  5
3CF952D4DD88C77E
102
{ACAD_REACTORS
330
3CF952D4DD88C778
102
}
330
3CF952D4DD88C778
100
AcDbXrecord
340
3CF952D4DD88C76E
  0
XRECORD
  5
3CF952D4DD88C77F
102
{ACAD_REACTORS
330
3CF952D4DD88C778
102
}
330
3CF952D4DD88C778
100
AcDbXrecord
340
3CF952D4DD88C76B
  0
XRECORD
  5
3CF952D4DD88C785
102
{ACAD_REACTORS
330
3CF952D4DD88C778
102
}
330
3CF952D4DD88C778
100
AcDbXrecord
 40
0.0
  0
XRECORD
  5
3CF952D4DD88C788
102
{ACAD_REACTORS
330
3CF952D4DD88C778
102
}
330
3CF952D4DD88C778
100
AcDbXrecord
340
0
  0
XRECORD
  5
3CF952D4DD88C78E
102
{ACAD_REACTORS
330
3CF952D4DD88C778
102
}
330
3CF952D4DD88C778
100
AcDbXrecord
 10
0.0
 20
0.0
 30
0.0
  0
XRECORD
  5
3CF952D4DD88C78A
102
{ACAD_REACTORS
330
3CF952D4DD88C778
102
}
330
3CF952D4DD88C778
100
AcDbXrecord
 10
0.0
 20
0.0
 30
0.0
  0
XRECORD
  5
3CF952D4DD88C78D
102
{ACAD_REACTORS
330
3CF952D4DD88C778
102
}
330
3CF952D4DD88C778
100
AcDbXrecord
 10
0.0
 20
0.0
 30
0.0
  0
XRECORD
  5
3CF952D4DD88C78B
102
{ACAD_REACTORS
330
3CF952D4DD88C778
102
}
330
3CF952D4DD88C778
100
AcDbXrecord
 10
0.0
 20
0.0
 30
0.0
  0
XRECORD
  5
3CF952D4DD88C78C
102
{ACAD_REACTORS
330
3CF952D4DD88C778
102
}
330
3CF952D4DD88C778
100
AcDbXrecord
 10
0.0
 20
0.0
 30
0.0
  0
XRECORD
  5
3CF952D4DD88C789
102
{ACAD_REACTORS
330
3CF952D4DD88C778
102
}
330
3CF952D4DD88C778
100
AcDbXrecord
 10
0.0
 20
0.0
 30
0.0
  0
XRECORD
  5
3CF952D4DD88C786
102
{ACAD_REACTORS
330
3CF952D4DD88C778
102
}
330
3CF952D4DD88C778
100
AcDbXrecord
340
0
  0
XRECORD
  5
3CF952D4DD88C787
102
{ACAD_REACTORS
330
3CF952D4DD88C778
102
}
330
3CF952D4DD88C778
100
AcDbXrecord
 70
     0
  0
XRECORD
  5
3CF952D4DD88C77C
102
{ACAD_REACTORS
330
3CF952D4DD88C778
102
}
330
3CF952D4DD88C778
100
AcDbXrecord
  1

  0
XRECORD
  5
3CF952D4DD88C779
102
{ACAD_REACTORS
330
3CF952D4DD88C778
102
}
330
3CF952D4DD88C778
100
AcDbXrecord
 90
        1
  0
XRECORD
  5
3CF952D4DD88C77A
102
{ACAD_REACTORS
330
3CF952D4DD88C778
102
}
330
3CF952D4DD88C778
100
AcDbXrecord
 90
       70
  0
XRECORD
  5
3CF952D4DD88C791
102
{ACAD_REACTORS
330
3CF952D4DD88C778
102
}
330
3CF952D4DD88C778
100
AcDbXrecord
340
0
  0
XRECORD
  5
3CF952D4DD88C797
102
{ACAD_REACTORS
330
3CF952D4DD88C778
102
}
330
3CF952D4DD88C778
100
AcDbXrecord
 10
0.0
 20
0.0
 30
0.0
  0
XRECORD
  5
3CF952D4DD88C793
102
{ACAD_REACTORS
330
3CF952D4DD88C778
102
}
330
3CF952D4DD88C778
100
AcDbXrecord
 10
0.0
 20
0.0
 30
0.0
  0
XRECORD
  5
3CF952D4DD88C796
102
{ACAD_REACTORS
330
3CF952D4DD88C778
102
}
330
3CF952D4DD88C778
100
AcDbXrecord
 10
0.0
 20
0.0
 30
0.0
  0
XRECORD
  5
3CF952D4DD88C794
102
{ACAD_REACTORS
330
3CF952D4DD88C778
102
}
330
3CF952D4DD88C778
100
AcDbXrecord
 10
0.0
 20
0.0
 30
0.0
  0
XRECORD
  5
3CF952D4DD88C795
102
{ACAD_REACTORS
330
3CF952D4DD88C778
102
}
330
3CF952D4DD88C778
100
AcDbXrecord
 10
0.0
 20
0.0
 30
0.0
  0
XRECORD
  5
3CF952D4DD88C792
102
{ACAD_REACTORS
330
3CF952D4DD88C778
102
}
330
3CF952D4DD88C778
100
AcDbXrecord
 10
0.0
 20
0.0
 30
0.0
  0
XRECORD
  5
3CF952D4DD88C78F
102
{ACAD_REACTORS
330
3CF952D4DD88C778
102
}
330
3CF952D4DD88C778
100
AcDbXrecord
340
0
  0
XRECORD
  5
3CF952D4DD88C790
102
{ACAD_REACTORS
330
3CF952D4DD88C778
102
}
330
3CF952D4DD88C778
100
AcDbXrecord
 70
     0
  0
XRECORD
  5
3CF952D4DD88C784
102
{ACAD_REACTORS
330
3CF952D4DD88C778
102
}
330
3CF952D4DD88C778
100
AcDbXrecord
  1
{3A78B022-8DB8-11D6-88E6-0090279574E7}
  0
DICTIONARYVAR
  5
3CF952D4DD88C776
102
{ACAD_REACTORS
330
3CF952D4DD88C775
102
}
330
3CF952D4DD88C775
100
DictionaryVariables
280
     0
  1
1
  0
ENDSEC
  0
EOF
