  0
SECTION
  2
HEADER
  9
$ACADVER
  1
AC1014
  9
$ACADMAINTVER
 70
     9
  9
$DWGCODEPAGE
  3
ANSI_1252
  9
$INSBASE
 10
8.067595363158499
 20
16.52875564819015
 30
0.0
  9
$EXTMIN
 10
2.052415130962776
 20
4.161056204209177
 30
0.0
  9
$EXTMAX
 10
5.685487341399649
 20
5.733934724601165
 30
0.0
  9
$LIMMIN
 10
0.0
 20
0.0
  9
$LIMMAX
 10
18.0
 20
12.0
  9
$ORTHOMODE
 70
     0
  9
$REGENMODE
 70
     1
  9
$FILLMODE
 70
     1
  9
$QTEXTMODE
 70
     0
  9
$MIRRTEXT
 70
     0
  9
$DRAGMODE
 70
     2
  9
$LTSCALE
 40
1.0
  9
$OSMODE
 70
    39
  9
$ATTMODE
 70
     1
  9
$TEXTSIZE
 40
0.125
  9
$TRACEWID
 40
0.05
  9
$TEXTSTYLE
  7
ROMANS
  9
$CLAYER
  8
OUTLINE
  9
$CELTYPE
  6
BYLAYER
  9
$CECOLOR
 62
   256
  9
$CELTSCALE
 40
1.0
  9
$DELOBJ
 70
     1
  9
$DISPSILH
 70
     1
  9
$DIMSCALE
 40
1.0
  9
$DIMASZ
 40
0.125
  9
$DIMEXO
 40
0.125
  9
$DIMDLI
 40
0.375
  9
$DIMRND
 40
0.0
  9
$DIMDLE
 40
0.0
  9
$DIMEXE
 40
0.125
  9
$DIMTP
 40
0.0
  9
$DIMTM
 40
0.0
  9
$DIMTXT
 40
0.125
  9
$DIMCEN
 40
-0.125
  9
$DIMTSZ
 40
0.0
  9
$DIMTOL
 70
     0
  9
$DIMLIM
 70
     0
  9
$DIMTIH
 70
     1
  9
$DIMTOH
 70
     1
  9
$DIMSE1
 70
     1
  9
$DIMSE2
 70
     1
  9
$DIMTAD
 70
     0
  9
$DIMZIN
 70
     4
  9
$DIMBLK
  1

  9
$DIMASO
 70
     1
  9
$DIMSHO
 70
     1
  9
$DIMPOST
  1

  9
$DIMAPOST
  1

  9
$DIMALT
 70
     0
  9
$DIMALTD
 70
     2
  9
$DIMALTF
 40
25.4
  9
$DIMLFAC
 40
1.0
  9
$DIMTOFL
 70
     0
  9
$DIMTVP
 40
0.0
  9
$DIMTIX
 70
     0
  9
$DIMSOXD
 70
     0
  9
$DIMSAH
 70
     0
  9
$DIMBLK1
  1

  9
$DIMBLK2
  1

  9
$DIMSTYLE
  2
STANDARD
  9
$DIMCLRD
 70
     0
  9
$DIMCLRE
 70
     0
  9
$DIMCLRT
 70
     0
  9
$DIMTFAC
 40
1.0
  9
$DIMGAP
 40
0.09
  9
$DIMJUST
 70
     0
  9
$DIMSD1
 70
     0
  9
$DIMSD2
 70
     0
  9
$DIMTOLJ
 70
     1
  9
$DIMTZIN
 70
     0
  9
$DIMALTZ
 70
     0
  9
$DIMALTTZ
 70
     0
  9
$DIMFIT
 70
     3
  9
$DIMUPT
 70
     0
  9
$DIMUNIT
 70
     2
  9
$DIMDEC
 70
     3
  9
$DIMTDEC
 70
     4
  9
$DIMALTU
 70
     2
  9
$DIMALTTD
 70
     2
  9
$DIMTXSTY
  7
ROMANS
  9
$DIMAUNIT
 70
     0
  9
$LUNITS
 70
     2
  9
$LUPREC
 70
     3
  9
$SKETCHINC
 40
0.1
  9
$FILLETRAD
 40
0.0
  9
$AUNITS
 70
     0
  9
$AUPREC
 70
     0
  9
$MENU
  1
acad
  9
$ELEVATION
 40
0.0
  9
$PELEVATION
 40
0.0
  9
$THICKNESS
 40
0.0
  9
$LIMCHECK
 70
     0
  9
$BLIPMODE
 70
     0
  9
$CHAMFERA
 40
0.0
  9
$CHAMFERB
 40
0.0
  9
$CHAMFERC
 40
0.0
  9
$CHAMFERD
 40
0.0
  9
$SKPOLY
 70
     0
  9
$TDCREATE
 40
2449104.380870717
  9
$TDUPDATE
 40
2452458.316125023
  9
$TDINDWG
 40
0.1184581597
  9
$TDUSRTIMER
 40
0.1184581597
  9
$USRTIMER
 70
     1
  9
$ANGBASE
 50
0.0
  9
$ANGDIR
 70
     0
  9
$PDMODE
 70
     0
  9
$PDSIZE
 40
0.0
  9
$PLINEWID
 40
0.0
  9
$COORDS
 70
     2
  9
$SPLFRAME
 70
     0
  9
$SPLINETYPE
 70
     6
  9
$SPLINESEGS
 70
     8
  9
$ATTDIA
 70
     0
  9
$ATTREQ
 70
     1
  9
$HANDLING
 70
 22529
  9
$HANDSEED
  5
49E
  9
$SURFTAB1
 70
     6
  9
$SURFTAB2
 70
     6
  9
$SURFTYPE
 70
     6
  9
$SURFU
 70
     6
  9
$SURFV
 70
     6
  9
$UCSNAME
  2

  9
$UCSORG
 10
0.0
 20
0.0
 30
0.0
  9
$UCSXDIR
 10
1.0
 20
0.0
 30
0.0
  9
$UCSYDIR
 10
0.0
 20
1.0
 30
0.0
  9
$PUCSNAME
  2

  9
$PUCSORG
 10
0.0
 20
0.0
 30
0.0
  9
$PUCSXDIR
 10
1.0
 20
0.0
 30
0.0
  9
$PUCSYDIR
 10
0.0
 20
1.0
 30
0.0
  9
$USERI1
 70
     0
  9
$USERI2
 70
     0
  9
$USERI3
 70
     0
  9
$USERI4
 70
     0
  9
$USERI5
 70
     0
  9
$USERR1
 40
0.0
  9
$USERR2
 40
0.0
  9
$USERR3
 40
0.0
  9
$USERR4
 40
0.0
  9
$USERR5
 40
0.0
  9
$WORLDVIEW
 70
     1
  9
$SHADEDGE
 70
     3
  9
$SHADEDIF
 70
    70
  9
$TILEMODE
 70
     1
  9
$MAXACTVP
 70
    16
  9
$PINSBASE
 10
16.20158298368914
 20
50.00000000000001
 30
5.404795012437964
  9
$PLIMCHECK
 70
     0
  9
$PEXTMIN
 10
1.000000000000000E+20
 20
1.000000000000000E+20
 30
1.000000000000000E+20
  9
$PEXTMAX
 10
-1.000000000000000E+20
 20
-1.000000000000000E+20
 30
-1.000000000000000E+20
  9
$PLIMMIN
 10
0.0
 20
0.0
  9
$PLIMMAX
 10
12.0
 20
9.0
  9
$UNITMODE
 70
     0
  9
$VISRETAIN
 70
     0
  9
$PLINEGEN
 70
     1
  9
$PSLTSCALE
 70
     0
  9
$TREEDEPTH
 70
  3020
  9
$PICKSTYLE
 70
     1
  9
$CMLSTYLE
  2
STANDARD
  9
$CMLJUST
 70
     0
  9
$CMLSCALE
 40
1.0
  9
$PROXYGRAPHICS
 70
     1
  9
$MEASUREMENT
 70
     0
  0
ENDSEC
  0
SECTION
  2
CLASSES
  0
CLASS
  1
LWPOLYLINE
  2
AcDbPolyline
  3
AutoCAD 2000
 90
        0
280
     0
281
     1
  0
CLASS
  1
ACDBDICTIONARYWDFLT
  2
AcDbDictionaryWithDefault
  3
AutoCAD 2000
 90
        0
280
     0
281
     0
  0
CLASS
  1
ACDBPLACEHOLDER
  2
AcDbPlaceHolder
  3
AutoCAD 2000
 90
        0
280
     0
281
     0
  0
CLASS
  1
LAYOUT
  2
AcDbLayout
  3
AutoCAD 2000
 90
        0
280
     0
281
     0
  0
CLASS
  1
DICTIONARYVAR
  2
AcDbDictionaryVar
  3
AutoCAD 2000
 90
        0
280
     0
281
     0
  0
CLASS
  1
LONG_TRANSACTION
  2
AcDbLongTransaction
  3
AutoCAD 2000
 90
        0
280
     0
281
     0
  0
CLASS
  1
LWPOLYLINE
  2
AcDbPolyline
  3
AutoCAD 2000
 90
        0
280
     0
281
     1
  0
CLASS
  1
HATCH
  2
AcDbHatch
  3
AutoCAD 2000
 90
        0
280
     0
281
     1
  0
CLASS
  1
XRECORD
  2
AcDbXrecord
  3
AutoCAD 2000
 90
        0
280
     0
281
     0
  0
ENDSEC
  0
SECTION
  2
TABLES
  0
TABLE
  2
VPORT
  5
8
330
0
100
AcDbSymbolTable
 70
     2
  0
VPORT
  5
479
330
8
100
AcDbSymbolTableRecord
100
AcDbViewportTableRecord
  2
*ACTIVE
 70
     0
 10
0.0
 20
0.0
 11
1.0
 21
1.0
 12
6.915930874883724
 22
4.947402084412926
 13
0.0
 23
0.0
 14
0.015625
 24
0.015625
 15
0.0
 25
0.0
 16
0.0
 26
0.0
 36
1.0
 17
0.0
 27
0.0
 37
0.0
 40
2.255819831114419
 41
4.320930232558139
 42
50.0
 43
0.0
 44
0.0
 50
0.0
 51
0.0
 71
     0
 72
  2000
 73
     1
 74
     1
 75
     0
 76
     0
 77
     0
 78
     0
  0
ENDTAB
  0
TABLE
  2
LTYPE
  5
5
330
0
100
AcDbSymbolTable
 70
     1
  0
LTYPE
  5
12
330
5
100
AcDbSymbolTableRecord
100
AcDbLinetypeTableRecord
  2
BYBLOCK
 70
     0
  3

 72
    65
 73
     0
 40
0.0
  0
LTYPE
  5
13
330
5
100
AcDbSymbolTableRecord
100
AcDbLinetypeTableRecord
  2
BYLAYER
 70
     0
  3

 72
    65
 73
     0
 40
0.0
  0
LTYPE
  5
14
330
5
100
AcDbSymbolTableRecord
100
AcDbLinetypeTableRecord
  2
CONTINUOUS
 70
     0
  3
Solid line
 72
    65
 73
     0
 40
0.0
  0
ENDTAB
  0
TABLE
  2
LAYER
  5
2
330
0
100
AcDbSymbolTable
 70
     3
  0
LAYER
  5
F
330
2
100
AcDbSymbolTableRecord
100
AcDbLayerTableRecord
  2
0
 70
     0
 62
     7
  6
CONTINUOUS
  0
LAYER
  5
2F
330
2
100
AcDbSymbolTableRecord
100
AcDbLayerTableRecord
  2
TEXT
 70
     0
 62
     3
  6
CONTINUOUS
  0
LAYER
  5
32
330
2
100
AcDbSymbolTableRecord
100
AcDbLayerTableRecord
  2
OUTLINE
 70
     0
 62
     7
  6
CONTINUOUS
  0
ENDTAB
  0
TABLE
  2
STYLE
  5
3
330
0
100
AcDbSymbolTable
 70
     3
  0
STYLE
  5
10
330
3
100
AcDbSymbolTableRecord
100
AcDbTextStyleTableRecord
  2
STANDARD
 70
     0
 40
0.0
 41
1.0
 50
0.0
 71
     0
 42
0.125
  3
txt
  4

  0
STYLE
  5
365
330
3
100
AcDbSymbolTableRecord
100
AcDbTextStyleTableRecord
  2
ITALICC
 70
     0
 40
0.0
 41
1.0
 50
0.0
 71
     0
 42
0.125
  3
italicc
  4

  0
STYLE
  5
475
330
3
100
AcDbSymbolTableRecord
100
AcDbTextStyleTableRecord
  2
ROMANS
 70
     0
 40
0.0
 41
1.0
 50
0.0
 71
     0
 42
0.125
  3
romans.shx
  4

  0
ENDTAB
  0
TABLE
  2
VIEW
  5
6
330
0
100
AcDbSymbolTable
 70
     0
  0
ENDTAB
  0
TABLE
  2
UCS
  5
7
330
0
100
AcDbSymbolTable
 70
     0
  0
ENDTAB
  0
TABLE
  2
APPID
  5
9
330
0
100
AcDbSymbolTable
 70
     1
  0
APPID
  5
11
330
9
100
AcDbSymbolTableRecord
100
AcDbRegAppTableRecord
  2
ACAD
 70
     0
  0
ENDTAB
  0
TABLE
  2
DIMSTYLE
  5
A
330
0
100
AcDbSymbolTable
 70
     1
  0
DIMSTYLE
105
358
330
A
100
AcDbSymbolTableRecord
100
AcDbDimStyleTableRecord
  2
STANDARD
 70
     0
  3

  4

  5

  6

  7

 40
1.0
 41
0.18
 42
0.0625
 43
0.38
 44
0.18
 45
0.0
 46
0.0
 47
0.0
 48
0.0
140
0.18
141
0.09
142
0.0
143
25.4
144
1.0
145
0.0
146
1.0
147
0.09
 71
     0
 72
     0
 73
     1
 74
     1
 75
     0
 76
     0
 77
     0
 78
     0
170
     0
171
     2
172
     0
173
     0
174
     0
175
     0
176
     0
177
     0
178
     0
270
     2
271
     4
272
     4
273
     2
274
     2
340
10
275
     0
280
     0
281
     0
282
     0
283
     1
284
     0
285
     0
286
     0
287
     3
288
     0
  0
ENDTAB
  0
TABLE
  2
BLOCK_RECORD
  5
1
330
0
100
AcDbSymbolTable
 70
     0
  0
BLOCK_RECORD
  5
18
102
{ACAD_XDICTIONARY
360
49C
102
}
330
1
100
AcDbSymbolTableRecord
100
AcDbBlockTableRecord
  2
*MODEL_SPACE
  0
BLOCK_RECORD
  5
15
102
{ACAD_XDICTIONARY
360
49A
102
}
330
1
100
AcDbSymbolTableRecord
100
AcDbBlockTableRecord
  2
*PAPER_SPACE
  0
ENDTAB
  0
ENDSEC
  0
SECTION
  2
BLOCKS
  0
BLOCK
  5
38
330
18
100
AcDbEntity
  8
0
100
AcDbBlockBegin
  2
*MODEL_SPACE
 70
     0
 10
0.0
 20
0.0
 30
0.0
  3
*MODEL_SPACE
  1

  0
ENDBLK
  5
39
330
18
100
AcDbEntity
  8
0
100
AcDbBlockEnd
  0
BLOCK
  5
36
330
15
100
AcDbEntity
 67
     1
  8
0
100
AcDbBlockBegin
  2
*PAPER_SPACE
 70
     0
 10
0.0
 20
0.0
 30
0.0
  3
*PAPER_SPACE
  1

  0
ENDBLK
  5
37
330
15
100
AcDbEntity
 67
     1
  8
0
100
AcDbBlockEnd
  0
ENDSEC
  0
SECTION
  2
ENTITIES
  0
LWPOLYLINE
  5
2DB
330
18
100
AcDbEntity
  8
0
100
AcDbPolyline
 90
       54
 70
     1
 43
0.0
 10
3.373662903115967
 20
5.39999376816368
 42
0.1989123673796618
 10
3.369269504833763
 20
5.389387166445883
 10
3.369269504833763
 20
5.109440990315037
 42
-0.4142135623730951
 10
3.354269504833762
 20
5.094440990315036
 10
2.07947807513907
 20
5.094440990315036
 10
2.07947807513907
 20
5.661508317729969
 42
-0.4142135623731061
 10
2.139478075139069
 20
5.721508317729972
 10
2.141478075139068
 20
5.721508317729965
 42
-0.4142135623730691
 10
2.181478075139071
 20
5.681508317729973
 10
2.173478075139072
 20
5.681508317729973
 10
2.173478075139072
 20
5.588508317729969
 42
1.0
 10
2.283478075139071
 20
5.588508317729969
 10
2.283478075139071
 20
5.681508317729973
 10
2.275478075139072
 20
5.68150831772998
 42
-0.4142135623730431
 10
2.315478075139071
 20
5.721508317729972
 10
3.082269504833762
 20
5.721508317729972
 10
3.082269504833762
 20
5.631508317729975
 10
3.210269504833763
 20
5.631508317729975
 10
3.210269504833763
 20
5.721508317729972
 10
3.876269504833762
 20
5.721508317729972
 10
4.542269504833763
 20
5.721508317729972
 10
4.542269504833763
 20
5.631508317729975
 10
4.670269504833765
 20
5.631508317729975
 10
4.670269504833765
 20
5.721508317729972
 10
5.437060934528455
 20
5.721508317729972
 42
-0.4142135623730431
 10
5.477060934528454
 20
5.68150831772998
 10
5.469060934528455
 20
5.681508317729973
 10
5.469060934528455
 20
5.588508317729969
 42
1.0
 10
5.579060934528454
 20
5.588508317729969
 10
5.579060934528454
 20
5.681508317729973
 10
5.571060934528455
 20
5.681508317729973
 42
-0.414213562373069
 10
5.611060934528458
 20
5.721508317729965
 10
5.613060934528457
 20
5.721508317729972
 42
-0.4142135623731037
 10
5.673060934528455
 20
5.661508317729969
 10
5.673060934528455
 20
5.094440990315036
 10
4.398269504833764
 20
5.094440990315036
 42
-0.4142135623730951
 10
4.383269504833764
 20
5.109440990315037
 10
4.383269504833764
 20
5.389387166445883
 42
0.1989123673796618
 10
4.37887610655156
 20
5.39999376816368
 10
4.322354293336223
 20
5.456515581379017
 42
-0.4142135623730951
 10
4.322354293336223
 20
5.500356201812587
 10
4.378876106551564
 20
5.556878015027921
 42
0.1989123673796587
 10
4.383269504833764
 20
5.567484616745725
 10
4.383269504833764
 20
5.616508317729975
 42
0.4142135623730951
 10
4.368269504833763
 20
5.631508317729975
 10
3.896269504833762
 20
5.631508317729976
 10
3.876269504833762
 20
5.651508317729975
 10
3.856269504833763
 20
5.631508317729975
 10
3.384269504833763
 20
5.631508317729975
 42
0.4142135623730777
 10
3.369269504833764
 20
5.616508317729975
 10
3.369269504833763
 20
5.567484616745725
 42
0.1989123673796588
 10
3.373662903115963
 20
5.556878015027921
 10
3.430184716331304
 20
5.500356201812587
 42
-0.4142135623730951
 10
3.430184716331304
 20
5.456515581379017
  0
LWPOLYLINE
  5
313
330
18
100
AcDbEntity
  8
0
  6
CONTINUOUS
100
AcDbPolyline
 90
       15
 70
     1
 43
0.0
 10
2.169478075139074
 20
5.19944099031504
 10
2.169478075139067
 20
5.428508317729972
 42
-0.4142135623730951
 10
2.184478075139067
 20
5.443508317729973
 10
2.248478075139071
 20
5.443508317729973
 42
0.4142135623731617
 10
2.373478075139071
 20
5.568508317730001
 10
2.37347807513906
 20
5.616508317729968
 42
-0.4142135623730951
 10
2.388478075139061
 20
5.631508317729975
 10
2.992269504833762
 20
5.631508317729975
 10
2.992269504833763
 20
5.556508317729973
 42
0.4142135623730776
 10
3.007269504833763
 20
5.541508317729972
 10
3.264269504833764
 20
5.541508317729972
 42
-0.4142135623730864
 10
3.279269504833765
 20
5.526508317729971
 10
3.279269504833762
 20
5.19944099031504
 10
3.264269504833761
 20
5.18444099031504
 10
2.184478075139074
 20
5.18444099031504
  0
LWPOLYLINE
  5
324
330
18
100
AcDbEntity
  8
0
  6
CONTINUOUS
100
AcDbPolyline
 90
       15
 70
     1
 43
0.0
 10
5.583060934528459
 20
5.428508317729972
 42
0.4142135623730951
 10
5.568060934528459
 20
5.443508317729973
 10
5.504060934528455
 20
5.443508317729973
 42
-0.4142135623731617
 10
5.379060934528455
 20
5.568508317730001
 10
5.379060934528466
 20
5.616508317729968
 42
0.4142135623730951
 10
5.364060934528465
 20
5.631508317729975
 10
4.760269504833765
 20
5.631508317729975
 10
4.760269504833763
 20
5.556508317729973
 42
-0.4142135623730951
 10
4.745269504833764
 20
5.541508317729972
 10
4.488269504833763
 20
5.541508317729972
 42
0.4142135623730951
 10
4.473269504833764
 20
5.526508317729971
 10
4.473269504833764
 20
5.19944099031504
 10
4.488269504833764
 20
5.18444099031504
 10
5.568060934528451
 20
5.18444099031504
 10
5.583060934528452
 20
5.19944099031504
  0
LINE
  5
3EB
330
18
100
AcDbEntity
  8
TEXT
100
AcDbLine
 10
3.90361318165732
 20
4.363132490517152
 30
0.0
 11
3.90361318165732
 21
4.504462022696291
 31
0.0
  0
LINE
  5
3EC
330
18
100
AcDbEntity
  8
TEXT
100
AcDbLine
 10
3.950711340213302
 20
4.43899781692869
 30
0.0
 11
3.90361318165732
 21
4.363132490517152
 31
0.0
  0
LINE
  5
3ED
330
18
100
AcDbEntity
  8
TEXT
100
AcDbLine
 10
3.961146056977227
 20
4.329104573987716
 30
0.0
 11
4.025703172942932
 21
4.43899781692869
 31
0.0
  0
TEXT
  5
3EE
330
18
100
AcDbEntity
  8
TEXT
100
AcDbText
 10
4.208701868440241
 20
4.358669019551967
 30
0.0
 40
0.0522247191011236
  1
6536 Main St. N.E. * P.O. Box 32008
 41
0.8388932496075355
 72
     5
 11
5.537634452709905
 21
4.358669019551967
 31
0.0
100
AcDbText
  0
ARC
  5
3EF
330
18
100
AcDbEntity
  8
TEXT
100
AcDbCircle
 10
3.763130209141982
 20
4.349815246989262
 30
0.0
 40
0.0249058752826653
100
AcDbArc
 50
89.99971217465335
 51
179.9999999999985
  0
LINE
  5
3F0
330
18
100
AcDbEntity
  8
TEXT
100
AcDbLine
 10
3.675929442718949
 20
4.333785838375263
 30
0.0
 11
3.632178671537047
 21
4.416036114371408
 31
0.0
  0
LINE
  5
3F1
330
18
100
AcDbEntity
  8
TEXT
100
AcDbLine
 10
3.675929442718949
 20
4.43899781692869
 30
0.0
 11
3.675929442718949
 21
4.333785838375263
 31
0.0
  0
ARC
  5
3F2
330
18
100
AcDbEntity
  8
TEXT
100
AcDbCircle
 10
3.567938605499429
 20
4.346361747271927
 30
0.0
 40
0.028359375
100
AcDbArc
 50
25.78218179591245
 51
90.0
  0
LINE
  5
3F3
330
18
100
AcDbEntity
  8
TEXT
100
AcDbLine
 10
3.105944144315682
 20
4.254912622043178
 30
0.0
 11
3.105944144315682
 21
4.507009294667501
 31
0.0
  0
LINE
  5
3F4
330
18
100
AcDbEntity
  8
TEXT
100
AcDbLine
 10
3.138255998453342
 20
4.43899781692869
 30
0.0
 11
3.138255998453342
 21
4.238133610196282
 31
0.0
  0
LINE
  5
3F5
330
18
100
AcDbEntity
  8
TEXT
100
AcDbLine
 10
3.009013518955939
 20
4.43899781692869
 30
0.0
 11
2.950264956150075
 21
4.338125820815569
 31
0.0
  0
LINE
  5
3F6
330
18
100
AcDbEntity
  8
TEXT
100
AcDbLine
 10
2.950264956150075
 20
4.338125820815569
 30
0.0
 11
2.891634635118137
 21
4.43899781692869
 31
0.0
  0
ARC
  5
3F7
330
18
100
AcDbEntity
  8
TEXT
100
AcDbCircle
 10
2.58406131123171
 20
4.356910357482188
 30
0.0
 40
0.0820874594465043
100
AcDbArc
 50
90.0
 51
270.0
  0
LWPOLYLINE
  5
3F8
330
18
100
AcDbEntity
  8
TEXT
100
AcDbPolyline
 90
        2
 70
     0
 43
0.0001332181640625
 10
2.175974978130746
 20
4.365727826694314
 10
2.165983615826055
 20
4.438997816928694
  0
LWPOLYLINE
  5
3F9
330
18
100
AcDbEntity
  8
TEXT
100
AcDbPolyline
 90
        2
 70
     0
 43
0.0001332181640625
 10
2.165983615826055
 20
4.412354184116193
 10
2.175974978130746
 20
4.352406010288067
  0
LWPOLYLINE
  5
3FA
330
18
100
AcDbEntity
  8
TEXT
100
AcDbPolyline
 90
        2
 70
     0
 43
0.0001332181640625
 10
2.205949065044807
 20
4.412354184116193
 10
2.195957702740118
 20
4.352406010288067
  0
LWPOLYLINE
  5
3FB
330
18
100
AcDbEntity
  8
TEXT
100
AcDbPolyline
 90
        2
 70
     0
 43
0.0001332181640625
 10
2.205949065044807
 20
4.438997816928694
 10
2.195957702740118
 20
4.365727826694314
  0
LWPOLYLINE
  5
3FC
330
18
100
AcDbEntity
  8
TEXT
100
AcDbPolyline
 90
        3
 70
     0
 43
0.0006660908203125
 10
2.319184504497933
 20
4.325762377475566
 10
2.319184504497933
 20
4.438997816928694
 10
2.205949065044807
 20
4.438997816928694
  0
LWPOLYLINE
  5
3FD
330
18
100
AcDbEntity
  8
TEXT
100
AcDbPolyline
 90
        3
 70
     0
 43
0.0006660908203125
 10
2.292540871685432
 20
4.325762377475566
 10
2.292540871685432
 20
4.412354184116193
 10
2.205949065044807
 20
4.412354184116193
  0
LWPOLYLINE
  5
3FE
330
18
100
AcDbEntity
  8
TEXT
100
AcDbPolyline
 90
        2
 70
     0
 43
0.0001332181640625
 10
2.292540871685432
 20
4.412354184116193
 10
2.232592697857308
 20
4.352406010288067
  0
LWPOLYLINE
  5
3FF
330
18
100
AcDbEntity
  8
TEXT
100
AcDbPolyline
 90
        2
 70
     0
 43
0.0001332181640625
 10
2.07939180918543
 20
4.412354184116193
 10
2.139339983013556
 20
4.352406010288067
  0
LWPOLYLINE
  5
400
330
18
100
AcDbEntity
  8
TEXT
100
AcDbPolyline
 90
        3
 70
     0
 43
0.0006660908203125
 10
2.165983615826055
 20
4.438997816928694
 10
2.052748176372933
 20
4.438997816928694
 10
2.052748176372933
 20
4.325762377475566
  0
LWPOLYLINE
  5
401
330
18
100
AcDbEntity
  8
TEXT
100
AcDbPolyline
 90
        3
 70
     0
 43
0.0006660908203125
 10
2.165983615826055
 20
4.412354184116193
 10
2.07939180918543
 20
4.412354184116193
 10
2.07939180918543
 20
4.325762377475566
  0
LINE
  5
402
330
18
100
AcDbEntity
  8
TEXT
100
AcDbLine
 10
2.654898777590259
 20
4.338916400661297
 30
0.0
 11
2.589298641345958
 21
4.338916400661297
 31
0.0
  0
LINE
  5
403
330
18
100
AcDbEntity
  8
TEXT
100
AcDbLine
 10
2.58406131123171
 20
4.274822898035683
 30
0.0
 11
2.659839151496539
 21
4.274822898035683
 31
0.0
  0
LINE
  5
404
330
18
100
AcDbEntity
  8
TEXT
100
AcDbLine
 10
2.501973851785207
 20
4.172524783940179
 30
0.0
 11
2.654898777590259
 21
4.172524783940179
 31
0.0
  0
LINE
  5
405
330
18
100
AcDbEntity
  8
TEXT
100
AcDbLine
 10
2.659839151496539
 20
4.240881790273618
 30
0.0
 11
2.501973851785205
 21
4.240881790273618
 31
0.0
  0
LINE
  5
406
330
18
100
AcDbEntity
  8
TEXT
100
AcDbLine
 10
2.589298641345958
 20
4.374721122271925
 30
0.0
 11
2.756204295374928
 21
4.374721122271925
 31
0.0
  0
LWPOLYLINE
  5
407
330
18
100
AcDbEntity
  8
TEXT
100
AcDbPolyline
 90
        2
 70
     0
 43
0.0006660908203125
 10
2.292540871685432
 20
4.325762377475566
 10
2.319184504497933
 20
4.325762377475566
  0
LWPOLYLINE
  5
408
330
18
100
AcDbEntity
  8
TEXT
100
AcDbPolyline
 90
        2
 70
     0
 43
0.0001332181640625
 10
2.245914514263557
 20
4.315771015170877
 10
2.319184504497933
 20
4.325762377475566
  0
LWPOLYLINE
  5
409
330
18
100
AcDbEntity
  8
TEXT
100
AcDbPolyline
 90
        2
 70
     0
 43
0.0006660908203125
 10
2.292540871685432
 20
4.285796928256818
 10
2.319184504497933
 20
4.285796928256818
  0
LWPOLYLINE
  5
40A
330
18
100
AcDbEntity
  8
TEXT
100
AcDbPolyline
 90
        3
 70
     0
 43
0.0006660908203125
 10
2.205949065044807
 20
4.17256148880369
 10
2.319184504497933
 20
4.17256148880369
 10
2.319184504497933
 20
4.285796928256818
  0
LWPOLYLINE
  5
40B
330
18
100
AcDbEntity
  8
TEXT
100
AcDbPolyline
 90
        2
 70
     0
 43
0.0001332181640625
 10
2.319184504497933
 20
4.285796928256818
 10
2.245914514263557
 20
4.295788290561503
  0
LWPOLYLINE
  5
40C
330
18
100
AcDbEntity
  8
TEXT
100
AcDbPolyline
 90
        3
 70
     0
 43
0.0006660908203125
 10
2.052748176372933
 20
4.285796928256818
 10
2.052748176372933
 20
4.17256148880369
 10
2.165983615826055
 20
4.17256148880369
  0
LWPOLYLINE
  5
40D
330
18
100
AcDbEntity
  8
TEXT
100
AcDbPolyline
 90
        3
 70
     0
 43
0.0006660908203125
 10
2.07939180918543
 20
4.285796928256818
 10
2.07939180918543
 20
4.199205121616191
 10
2.165983615826055
 20
4.199205121616191
  0
LWPOLYLINE
  5
40E
330
18
100
AcDbEntity
  8
TEXT
100
AcDbPolyline
 90
        5
 70
     0
 43
0.0001332181640625
 10
2.175974978130746
 20
4.245831479038066
 10
2.175974978130746
 20
4.259153295444317
 10
2.139339983013558
 20
4.259153295444317
 10
2.139339983013558
 20
4.295788290561503
 10
2.126018166607307
 20
4.295788290561503
  0
LWPOLYLINE
  5
40F
330
18
100
AcDbEntity
  8
TEXT
100
AcDbPolyline
 90
        5
 70
     0
 43
0.0001332181640625
 10
2.126018166607307
 20
4.315771015170877
 10
2.139339983013556
 20
4.315771015170877
 10
2.139339983013556
 20
4.352406010288067
 10
2.175974978130746
 20
4.352406010288067
 10
2.175974978130746
 20
4.365727826694314
  0
LWPOLYLINE
  5
410
330
18
100
AcDbEntity
  8
TEXT
100
AcDbPolyline
 90
        2
 70
     0
 43
0.0001332181640625
 10
2.07939180918543
 20
4.325762377475566
 10
2.139339983013556
 20
4.315771015170877
  0
LWPOLYLINE
  5
411
330
18
100
AcDbEntity
  8
TEXT
100
AcDbPolyline
 90
        2
 70
     0
 43
0.0001332181640625
 10
2.052748176372933
 20
4.325762377475566
 10
2.126018166607307
 20
4.315771015170877
  0
LWPOLYLINE
  5
412
330
18
100
AcDbEntity
  8
TEXT
100
AcDbPolyline
 90
        2
 70
     0
 43
0.0006660908203125
 10
2.07939180918543
 20
4.325762377475566
 10
2.052748176372933
 20
4.325762377475566
  0
LWPOLYLINE
  5
413
330
18
100
AcDbEntity
  8
TEXT
100
AcDbPolyline
 90
        2
 70
     0
 43
0.0001332181640625
 10
2.07939180918543
 20
4.199205121616191
 10
2.139339983013558
 20
4.259153295444317
  0
LWPOLYLINE
  5
414
330
18
100
AcDbEntity
  8
TEXT
100
AcDbPolyline
 90
        2
 70
     0
 43
0.0006660908203125
 10
2.07939180918543
 20
4.285796928256818
 10
2.052748176372933
 20
4.285796928256818
  0
LWPOLYLINE
  5
415
330
18
100
AcDbEntity
  8
TEXT
100
AcDbPolyline
 90
        2
 70
     0
 43
0.0001332181640625
 10
2.126018166607307
 20
4.295788290561503
 10
2.052748176372933
 20
4.285796928256818
  0
LWPOLYLINE
  5
416
330
18
100
AcDbEntity
  8
TEXT
100
AcDbPolyline
 90
        2
 70
     0
 43
0.0001332181640625
 10
2.07939180918543
 20
4.285796928256818
 10
2.139339983013558
 20
4.295788290561503
  0
LWPOLYLINE
  5
417
330
18
100
AcDbEntity
  8
TEXT
100
AcDbPolyline
 90
        5
 70
     0
 43
0.0001332181640625
 10
2.195957702740118
 20
4.365727826694314
 10
2.195957702740118
 20
4.352406010288067
 10
2.232592697857308
 20
4.352406010288067
 10
2.232592697857308
 20
4.315771015170877
 10
2.245914514263557
 20
4.315771015170877
  0
LWPOLYLINE
  5
418
330
18
100
AcDbEntity
  8
TEXT
100
AcDbPolyline
 90
        2
 70
     0
 43
0.0001332181640625
 10
2.292540871685432
 20
4.325762377475566
 10
2.232592697857308
 20
4.315771015170877
  0
LWPOLYLINE
  5
419
330
18
100
AcDbEntity
  8
TEXT
100
AcDbPolyline
 90
        2
 70
     0
 43
0.0006660908203125
 10
2.165983615826055
 20
4.199205121616191
 10
2.165983615826055
 20
4.17256148880369
  0
LWPOLYLINE
  5
41A
330
18
100
AcDbEntity
  8
TEXT
100
AcDbPolyline
 90
        2
 70
     0
 43
0.0001332181640625
 10
2.165983615826055
 20
4.199205121616191
 10
2.175974978130746
 20
4.259153295444317
  0
LWPOLYLINE
  5
41B
330
18
100
AcDbEntity
  8
TEXT
100
AcDbPolyline
 90
        2
 70
     0
 43
0.0001332181640625
 10
2.165983615826055
 20
4.17256148880369
 10
2.175974978130746
 20
4.245831479038066
  0
LWPOLYLINE
  5
41C
330
18
100
AcDbEntity
  8
TEXT
100
AcDbPolyline
 90
        2
 70
     0
 43
0.0001332181640625
 10
2.205949065044807
 20
4.199205121616191
 10
2.195957702740118
 20
4.259153295444317
  0
LWPOLYLINE
  5
41D
330
18
100
AcDbEntity
  8
TEXT
100
AcDbPolyline
 90
        2
 70
     0
 43
0.0001332181640625
 10
2.195957702740118
 20
4.245831479038066
 10
2.205949065044807
 20
4.17256148880369
  0
LWPOLYLINE
  5
41E
330
18
100
AcDbEntity
  8
TEXT
100
AcDbPolyline
 90
        2
 70
     0
 43
0.0006660908203125
 10
2.205949065044807
 20
4.199205121616191
 10
2.205949065044807
 20
4.17256148880369
  0
LWPOLYLINE
  5
41F
330
18
100
AcDbEntity
  8
TEXT
100
AcDbPolyline
 90
        2
 70
     0
 43
0.0001332181640625
 10
2.292540871685432
 20
4.199205121616191
 10
2.232592697857308
 20
4.259153295444317
  0
LWPOLYLINE
  5
420
330
18
100
AcDbEntity
  8
TEXT
100
AcDbPolyline
 90
        3
 70
     0
 43
0.0006660908203125
 10
2.205949065044807
 20
4.199205121616191
 10
2.292540871685432
 20
4.199205121616191
 10
2.292540871685432
 20
4.285796928256818
  0
LWPOLYLINE
  5
421
330
18
100
AcDbEntity
  8
TEXT
100
AcDbPolyline
 90
        2
 70
     0
 43
0.0001332181640625
 10
2.292540871685432
 20
4.285796928256818
 10
2.232592697857308
 20
4.295788290561503
  0
LWPOLYLINE
  5
422
330
18
100
AcDbEntity
  8
TEXT
100
AcDbPolyline
 90
        5
 70
     0
 43
0.0001332181640625
 10
2.245914514263557
 20
4.295788290561503
 10
2.232592697857308
 20
4.295788290561503
 10
2.232592697857308
 20
4.259153295444317
 10
2.195957702740118
 20
4.259153295444317
 10
2.195957702740118
 20
4.245831479038066
  0
ARC
  5
423
330
18
100
AcDbEntity
  8
TEXT
100
AcDbCircle
 10
2.589298641345958
 20
4.356818761466612
 30
0.0
 40
0.017902360805315
100
AcDbArc
 50
90.0
 51
270.0
  0
LINE
  5
424
330
18
100
AcDbEntity
  8
TEXT
100
AcDbLine
 10
2.501973851785205
 20
4.240881790273618
 30
0.0
 11
2.501973851785207
 21
4.172524783940179
 31
0.0
  0
TEXT
  5
425
330
18
100
AcDbEntity
  8
TEXT
100
AcDbText
 10
4.208701868440241
 20
4.172152165619383
 30
0.0
 40
0.0522247191011236
  1
Phone  1-800-328-2495
 41
1.272321428571429
 72
     5
 11
5.537634452709905
 21
4.172152165619383
 31
0.0
100
AcDbText
  0
TEXT
  5
426
330
18
100
AcDbEntity
  8
TEXT
100
AcDbText
 10
4.208701868440241
 20
4.265410592585675
 30
0.0
 40
0.0522247191011236
  1
Minneapolis, MN 55432-0008
 41
1.11444212721585
 72
     5
 11
5.537634452709905
 21
4.265410592585675
 31
0.0
100
AcDbText
  0
LINE
  5
427
330
18
100
AcDbEntity
  8
TEXT
100
AcDbLine
 10
3.763130209141984
 20
4.374721122271925
 30
0.0
 11
3.83977819043454
 21
4.374721122271925
 31
0.0
  0
LINE
  5
428
330
18
100
AcDbEntity
  8
TEXT
100
AcDbLine
 10
3.205087051511309
 20
4.374721122271925
 30
0.0
 11
3.254922331334459
 21
4.374721122271925
 31
0.0
  0
ARC
  5
429
330
18
100
AcDbEntity
  8
TEXT
100
AcDbCircle
 10
2.906621159240906
 20
4.212072506213875
 30
0.0
 40
0.0392772371940762
100
AcDbArc
 50
270.1604552698595
 51
330.0831797321295
  0
ARC
  5
42A
330
18
100
AcDbEntity
  8
TEXT
100
AcDbCircle
 10
2.816320313348681
 20
4.232317175278229
 30
0.0
 40
0.0601160179737537
100
AcDbArc
 50
180.0000000000003
 51
264.0521544866073
  0
LINE
  5
42B
330
18
100
AcDbEntity
  8
TEXT
100
AcDbLine
 10
2.756204295374928
 20
4.374721122271925
 30
0.0
 11
2.756204295374928
 21
4.232317175278229
 31
0.0
  0
ARC
  5
42C
330
18
100
AcDbEntity
  8
TEXT
100
AcDbCircle
 10
2.659839151496539
 20
4.257852344154652
 30
0.0
 40
0.0169705538810321
100
AcDbArc
 50
270.0
 51
90.0
  0
ARC
  5
42D
330
18
100
AcDbEntity
  8
TEXT
100
AcDbCircle
 10
2.654898777590259
 20
4.255720592300736
 30
0.0
 40
0.0831958083605586
100
AcDbArc
 50
270.0
 51
90.0
  0
LWPOLYLINE
  5
42E
330
18
100
AcDbEntity
  8
TEXT
100
AcDbPolyline
 90
        6
 70
     1
 43
0.0
 10
2.852614706430184
 20
4.374721122271925
 10
2.822298112209976
 20
4.374721122271925
 10
2.822298112209976
 20
4.25161012421703
 42
0.407328721240804
 10
2.833841763371452
 20
4.239791209540644
 10
2.894463462416183
 20
4.239791209540644
 10
2.911928802823501
 20
4.272603438584123
  0
LINE
  5
42F
330
18
100
AcDbEntity
  8
TEXT
100
AcDbLine
 10
2.810090902855034
 20
4.172524783940179
 30
0.0
 11
2.906731153930028
 21
4.172795423038461
 31
0.0
  0
LWPOLYLINE
  5
430
330
18
100
AcDbEntity
  8
TEXT
100
AcDbPolyline
 90
        2
 70
     0
 43
0.0
 10
3.037964425246563
 20
4.224076126155107
 42
0.3318488747599744
 10
3.107083717811876
 20
4.172524783940179
 42
-6.868794160588311
  0
LINE
  5
431
330
18
100
AcDbEntity
  8
TEXT
100
AcDbLine
 10
3.037964425246563
 20
4.35683350098046
 30
0.0
 11
3.037964425246563
 21
4.224076126155104
 31
0.0
  0
LINE
  5
432
330
18
100
AcDbEntity
  8
TEXT
100
AcDbLine
 10
2.940664719153119
 20
4.192483290045192
 30
0.0
 11
3.037964425246563
 21
4.35683350098046
 31
0.0
  0
ARC
  5
433
330
18
100
AcDbEntity
  8
TEXT
100
AcDbCircle
 10
3.121262361568739
 20
4.253515416439707
 30
0.0
 40
0.0153818062434269
100
AcDbArc
 50
174.7883570302258
 51
270.0
  0
LINE
  5
434
330
18
100
AcDbEntity
  8
TEXT
100
AcDbLine
 10
3.138255998453342
 20
4.238133610196282
 30
0.0
 11
3.121262361568739
 21
4.238133610196282
 31
0.0
  0
LINE
  5
435
330
18
100
AcDbEntity
  8
TEXT
100
AcDbLine
 10
3.107083717811875
 20
4.172524783940179
 30
0.0
 11
3.205087051511309
 21
4.172524783940179
 31
0.0
  0
LINE
  5
436
330
18
100
AcDbEntity
  8
TEXT
100
AcDbLine
 10
3.205087051511309
 20
4.172524783940179
 30
0.0
 11
3.205087051511309
 21
4.374721122271925
 31
0.0
  0
LINE
  5
437
330
18
100
AcDbEntity
  8
TEXT
100
AcDbLine
 10
3.567938605499431
 20
4.374721122271925
 30
0.0
 11
3.46073233211214
 21
4.374721122271925
 31
0.0
  0
LINE
  5
438
330
18
100
AcDbEntity
  8
TEXT
100
AcDbLine
 10
3.521451691020168
 20
4.337446148809792
 30
0.0
 11
3.603739680803553
 21
4.337446148809792
 31
0.0
  0
LWPOLYLINE
  5
439
330
18
100
AcDbEntity
  8
TEXT
100
AcDbPolyline
 90
        4
 70
     1
 43
0.0
 10
3.616670722086452
 20
4.275488761924204
 10
3.528010403426593
 20
4.275488761924204
 42
0.9999999999999998
 10
3.528010403426593
 20
4.233090221420344
 10
3.616670722086452
 20
4.233090221420344
 42
1.0
  0
LWPOLYLINE
  5
43A
330
18
100
AcDbEntity
  8
TEXT
100
AcDbPolyline
 90
        2
 70
     0
 43
0.0
 10
3.502775769524967
 20
4.172524783940179
 10
3.636793187156344
 20
4.172524783940179
 42
0.9999999999999998
  0
LINE
  5
43B
330
18
100
AcDbEntity
  8
TEXT
100
AcDbLine
 10
3.32953416728241
 20
4.374721122271925
 30
0.0
 11
3.383667764203362
 21
4.374721122271925
 31
0.0
  0
LINE
  5
43C
330
18
100
AcDbEntity
  8
TEXT
100
AcDbLine
 10
3.262476120500572
 20
4.172524783940179
 30
0.0
 11
3.32953416728241
 21
4.172524783940179
 31
0.0
  0
LINE
  5
43D
330
18
100
AcDbEntity
  8
TEXT
100
AcDbLine
 10
3.32953416728241
 20
4.172524783940179
 30
0.0
 11
3.32953416728241
 21
4.374721122271925
 31
0.0
  0
LINE
  5
43E
330
18
100
AcDbEntity
  8
TEXT
100
AcDbLine
 10
3.262476120500572
 20
4.367167333105815
 30
0.0
 11
3.262476120500572
 21
4.172524783940179
 31
0.0
  0
LWPOLYLINE
  5
43F
330
18
100
AcDbEntity
  8
TEXT
100
AcDbPolyline
 90
        2
 70
     0
 43
0.0
 10
3.254922331334457
 20
4.374721122271925
 42
-0.4142135623731017
 10
3.26247612050057
 20
4.367167333105815
 42
-0.9999999999999998
  0
LINE
  5
440
330
18
100
AcDbEntity
  8
TEXT
100
AcDbLine
 10
3.46073233211214
 20
4.374721122271925
 30
0.0
 11
3.46073233211214
 21
4.299668716197718
 31
0.0
  0
ARC
  5
441
330
18
100
AcDbEntity
  8
TEXT
100
AcDbCircle
 10
3.521451691020168
 20
4.269760567665674
 30
0.0
 40
0.0676855811441166
100
AcDbArc
 50
90.0
 51
153.7768192527749
  0
LWPOLYLINE
  5
442
330
18
100
AcDbEntity
  8
TEXT
100
AcDbPolyline
 90
        2
 70
     0
 43
0.0
 10
3.459699836657332
 20
4.216015728890617
 42
0.2901071551932823
 10
3.502775769524967
 20
4.172524783940179
 42
5.328517124445801
  0
LWPOLYLINE
  5
443
330
18
100
AcDbEntity
  8
TEXT
100
AcDbPolyline
 90
        2
 70
     0
 43
0.0
 10
3.383667764203361
 20
4.374721122271925
 42
-0.4142135623731017
 10
3.391221553369474
 20
4.367167333105815
 42
-0.9999999999999998
  0
LWPOLYLINE
  5
444
330
18
100
AcDbEntity
  8
TEXT
100
AcDbPolyline
 90
        4
 70
     0
 43
0.0
 10
3.391221553369474
 20
4.367167333105815
 10
3.391221553369474
 20
4.172524783940179
 10
3.459699836657332
 20
4.172524783940179
 10
3.459699836657332
 20
4.216015728890617
 42
-1.714843617202739
  0
LWPOLYLINE
  5
445
330
18
100
AcDbEntity
  8
TEXT
100
AcDbPolyline
 90
        2
 70
     0
 43
0.0
 10
3.679869120023989
 20
4.216015728890617
 42
-0.2901071551932486
 10
3.636793187156344
 20
4.172524783940179
 42
-5.328517124445184
  0
LWPOLYLINE
  5
446
330
18
100
AcDbEntity
  8
TEXT
100
AcDbPolyline
 90
        2
 70
     0
 43
0.0
 10
3.679869120023989
 20
4.172524783940179
 10
3.738224333859323
 20
4.172524783940179
  0
LWPOLYLINE
  5
447
330
18
100
AcDbEntity
  8
TEXT
100
AcDbPolyline
 90
        2
 70
     0
 43
0.0
 10
3.679869120023989
 20
4.216015728890617
 10
3.679869120023989
 20
4.172524783940179
  0
LINE
  5
448
330
18
100
AcDbEntity
  8
TEXT
100
AcDbLine
 10
3.603739680803553
 20
4.337446148809792
 30
0.0
 11
3.593474920389986
 21
4.358696688382487
 31
0.0
  0
LINE
  5
449
330
18
100
AcDbEntity
  8
TEXT
100
AcDbLine
 10
3.738224333859324
 20
4.172524783940179
 30
0.0
 11
3.738224333859317
 21
4.349815289371647
 31
0.0
  0
LINE
  5
44A
330
18
100
AcDbEntity
  8
TEXT
100
AcDbLine
 10
4.056638280340838
 20
4.172524783940179
 30
0.0
 11
3.961146056977227
 21
4.329104573987716
 31
0.0
  0
LINE
  5
44B
330
18
100
AcDbEntity
  8
TEXT
100
AcDbLine
 10
3.98005990796463
 20
4.172524783940179
 30
0.0
 11
4.056638280340838
 21
4.172524783940179
 31
0.0
  0
LINE
  5
44C
330
18
100
AcDbEntity
  8
TEXT
100
AcDbLine
 10
3.839778190434547
 20
4.172524783940179
 30
0.0
 11
3.904156374753167
 21
4.172524783940179
 31
0.0
  0
LINE
  5
44D
330
18
100
AcDbEntity
  8
TEXT
100
AcDbLine
 10
3.83977819043454
 20
4.374721122271925
 30
0.0
 11
3.839778190434547
 21
4.172524783940179
 31
0.0
  0
LINE
  5
44E
330
18
100
AcDbEntity
  8
TEXT
100
AcDbLine
 10
3.904156374753167
 20
4.304104352416359
 30
0.0
 11
3.98005990796463
 21
4.172524783940179
 31
0.0
  0
LINE
  5
44F
330
18
100
AcDbEntity
  8
TEXT
100
AcDbLine
 10
3.904156374753167
 20
4.172524783940179
 30
0.0
 11
3.904156374753167
 21
4.304104352416359
 31
0.0
  0
LINE
  5
450
330
18
100
AcDbEntity
  8
TEXT
100
AcDbLine
 10
2.759793064130221
 20
4.43899781692869
 30
0.0
 11
2.58406131123171
 21
4.43899781692869
 31
0.0
  0
LWPOLYLINE
  5
451
330
18
100
AcDbEntity
  8
TEXT
100
AcDbPolyline
 90
        2
 70
     0
 43
0.0006660908203125
 10
2.165983615826055
 20
4.412354184116193
 10
2.165983615826055
 20
4.438997816928694
  0
LWPOLYLINE
  5
452
330
18
100
AcDbEntity
  8
TEXT
100
AcDbPolyline
 90
        2
 70
     0
 43
0.0006660908203125
 10
2.205949065044807
 20
4.412354184116193
 10
2.205949065044807
 20
4.438997816928694
  0
TEXT
  5
453
330
18
100
AcDbEntity
  8
TEXT
100
AcDbText
 10
4.208701868440241
 20
4.45192744651826
 30
0.0
 40
0.0522247191011236
  1
Stylmark  Incorporated
 41
1.221428571428571
 72
     5
 11
5.537634452709905
 21
4.45192744651826
 31
0.0
100
AcDbText
  0
LINE
  5
454
330
18
100
AcDbEntity
  8
TEXT
100
AcDbLine
 10
3.835298303108039
 20
4.43899781692869
 30
0.0
 11
3.767798585458525
 21
4.43899781692869
 31
0.0
  0
TEXT
  5
455
330
18
100
AcDbEntity
  8
TEXT
100
AcDbText
 10
3.042420519713728
 20
4.619074808291759
 30
0.0
 40
0.125
  1
PART #110516
  7
ITALICC
 72
     1
 11
3.795396710189919
 21
4.619074808291759
 31
0.0
100
AcDbText
  0
LINE
  5
456
330
18
100
AcDbEntity
  8
TEXT
100
AcDbLine
 10
3.272274054384478
 20
4.43899781692869
 30
0.0
 11
3.138255998453342
 21
4.43899781692869
 31
0.0
  0
LINE
  5
457
330
18
100
AcDbEntity
  8
TEXT
100
AcDbLine
 10
2.819835668974228
 20
4.473385734522828
 30
0.0
 11
2.759793064130221
 21
4.473385734522828
 31
0.0
  0
LINE
  5
458
330
18
100
AcDbEntity
  8
TEXT
100
AcDbLine
 10
2.759793064130221
 20
4.473385734522828
 30
0.0
 11
2.759793064130221
 21
4.43899781692869
 31
0.0
  0
LINE
  5
459
330
18
100
AcDbEntity
  8
TEXT
100
AcDbLine
 10
2.891634635118137
 20
4.43899781692869
 30
0.0
 11
2.819835668974228
 21
4.43899781692869
 31
0.0
  0
LINE
  5
45A
330
18
100
AcDbEntity
  8
TEXT
100
AcDbLine
 10
2.819835668974228
 20
4.43899781692869
 30
0.0
 11
2.819835668974228
 21
4.473385734522828
 31
0.0
  0
LINE
  5
45B
330
18
100
AcDbEntity
  8
TEXT
100
AcDbLine
 10
3.105944144315682
 20
4.507009294667501
 30
0.0
 11
3.039135431749315
 21
4.507009294667501
 31
0.0
  0
LINE
  5
45C
330
18
100
AcDbEntity
  8
TEXT
100
AcDbLine
 10
3.039135431749315
 20
4.43899781692869
 30
0.0
 11
3.009013518955939
 21
4.43899781692869
 31
0.0
  0
LINE
  5
45D
330
18
100
AcDbEntity
  8
TEXT
100
AcDbLine
 10
3.039135431749315
 20
4.507009294667501
 30
0.0
 11
3.039135431749315
 21
4.43899781692869
 31
0.0
  0
LINE
  5
45E
330
18
100
AcDbEntity
  8
TEXT
100
AcDbLine
 10
3.596969503843908
 20
4.43899781692869
 30
0.0
 11
3.462137594626849
 21
4.43899781692869
 31
0.0
  0
LWPOLYLINE
  5
45F
330
18
100
AcDbEntity
  8
TEXT
100
AcDbPolyline
 90
        3
 70
     0
 43
0.0
 10
3.426355903913684
 20
4.438997816928694
 10
3.308055745097639
 20
4.438997816928694
 10
3.308055745097639
 20
4.411830320167798
 42
-1.960274751411753
  0
LWPOLYLINE
  5
460
330
18
100
AcDbEntity
  8
TEXT
100
AcDbPolyline
 90
        2
 70
     0
 43
0.0
 10
3.272274054384478
 20
4.438997816928694
 42
-0.3328679258950098
 10
3.308055745097639
 20
4.411830320167798
 42
6.772930709997214
  0
LINE
  5
461
330
18
100
AcDbEntity
  8
TEXT
100
AcDbLine
 10
3.462137594626849
 20
4.43899781692869
 30
0.0
 11
3.462137594626849
 21
4.410675271159046
 31
0.0
  0
LWPOLYLINE
  5
462
330
18
100
AcDbEntity
  8
TEXT
100
AcDbPolyline
 90
        2
 70
     0
 43
0.0
 10
3.426355903913684
 20
4.438997816928694
 42
-0.3277054968067132
 10
3.462137594626849
 20
4.41067527115905
 42
6.667889725900311
  0
LINE
  5
463
330
18
100
AcDbEntity
  8
TEXT
100
AcDbLine
 10
3.73982634901845
 20
4.43899781692869
 30
0.0
 11
3.675929442718949
 21
4.43899781692869
 31
0.0
  0
ARC
  5
464
330
18
100
AcDbEntity
  8
TEXT
100
AcDbCircle
 10
3.59494256406684
 20
4.397414249807788
 30
0.0
 40
0.0416329381542859
100
AcDbArc
 50
26.56974201007528
 51
87.20939649401342
  0
LINE
  5
465
330
18
100
AcDbEntity
  8
TEXT
100
AcDbLine
 10
3.73982634901845
 20
4.411450167067815
 30
0.0
 11
3.73982634901845
 21
4.43899781692869
 31
0.0
  0
ARC
  5
466
330
18
100
AcDbEntity
  8
TEXT
100
AcDbCircle
 10
3.771019166081559
 20
4.407752089646425
 30
0.0
 40
0.0314112657011332
100
AcDbArc
 50
95.88484768694724
 51
173.2388340632136
  0
LINE
  5
467
330
18
100
AcDbEntity
  8
TEXT
100
AcDbLine
 10
4.025703172942932
 20
4.43899781692869
 30
0.0
 11
3.950711340213306
 21
4.43899781692869
 31
0.0
  0
LINE
  5
468
330
18
100
AcDbEntity
  8
TEXT
100
AcDbLine
 10
3.835298303108046
 20
4.504462022696291
 30
0.0
 11
3.835298303108039
 21
4.43899781692869
 31
0.0
  0
LINE
  5
469
330
18
100
AcDbEntity
  8
TEXT
100
AcDbLine
 10
3.90361318165732
 20
4.504462022696291
 30
0.0
 11
3.835298303108046
 21
4.504462022696291
 31
0.0
  0
ENDSEC
  0
SECTION
  2
OBJECTS
  0
DICTIONARY
  5
C
330
0
100
AcDbDictionary
  3
ACAD_GROUP
350
D
  3
ACAD_LAYOUT
350
46E
  3
ACAD_MLINESTYLE
350
E
  3
ACAD_PLOTSETTINGS
350
46F
  3
ACAD_PLOTSTYLENAME
350
46C
  3
ACDBHEADERROUNDTRIPXREC
350
47A
  3
ACDBVARIABLEDICTIONARY
350
477
  0
DICTIONARY
  5
49C
330
18
100
AcDbDictionary
280
     1
  3
ACAD_LAYOUTSELFREF
360
49D
  0
DICTIONARY
  5
49A
330
15
100
AcDbDictionary
280
     1
  3
ACAD_LAYOUTSELFREF
360
49B
  0
DICTIONARY
  5
D
102
{ACAD_REACTORS
330
C
102
}
330
C
100
AcDbDictionary
  0
DICTIONARY
  5
46E
102
{ACAD_REACTORS
330
C
102
}
330
C
100
AcDbDictionary
  0
DICTIONARY
  5
E
102
{ACAD_REACTORS
330
C
102
}
330
C
100
AcDbDictionary
  3
STANDARD
350
1B
  0
DICTIONARY
  5
46F
102
{ACAD_REACTORS
330
C
102
}
330
C
100
AcDbDictionary
  0
ACDBDICTIONARYWDFLT
  5
46C
102
{ACAD_REACTORS
330
C
102
}
330
C
100
AcDbDictionary
281
     1
  3
Normal
350
46D
100
AcDbDictionaryWithDefault
340
46D
  0
DICTIONARY
  5
47A
102
{ACAD_REACTORS
330
C
102
}
330
C
100
AcDbDictionary
  3
CEPSNTYPE
350
484
  3
FINGERPRINTGUID
350
485
  3
HYPERLINKBASE
350
47D
  3
INSUNITS
350
483
  3
LAYOUTDICT
350
47F
  3
LWETCUNION
350
482
  3
PLOTSETDICT
350
480
  3
PLOTSTYLNAMDICT
350
481
  3
PSVPSCALE
350
487
  3
PUCSBASE
350
48A
  3
PUCSORGBACK
350
490
  3
PUCSORGBOTTOM
350
48C
  3
PUCSORGFRONT
350
48F
  3
PUCSORGLEFT
350
48D
  3
PUCSORGRIGHT
350
48E
  3
PUCSORGTOP
350
48B
  3
PUCSORTHOREF
350
488
  3
PUCSORTHOVIEW
350
489
  3
STYLESHEET
350
47E
  3
TSTACKALIGN
350
47B
  3
TSTACKSIZE
350
47C
  3
UCSBASE
350
493
  3
UCSORGBACK
350
499
  3
UCSORGBOTTOM
350
495
  3
UCSORGFRONT
350
498
  3
UCSORGLEFT
350
496
  3
UCSORGRIGHT
350
497
  3
UCSORGTOP
350
494
  3
UCSORTHOREF
350
491
  3
UCSORTHOVIEW
350
492
  3
VERSIONGUID
350
486
  0
DICTIONARY
  5
477
102
{ACAD_REACTORS
330
C
102
}
330
C
100
AcDbDictionary
  3
DIMASSOC
350
478
  0
XRECORD
  5
49D
102
{ACAD_REACTORS
330
49C
102
}
330
49C
100
AcDbXrecord
340
18
  0
XRECORD
  5
49B
102
{ACAD_REACTORS
330
49A
102
}
330
49A
100
AcDbXrecord
340
15
  0
MLINESTYLE
  5
1B
102
{ACAD_REACTORS
330
E
102
}
330
E
100
AcDbMlineStyle
  2
STANDARD
 70
     0
  3

 62
     0
 51
90.0
 52
90.0
 71
     2
 49
0.5
 62
   256
  6
BYLAYER
 49
-0.5
 62
   256
  6
BYLAYER
  0
ACDBPLACEHOLDER
  5
46D
102
{ACAD_REACTORS
330
46C
102
}
330
46C
100
AcDbPlaceHolder
280
     0
  0
XRECORD
  5
484
102
{ACAD_REACTORS
330
47A
102
}
330
47A
100
AcDbXrecord
 90
        0
  0
XRECORD
  5
485
102
{ACAD_REACTORS
330
47A
102
}
330
47A
100
AcDbXrecord
  1
{24FA15F0-8DB8-11D6-88E6-0090279574E7}
  0
XRECORD
  5
47D
102
{ACAD_REACTORS
330
47A
102
}
330
47A
100
AcDbXrecord
  1

  0
XRECORD
  5
483
102
{ACAD_REACTORS
330
47A
102
}
330
47A
100
AcDbXrecord
 90
        0
  0
XRECORD
  5
47F
102
{ACAD_REACTORS
330
47A
102
}
330
47A
100
AcDbXrecord
340
46E
  0
XRECORD
  5
482
102
{ACAD_REACTORS
330
47A
102
}
330
47A
100
AcDbXrecord
 90
    14877
  0
XRECORD
  5
480
102
{ACAD_REACTORS
330
47A
102
}
330
47A
100
AcDbXrecord
340
46F
  0
XRECORD
  5
481
102
{ACAD_REACTORS
330
47A
102
}
330
47A
100
AcDbXrecord
340
46C
  0
XRECORD
  5
487
102
{ACAD_REACTORS
330
47A
102
}
330
47A
100
AcDbXrecord
 40
0.0
  0
XRECORD
  5
48A
102
{ACAD_REACTORS
330
47A
102
}
330
47A
100
AcDbXrecord
340
0
  0
XRECORD
  5
490
102
{ACAD_REACTORS
330
47A
102
}
330
47A
100
AcDbXrecord
 10
0.0
 20
0.0
 30
0.0
  0
XRECORD
  5
48C
102
{ACAD_REACTORS
330
47A
102
}
330
47A
100
AcDbXrecord
 10
0.0
 20
0.0
 30
0.0
  0
XRECORD
  5
48F
102
{ACAD_REACTORS
330
47A
102
}
330
47A
100
AcDbXrecord
 10
0.0
 20
0.0
 30
0.0
  0
XRECORD
  5
48D
102
{ACAD_REACTORS
330
47A
102
}
330
47A
100
AcDbXrecord
 10
0.0
 20
0.0
 30
0.0
  0
XRECORD
  5
48E
102
{ACAD_REACTORS
330
47A
102
}
330
47A
100
AcDbXrecord
 10
0.0
 20
0.0
 30
0.0
  0
XRECORD
  5
48B
102
{ACAD_REACTORS
330
47A
102
}
330
47A
100
AcDbXrecord
 10
0.0
 20
0.0
 30
0.0
  0
XRECORD
  5
488
102
{ACAD_REACTORS
330
47A
102
}
330
47A
100
AcDbXrecord
340
0
  0
XRECORD
  5
489
102
{ACAD_REACTORS
330
47A
102
}
330
47A
100
AcDbXrecord
 70
     0
  0
XRECORD
  5
47E
102
{ACAD_REACTORS
330
47A
102
}
330
47A
100
AcDbXrecord
  1

  0
XRECORD
  5
47B
102
{ACAD_REACTORS
330
47A
102
}
330
47A
100
AcDbXrecord
 90
        1
  0
XRECORD
  5
47C
102
{ACAD_REACTORS
330
47A
102
}
330
47A
100
AcDbXrecord
 90
       70
  0
XRECORD
  5
493
102
{ACAD_REACTORS
330
47A
102
}
330
47A
100
AcDbXrecord
340
0
  0
XRECORD
  5
499
102
{ACAD_REACTORS
330
47A
102
}
330
47A
100
AcDbXrecord
 10
0.0
 20
0.0
 30
0.0
  0
XRECORD
  5
495
102
{ACAD_REACTORS
330
47A
102
}
330
47A
100
AcDbXrecord
 10
0.0
 20
0.0
 30
0.0
  0
XRECORD
  5
498
102
{ACAD_REACTORS
330
47A
102
}
330
47A
100
AcDbXrecord
 10
0.0
 20
0.0
 30
0.0
  0
XRECORD
  5
496
102
{ACAD_REACTORS
330
47A
102
}
330
47A
100
AcDbXrecord
 10
0.0
 20
0.0
 30
0.0
  0
XRECORD
  5
497
102
{ACAD_REACTORS
330
47A
102
}
330
47A
100
AcDbXrecord
 10
0.0
 20
0.0
 30
0.0
  0
XRECORD
  5
494
102
{ACAD_REACTORS
330
47A
102
}
330
47A
100
AcDbXrecord
 10
0.0
 20
0.0
 30
0.0
  0
XRECORD
  5
491
102
{ACAD_REACTORS
330
47A
102
}
330
47A
100
AcDbXrecord
340
0
  0
XRECORD
  5
492
102
{ACAD_REACTORS
330
47A
102
}
330
47A
100
AcDbXrecord
 70
     0
  0
XRECORD
  5
486
102
{ACAD_REACTORS
330
47A
102
}
330
47A
100
AcDbXrecord
  1
{24FA15F2-8DB8-11D6-88E6-0090279574E7}
  0
DICTIONARYVAR
  5
478
102
{ACAD_REACTORS
330
477
102
}
330
477
100
DictionaryVariables
280
     0
  1
1
  0
ENDSEC
  0
EOF
