  0
SECTION
  2
HEADER
  9
$ACADVER
  1
AC1014
  9
$ACADMAINTVER
 70
     9
  9
$DWGCODEPAGE
  3
ANSI_1252
  9
$INSBASE
 10
0.0
 20
0.0
 30
0.0
  9
$EXTMIN
 10
-3.04623063000133
 20
-5.226428708697563
 30
0.0
  9
$EXTMAX
 10
0.4389886917457993
 20
-3.561242000040702
 30
0.0
  9
$LIMMIN
 10
0.0
 20
0.0
  9
$LIMMAX
 10
18.0
 20
12.0
  9
$ORTHOMODE
 70
     0
  9
$REGENMODE
 70
     1
  9
$FILLMODE
 70
     1
  9
$QTEXTMODE
 70
     0
  9
$MIRRTEXT
 70
     0
  9
$DRAGMODE
 70
     2
  9
$LTSCALE
 40
1.0
  9
$OSMODE
 70
    39
  9
$ATTMODE
 70
     1
  9
$TEXTSIZE
 40
0.125
  9
$TRACEWID
 40
0.05
  9
$TEXTSTYLE
  7
ROMANS
  9
$CLAYER
  8
0
  9
$CELTYPE
  6
BYLAYER
  9
$CECOLOR
 62
   256
  9
$CELTSCALE
 40
1.0
  9
$DELOBJ
 70
     1
  9
$DISPSILH
 70
     1
  9
$DIMSCALE
 40
1.0
  9
$DIMASZ
 40
0.125
  9
$DIMEXO
 40
0.125
  9
$DIMDLI
 40
0.375
  9
$DIMRND
 40
0.0
  9
$DIMDLE
 40
0.0
  9
$DIMEXE
 40
0.125
  9
$DIMTP
 40
0.0
  9
$DIMTM
 40
0.0
  9
$DIMTXT
 40
0.125
  9
$DIMCEN
 40
-0.125
  9
$DIMTSZ
 40
0.0
  9
$DIMTOL
 70
     0
  9
$DIMLIM
 70
     0
  9
$DIMTIH
 70
     1
  9
$DIMTOH
 70
     1
  9
$DIMSE1
 70
     0
  9
$DIMSE2
 70
     1
  9
$DIMTAD
 70
     0
  9
$DIMZIN
 70
     4
  9
$DIMBLK
  1

  9
$DIMASO
 70
     1
  9
$DIMSHO
 70
     1
  9
$DIMPOST
  1

  9
$DIMAPOST
  1

  9
$DIMALT
 70
     0
  9
$DIMALTD
 70
     2
  9
$DIMALTF
 40
25.4
  9
$DIMLFAC
 40
0.25
  9
$DIMTOFL
 70
     0
  9
$DIMTVP
 40
0.0
  9
$DIMTIX
 70
     0
  9
$DIMSOXD
 70
     0
  9
$DIMSAH
 70
     0
  9
$DIMBLK1
  1

  9
$DIMBLK2
  1

  9
$DIMSTYLE
  2
STANDARD
  9
$DIMCLRD
 70
     0
  9
$DIMCLRE
 70
     0
  9
$DIMCLRT
 70
     0
  9
$DIMTFAC
 40
1.0
  9
$DIMGAP
 40
0.09
  9
$DIMJUST
 70
     0
  9
$DIMSD1
 70
     0
  9
$DIMSD2
 70
     0
  9
$DIMTOLJ
 70
     1
  9
$DIMTZIN
 70
     0
  9
$DIMALTZ
 70
     0
  9
$DIMALTTZ
 70
     0
  9
$DIMFIT
 70
     3
  9
$DIMUPT
 70
     0
  9
$DIMUNIT
 70
     2
  9
$DIMDEC
 70
     3
  9
$DIMTDEC
 70
     4
  9
$DIMALTU
 70
     2
  9
$DIMALTTD
 70
     2
  9
$DIMTXSTY
  7
ROMANS
  9
$DIMAUNIT
 70
     0
  9
$LUNITS
 70
     2
  9
$LUPREC
 70
     3
  9
$SKETCHINC
 40
0.1
  9
$FILLETRAD
 40
0.0625
  9
$AUNITS
 70
     0
  9
$AUPREC
 70
     0
  9
$MENU
  1
acad
  9
$ELEVATION
 40
0.0
  9
$PELEVATION
 40
0.0
  9
$THICKNESS
 40
0.0
  9
$LIMCHECK
 70
     0
  9
$BLIPMODE
 70
     0
  9
$CHAMFERA
 40
0.0
  9
$CHAMFERB
 40
0.0
  9
$CHAMFERC
 40
0.0
  9
$CHAMFERD
 40
0.0
  9
$SKPOLY
 70
     0
  9
$TDCREATE
 40
2449156.631482870
  9
$TDUPDATE
 40
2452458.314974872
  9
$TDINDWG
 40
0.0003165394
  9
$TDUSRTIMER
 40
0.0003165394
  9
$USRTIMER
 70
     1
  9
$ANGBASE
 50
0.0
  9
$ANGDIR
 70
     0
  9
$PDMODE
 70
     0
  9
$PDSIZE
 40
0.0
  9
$PLINEWID
 40
0.0
  9
$COORDS
 70
     2
  9
$SPLFRAME
 70
     0
  9
$SPLINETYPE
 70
     6
  9
$SPLINESEGS
 70
     8
  9
$ATTDIA
 70
     0
  9
$ATTREQ
 70
     1
  9
$HANDLING
 70
 22529
  9
$HANDSEED
  5
405
  9
$SURFTAB1
 70
     6
  9
$SURFTAB2
 70
     6
  9
$SURFTYPE
 70
     6
  9
$SURFU
 70
     6
  9
$SURFV
 70
     6
  9
$UCSNAME
  2

  9
$UCSORG
 10
0.0
 20
0.0
 30
0.0
  9
$UCSXDIR
 10
1.0
 20
0.0
 30
0.0
  9
$UCSYDIR
 10
0.0
 20
1.0
 30
0.0
  9
$PUCSNAME
  2

  9
$PUCSORG
 10
0.0
 20
0.0
 30
0.0
  9
$PUCSXDIR
 10
1.0
 20
0.0
 30
0.0
  9
$PUCSYDIR
 10
0.0
 20
1.0
 30
0.0
  9
$USERI1
 70
     0
  9
$USERI2
 70
     0
  9
$USERI3
 70
     0
  9
$USERI4
 70
     0
  9
$USERI5
 70
     0
  9
$USERR1
 40
0.0
  9
$USERR2
 40
0.0
  9
$USERR3
 40
0.0
  9
$USERR4
 40
0.0
  9
$USERR5
 40
0.0
  9
$WORLDVIEW
 70
     1
  9
$SHADEDGE
 70
     3
  9
$SHADEDIF
 70
    70
  9
$TILEMODE
 70
     1
  9
$MAXACTVP
 70
    16
  9
$PINSBASE
 10
0.0
 20
0.0
 30
0.0
  9
$PLIMCHECK
 70
     0
  9
$PEXTMIN
 10
1.000000000000000E+20
 20
1.000000000000000E+20
 30
1.000000000000000E+20
  9
$PEXTMAX
 10
-1.000000000000000E+20
 20
-1.000000000000000E+20
 30
-1.000000000000000E+20
  9
$PLIMMIN
 10
0.0
 20
0.0
  9
$PLIMMAX
 10
12.0
 20
9.0
  9
$UNITMODE
 70
     0
  9
$VISRETAIN
 70
     0
  9
$PLINEGEN
 70
     1
  9
$PSLTSCALE
 70
     0
  9
$TREEDEPTH
 70
  3020
  9
$PICKSTYLE
 70
     1
  9
$CMLSTYLE
  2
STANDARD
  9
$CMLJUST
 70
     0
  9
$CMLSCALE
 40
1.0
  9
$PROXYGRAPHICS
 70
     1
  9
$MEASUREMENT
 70
     0
  0
ENDSEC
  0
SECTION
  2
CLASSES
  0
CLASS
  1
LWPOLYLINE
  2
AcDbPolyline
  3
AutoCAD 2000
 90
        0
280
     0
281
     1
  0
CLASS
  1
ACDBDICTIONARYWDFLT
  2
AcDbDictionaryWithDefault
  3
AutoCAD 2000
 90
        0
280
     0
281
     0
  0
CLASS
  1
ACDBPLACEHOLDER
  2
AcDbPlaceHolder
  3
AutoCAD 2000
 90
        0
280
     0
281
     0
  0
CLASS
  1
LAYOUT
  2
AcDbLayout
  3
AutoCAD 2000
 90
        0
280
     0
281
     0
  0
CLASS
  1
DICTIONARYVAR
  2
AcDbDictionaryVar
  3
AutoCAD 2000
 90
        0
280
     0
281
     0
  0
CLASS
  1
LONG_TRANSACTION
  2
AcDbLongTransaction
  3
AutoCAD 2000
 90
        0
280
     0
281
     0
  0
CLASS
  1
LWPOLYLINE
  2
AcDbPolyline
  3
AutoCAD 2000
 90
        0
280
     0
281
     1
  0
CLASS
  1
HATCH
  2
AcDbHatch
  3
AutoCAD 2000
 90
        0
280
     0
281
     1
  0
CLASS
  1
XRECORD
  2
AcDbXrecord
  3
AutoCAD 2000
 90
        0
280
     0
281
     0
  0
ENDSEC
  0
SECTION
  2
TABLES
  0
TABLE
  2
VPORT
  5
8
330
0
100
AcDbSymbolTable
 70
     2
  0
VPORT
  5
3E0
330
8
100
AcDbSymbolTableRecord
100
AcDbViewportTableRecord
  2
*ACTIVE
 70
     0
 10
0.0
 20
0.0
 11
1.0
 21
1.0
 12
1.619194941075348
 22
-4.393684259511541
 13
0.0
 23
0.0
 14
0.015625
 24
0.015625
 15
0.0
 25
0.0
 16
0.0
 26
0.0
 36
1.0
 17
0.0
 27
0.0
 37
0.0
 40
2.16443373862003
 41
4.320930232558139
 42
50.0
 43
0.0
 44
0.0
 50
0.0
 51
0.0
 71
     0
 72
  2000
 73
     1
 74
     1
 75
     0
 76
     0
 77
     0
 78
     0
  0
ENDTAB
  0
TABLE
  2
LTYPE
  5
5
330
0
100
AcDbSymbolTable
 70
     1
  0
LTYPE
  5
12
330
5
100
AcDbSymbolTableRecord
100
AcDbLinetypeTableRecord
  2
BYBLOCK
 70
     0
  3

 72
    65
 73
     0
 40
0.0
  0
LTYPE
  5
13
330
5
100
AcDbSymbolTableRecord
100
AcDbLinetypeTableRecord
  2
BYLAYER
 70
     0
  3

 72
    65
 73
     0
 40
0.0
  0
LTYPE
  5
14
330
5
100
AcDbSymbolTableRecord
100
AcDbLinetypeTableRecord
  2
CONTINUOUS
 70
     0
  3
Solid line
 72
    65
 73
     0
 40
0.0
  0
ENDTAB
  0
TABLE
  2
LAYER
  5
2
330
0
100
AcDbSymbolTable
 70
     2
  0
LAYER
  5
F
330
2
100
AcDbSymbolTableRecord
100
AcDbLayerTableRecord
  2
0
 70
     0
 62
     7
  6
CONTINUOUS
  0
LAYER
  5
32
330
2
100
AcDbSymbolTableRecord
100
AcDbLayerTableRecord
  2
TEXT
 70
     0
 62
     3
  6
CONTINUOUS
  0
ENDTAB
  0
TABLE
  2
STYLE
  5
3
330
0
100
AcDbSymbolTable
 70
     3
  0
STYLE
  5
10
330
3
100
AcDbSymbolTableRecord
100
AcDbTextStyleTableRecord
  2
STANDARD
 70
     0
 40
0.0
 41
1.0
 50
0.0
 71
     0
 42
0.125
  3
txt
  4

  0
STYLE
  5
2CC
330
3
100
AcDbSymbolTableRecord
100
AcDbTextStyleTableRecord
  2
ITALICC
 70
     0
 40
0.0
 41
1.0
 50
0.0
 71
     0
 42
0.125
  3
italicc
  4

  0
STYLE
  5
3DC
330
3
100
AcDbSymbolTableRecord
100
AcDbTextStyleTableRecord
  2
ROMANS
 70
     0
 40
0.0
 41
1.0
 50
0.0
 71
     0
 42
0.125
  3
romans.shx
  4

  0
ENDTAB
  0
TABLE
  2
VIEW
  5
6
330
0
100
AcDbSymbolTable
 70
     0
  0
ENDTAB
  0
TABLE
  2
UCS
  5
7
330
0
100
AcDbSymbolTable
 70
     0
  0
ENDTAB
  0
TABLE
  2
APPID
  5
9
330
0
100
AcDbSymbolTable
 70
     1
  0
APPID
  5
11
330
9
100
AcDbSymbolTableRecord
100
AcDbRegAppTableRecord
  2
ACAD
 70
     0
  0
ENDTAB
  0
TABLE
  2
DIMSTYLE
  5
A
330
0
100
AcDbSymbolTable
 70
     1
  0
DIMSTYLE
105
2BF
330
A
100
AcDbSymbolTableRecord
100
AcDbDimStyleTableRecord
  2
STANDARD
 70
     0
  3

  4

  5

  6

  7

 40
1.0
 41
0.18
 42
0.0625
 43
0.38
 44
0.18
 45
0.0
 46
0.0
 47
0.0
 48
0.0
140
0.18
141
0.09
142
0.0
143
25.4
144
1.0
145
0.0
146
1.0
147
0.09
 71
     0
 72
     0
 73
     1
 74
     1
 75
     0
 76
     0
 77
     0
 78
     0
170
     0
171
     2
172
     0
173
     0
174
     0
175
     0
176
     0
177
     0
178
     0
270
     2
271
     4
272
     4
273
     2
274
     2
340
10
275
     0
280
     0
281
     0
282
     0
283
     1
284
     0
285
     0
286
     0
287
     3
288
     0
  0
ENDTAB
  0
TABLE
  2
BLOCK_RECORD
  5
1
330
0
100
AcDbSymbolTable
 70
     0
  0
BLOCK_RECORD
  5
18
102
{ACAD_XDICTIONARY
360
403
102
}
330
1
100
AcDbSymbolTableRecord
100
AcDbBlockTableRecord
  2
*MODEL_SPACE
  0
BLOCK_RECORD
  5
15
102
{ACAD_XDICTIONARY
360
401
102
}
330
1
100
AcDbSymbolTableRecord
100
AcDbBlockTableRecord
  2
*PAPER_SPACE
  0
ENDTAB
  0
ENDSEC
  0
SECTION
  2
BLOCKS
  0
BLOCK
  5
42
330
18
100
AcDbEntity
  8
0
100
AcDbBlockBegin
  2
*MODEL_SPACE
 70
     0
 10
0.0
 20
0.0
 30
0.0
  3
*MODEL_SPACE
  1

  0
ENDBLK
  5
43
330
18
100
AcDbEntity
  8
0
100
AcDbBlockEnd
  0
BLOCK
  5
40
330
15
100
AcDbEntity
 67
     1
  8
0
100
AcDbBlockBegin
  2
*PAPER_SPACE
 70
     0
 10
0.0
 20
0.0
 30
0.0
  3
*PAPER_SPACE
  1

  0
ENDBLK
  5
41
330
15
100
AcDbEntity
 67
     1
  8
0
100
AcDbBlockEnd
  0
ENDSEC
  0
SECTION
  2
ENTITIES
  0
LWPOLYLINE
  5
278
330
18
100
AcDbEntity
  8
0
100
AcDbPolyline
 90
       32
 70
     1
 43
0.0
 10
-1.057299598978069
 20
-4.298742000040702
 10
-1.057299598978069
 20
-3.811242000040702
 10
-0.8854245989780689
 20
-3.811242000040702
 42
1.0
 10
-0.8854245989780689
 20
-3.761242000040702
 10
-0.9264886635835761
 20
-3.761242000040702
 10
-0.9479245989780689
 20
-3.681242000040702
 10
-0.8979245989780682
 20
-3.681242000040702
 10
-0.9672066312808237
 20
-3.561242000040702
 10
-1.037924598978068
 20
-3.561242000040702
 10
-0.987818099993446
 20
-3.748242000040701
 10
-1.094799598978068
 20
-3.748242000040702
 42
0.4142135623730951
 10
-1.119799598978068
 20
-3.773242000040702
 10
-1.119799598978068
 20
-4.198742000040702
 42
-0.4142135623730951
 10
-1.182299598978068
 20
-4.261242000040702
 10
-1.260424598978068
 20
-4.261242000040702
 10
-1.338549598978068
 20
-4.261242000040702
 42
-0.4142135623730951
 10
-1.401049598978068
 20
-4.198742000040702
 10
-1.401049598978068
 20
-3.773242000040702
 42
0.4142135623730951
 10
-1.426049598978068
 20
-3.748242000040702
 10
-1.533031097962691
 20
-3.748242000040701
 10
-1.482924598978069
 20
-3.561242000040702
 10
-1.553642566675314
 20
-3.561242000040702
 10
-1.622924598978069
 20
-3.681242000040702
 10
-1.572924598978068
 20
-3.681242000040702
 10
-1.594360534372561
 20
-3.761242000040702
 10
-1.635424598978068
 20
-3.761242000040702
 42
1.0
 10
-1.635424598978068
 20
-3.811242000040702
 10
-1.463549598978068
 20
-3.811242000040702
 10
-1.463549598978068
 20
-4.298742000040702
 42
0.4142135623730925
 10
-1.438549598978068
 20
-4.323742000040702
 10
-1.260424598978068
 20
-4.323742000040702
 10
-1.082299598978069
 20
-4.323742000040702
 42
0.4142135623730925
  0
LINE
  5
352
330
18
100
AcDbEntity
  8
TEXT
100
AcDbLine
 10
-1.195032579306786
 20
-5.024352422389588
 30
0.0
 11
-1.195032579306786
 21
-4.883022890210449
 31
0.0
  0
LINE
  5
353
330
18
100
AcDbEntity
  8
TEXT
100
AcDbLine
 10
-1.147934420750804
 20
-4.94848709597805
 30
0.0
 11
-1.195032579306786
 21
-5.024352422389588
 31
0.0
  0
LINE
  5
354
330
18
100
AcDbEntity
  8
TEXT
100
AcDbLine
 10
-1.137499703986879
 20
-5.058380338919024
 30
0.0
 11
-1.072942588021174
 21
-4.94848709597805
 31
0.0
  0
TEXT
  5
355
330
18
100
AcDbEntity
  8
TEXT
100
AcDbText
 10
-0.8899438925238651
 20
-5.028815893354773
 30
0.0
 40
0.0522247191011236
  1
6536 Main St. N.E. * P.O. Box 32008
 41
0.8388932496075355
 72
     5
 11
0.4389886917457986
 21
-5.028815893354773
 31
0.0
100
AcDbText
  0
ARC
  5
356
330
18
100
AcDbEntity
  8
TEXT
100
AcDbCircle
 10
-1.335515551822124
 20
-5.037669665917478
 30
0.0
 40
0.0249058752826653
100
AcDbArc
 50
89.99971217465335
 51
179.9999999999985
  0
LINE
  5
357
330
18
100
AcDbEntity
  8
TEXT
100
AcDbLine
 10
-1.422716318245157
 20
-5.053699074531477
 30
0.0
 11
-1.466467089427059
 21
-4.971448798535332
 31
0.0
  0
LINE
  5
358
330
18
100
AcDbEntity
  8
TEXT
100
AcDbLine
 10
-1.422716318245157
 20
-4.94848709597805
 30
0.0
 11
-1.422716318245157
 21
-5.053699074531477
 31
0.0
  0
ARC
  5
359
330
18
100
AcDbEntity
  8
TEXT
100
AcDbCircle
 10
-1.530707155464677
 20
-5.041123165634813
 30
0.0
 40
0.028359375
100
AcDbArc
 50
25.78218179591245
 51
90.0
  0
LINE
  5
35A
330
18
100
AcDbEntity
  8
TEXT
100
AcDbLine
 10
-1.992701616648425
 20
-5.132572290863562
 30
0.0
 11
-1.992701616648425
 21
-4.880475618239239
 31
0.0
  0
LINE
  5
35B
330
18
100
AcDbEntity
  8
TEXT
100
AcDbLine
 10
-1.960389762510764
 20
-4.94848709597805
 30
0.0
 11
-1.960389762510764
 21
-5.149351302710458
 31
0.0
  0
LINE
  5
35C
330
18
100
AcDbEntity
  8
TEXT
100
AcDbLine
 10
-2.089632242008168
 20
-4.94848709597805
 30
0.0
 11
-2.148380804814031
 21
-5.049359092091171
 31
0.0
  0
LINE
  5
35D
330
18
100
AcDbEntity
  8
TEXT
100
AcDbLine
 10
-2.148380804814031
 20
-5.049359092091171
 30
0.0
 11
-2.207011125845969
 21
-4.94848709597805
 31
0.0
  0
ARC
  5
35E
330
18
100
AcDbEntity
  8
TEXT
100
AcDbCircle
 10
-2.514584449732396
 20
-5.030574555424552
 30
0.0
 40
0.0820874594465043
100
AcDbArc
 50
90.0
 51
270.0
  0
LWPOLYLINE
  5
35F
330
18
100
AcDbEntity
  8
TEXT
100
AcDbPolyline
 90
        2
 70
     0
 43
0.0001332181640625
 10
-2.92267078283336
 20
-5.021757086212426
 10
-2.932662145138051
 20
-4.948487095978046
  0
LWPOLYLINE
  5
360
330
18
100
AcDbEntity
  8
TEXT
100
AcDbPolyline
 90
        2
 70
     0
 43
0.0001332181640625
 10
-2.932662145138051
 20
-4.975130728790547
 10
-2.92267078283336
 20
-5.035078902618673
  0
LWPOLYLINE
  5
361
330
18
100
AcDbEntity
  8
TEXT
100
AcDbPolyline
 90
        2
 70
     0
 43
0.0001332181640625
 10
-2.892696695919299
 20
-4.975130728790547
 10
-2.902688058223988
 20
-5.035078902618673
  0
LWPOLYLINE
  5
362
330
18
100
AcDbEntity
  8
TEXT
100
AcDbPolyline
 90
        2
 70
     0
 43
0.0001332181640625
 10
-2.892696695919299
 20
-4.948487095978046
 10
-2.902688058223988
 20
-5.021757086212426
  0
LWPOLYLINE
  5
363
330
18
100
AcDbEntity
  8
TEXT
100
AcDbPolyline
 90
        3
 70
     0
 43
0.0006660908203125
 10
-2.779461256466174
 20
-5.061722535431174
 10
-2.779461256466174
 20
-4.948487095978046
 10
-2.892696695919299
 20
-4.948487095978046
  0
LWPOLYLINE
  5
364
330
18
100
AcDbEntity
  8
TEXT
100
AcDbPolyline
 90
        3
 70
     0
 43
0.0006660908203125
 10
-2.806104889278675
 20
-5.061722535431174
 10
-2.806104889278675
 20
-4.975130728790547
 10
-2.892696695919299
 20
-4.975130728790547
  0
LWPOLYLINE
  5
365
330
18
100
AcDbEntity
  8
TEXT
100
AcDbPolyline
 90
        2
 70
     0
 43
0.0001332181640625
 10
-2.806104889278675
 20
-4.975130728790547
 10
-2.866053063106798
 20
-5.035078902618673
  0
LWPOLYLINE
  5
366
330
18
100
AcDbEntity
  8
TEXT
100
AcDbPolyline
 90
        2
 70
     0
 43
0.0001332181640625
 10
-3.019253951778676
 20
-4.975130728790547
 10
-2.95930577795055
 20
-5.035078902618673
  0
LWPOLYLINE
  5
367
330
18
100
AcDbEntity
  8
TEXT
100
AcDbPolyline
 90
        3
 70
     0
 43
0.0006660908203125
 10
-2.932662145138051
 20
-4.948487095978046
 10
-3.045897584591173
 20
-4.948487095978046
 10
-3.045897584591173
 20
-5.061722535431174
  0
LWPOLYLINE
  5
368
330
18
100
AcDbEntity
  8
TEXT
100
AcDbPolyline
 90
        3
 70
     0
 43
0.0006660908203125
 10
-2.932662145138051
 20
-4.975130728790547
 10
-3.019253951778676
 20
-4.975130728790547
 10
-3.019253951778676
 20
-5.061722535431174
  0
LINE
  5
369
330
18
100
AcDbEntity
  8
TEXT
100
AcDbLine
 10
-2.443746983373847
 20
-5.048568512245443
 30
0.0
 11
-2.509347119618148
 21
-5.048568512245443
 31
0.0
  0
LINE
  5
36A
330
18
100
AcDbEntity
  8
TEXT
100
AcDbLine
 10
-2.514584449732396
 20
-5.112662014871057
 30
0.0
 11
-2.438806609467567
 21
-5.112662014871057
 31
0.0
  0
LINE
  5
36B
330
18
100
AcDbEntity
  8
TEXT
100
AcDbLine
 10
-2.596671909178899
 20
-5.214960128966561
 30
0.0
 11
-2.443746983373847
 21
-5.214960128966561
 31
0.0
  0
LINE
  5
36C
330
18
100
AcDbEntity
  8
TEXT
100
AcDbLine
 10
-2.438806609467567
 20
-5.146603122633122
 30
0.0
 11
-2.596671909178901
 21
-5.146603122633122
 31
0.0
  0
LINE
  5
36D
330
18
100
AcDbEntity
  8
TEXT
100
AcDbLine
 10
-2.509347119618148
 20
-5.012763790634815
 30
0.0
 11
-2.342441465589178
 21
-5.012763790634815
 31
0.0
  0
LWPOLYLINE
  5
36E
330
18
100
AcDbEntity
  8
TEXT
100
AcDbPolyline
 90
        2
 70
     0
 43
0.0006660908203125
 10
-2.806104889278675
 20
-5.061722535431174
 10
-2.779461256466174
 20
-5.061722535431174
  0
LWPOLYLINE
  5
36F
330
18
100
AcDbEntity
  8
TEXT
100
AcDbPolyline
 90
        2
 70
     0
 43
0.0001332181640625
 10
-2.85273124670055
 20
-5.071713897735863
 10
-2.779461256466174
 20
-5.061722535431174
  0
LWPOLYLINE
  5
370
330
18
100
AcDbEntity
  8
TEXT
100
AcDbPolyline
 90
        2
 70
     0
 43
0.0006660908203125
 10
-2.806104889278675
 20
-5.101687984649922
 10
-2.779461256466174
 20
-5.101687984649922
  0
LWPOLYLINE
  5
371
330
18
100
AcDbEntity
  8
TEXT
100
AcDbPolyline
 90
        3
 70
     0
 43
0.0006660908203125
 10
-2.892696695919299
 20
-5.21492342410305
 10
-2.779461256466174
 20
-5.21492342410305
 10
-2.779461256466174
 20
-5.101687984649922
  0
LWPOLYLINE
  5
372
330
18
100
AcDbEntity
  8
TEXT
100
AcDbPolyline
 90
        2
 70
     0
 43
0.0001332181640625
 10
-2.779461256466174
 20
-5.101687984649922
 10
-2.85273124670055
 20
-5.091696622345237
  0
LWPOLYLINE
  5
373
330
18
100
AcDbEntity
  8
TEXT
100
AcDbPolyline
 90
        3
 70
     0
 43
0.0006660908203125
 10
-3.045897584591173
 20
-5.101687984649922
 10
-3.045897584591173
 20
-5.21492342410305
 10
-2.932662145138051
 20
-5.21492342410305
  0
LWPOLYLINE
  5
374
330
18
100
AcDbEntity
  8
TEXT
100
AcDbPolyline
 90
        3
 70
     0
 43
0.0006660908203125
 10
-3.019253951778676
 20
-5.101687984649922
 10
-3.019253951778676
 20
-5.188279791290549
 10
-2.932662145138051
 20
-5.188279791290549
  0
LWPOLYLINE
  5
375
330
18
100
AcDbEntity
  8
TEXT
100
AcDbPolyline
 90
        5
 70
     0
 43
0.0001332181640625
 10
-2.92267078283336
 20
-5.141653433868674
 10
-2.92267078283336
 20
-5.128331617462423
 10
-2.959305777950548
 20
-5.128331617462423
 10
-2.959305777950548
 20
-5.091696622345237
 10
-2.972627594356799
 20
-5.091696622345237
  0
LWPOLYLINE
  5
376
330
18
100
AcDbEntity
  8
TEXT
100
AcDbPolyline
 90
        5
 70
     0
 43
0.0001332181640625
 10
-2.972627594356799
 20
-5.071713897735863
 10
-2.95930577795055
 20
-5.071713897735863
 10
-2.95930577795055
 20
-5.035078902618673
 10
-2.92267078283336
 20
-5.035078902618673
 10
-2.92267078283336
 20
-5.021757086212426
  0
LWPOLYLINE
  5
377
330
18
100
AcDbEntity
  8
TEXT
100
AcDbPolyline
 90
        2
 70
     0
 43
0.0001332181640625
 10
-3.019253951778676
 20
-5.061722535431174
 10
-2.95930577795055
 20
-5.071713897735863
  0
LWPOLYLINE
  5
378
330
18
100
AcDbEntity
  8
TEXT
100
AcDbPolyline
 90
        2
 70
     0
 43
0.0001332181640625
 10
-3.045897584591173
 20
-5.061722535431174
 10
-2.972627594356799
 20
-5.071713897735863
  0
LWPOLYLINE
  5
379
330
18
100
AcDbEntity
  8
TEXT
100
AcDbPolyline
 90
        2
 70
     0
 43
0.0006660908203125
 10
-3.019253951778676
 20
-5.061722535431174
 10
-3.045897584591173
 20
-5.061722535431174
  0
LWPOLYLINE
  5
37A
330
18
100
AcDbEntity
  8
TEXT
100
AcDbPolyline
 90
        2
 70
     0
 43
0.0001332181640625
 10
-3.019253951778676
 20
-5.188279791290549
 10
-2.959305777950548
 20
-5.128331617462423
  0
LWPOLYLINE
  5
37B
330
18
100
AcDbEntity
  8
TEXT
100
AcDbPolyline
 90
        2
 70
     0
 43
0.0006660908203125
 10
-3.019253951778676
 20
-5.101687984649922
 10
-3.045897584591173
 20
-5.101687984649922
  0
LWPOLYLINE
  5
37C
330
18
100
AcDbEntity
  8
TEXT
100
AcDbPolyline
 90
        2
 70
     0
 43
0.0001332181640625
 10
-2.972627594356799
 20
-5.091696622345237
 10
-3.045897584591173
 20
-5.101687984649922
  0
LWPOLYLINE
  5
37D
330
18
100
AcDbEntity
  8
TEXT
100
AcDbPolyline
 90
        2
 70
     0
 43
0.0001332181640625
 10
-3.019253951778676
 20
-5.101687984649922
 10
-2.959305777950548
 20
-5.091696622345237
  0
LWPOLYLINE
  5
37E
330
18
100
AcDbEntity
  8
TEXT
100
AcDbPolyline
 90
        5
 70
     0
 43
0.0001332181640625
 10
-2.902688058223988
 20
-5.021757086212426
 10
-2.902688058223988
 20
-5.035078902618673
 10
-2.866053063106798
 20
-5.035078902618673
 10
-2.866053063106798
 20
-5.071713897735863
 10
-2.85273124670055
 20
-5.071713897735863
  0
LWPOLYLINE
  5
37F
330
18
100
AcDbEntity
  8
TEXT
100
AcDbPolyline
 90
        2
 70
     0
 43
0.0001332181640625
 10
-2.806104889278675
 20
-5.061722535431174
 10
-2.866053063106798
 20
-5.071713897735863
  0
LWPOLYLINE
  5
380
330
18
100
AcDbEntity
  8
TEXT
100
AcDbPolyline
 90
        2
 70
     0
 43
0.0006660908203125
 10
-2.932662145138051
 20
-5.188279791290549
 10
-2.932662145138051
 20
-5.21492342410305
  0
LWPOLYLINE
  5
381
330
18
100
AcDbEntity
  8
TEXT
100
AcDbPolyline
 90
        2
 70
     0
 43
0.0001332181640625
 10
-2.932662145138051
 20
-5.188279791290549
 10
-2.92267078283336
 20
-5.128331617462423
  0
LWPOLYLINE
  5
382
330
18
100
AcDbEntity
  8
TEXT
100
AcDbPolyline
 90
        2
 70
     0
 43
0.0001332181640625
 10
-2.932662145138051
 20
-5.21492342410305
 10
-2.92267078283336
 20
-5.141653433868674
  0
LWPOLYLINE
  5
383
330
18
100
AcDbEntity
  8
TEXT
100
AcDbPolyline
 90
        2
 70
     0
 43
0.0001332181640625
 10
-2.892696695919299
 20
-5.188279791290549
 10
-2.902688058223988
 20
-5.128331617462423
  0
LWPOLYLINE
  5
384
330
18
100
AcDbEntity
  8
TEXT
100
AcDbPolyline
 90
        2
 70
     0
 43
0.0001332181640625
 10
-2.902688058223988
 20
-5.141653433868674
 10
-2.892696695919299
 20
-5.21492342410305
  0
LWPOLYLINE
  5
385
330
18
100
AcDbEntity
  8
TEXT
100
AcDbPolyline
 90
        2
 70
     0
 43
0.0006660908203125
 10
-2.892696695919299
 20
-5.188279791290549
 10
-2.892696695919299
 20
-5.21492342410305
  0
LWPOLYLINE
  5
386
330
18
100
AcDbEntity
  8
TEXT
100
AcDbPolyline
 90
        2
 70
     0
 43
0.0001332181640625
 10
-2.806104889278675
 20
-5.188279791290549
 10
-2.866053063106798
 20
-5.128331617462423
  0
LWPOLYLINE
  5
387
330
18
100
AcDbEntity
  8
TEXT
100
AcDbPolyline
 90
        3
 70
     0
 43
0.0006660908203125
 10
-2.892696695919299
 20
-5.188279791290549
 10
-2.806104889278675
 20
-5.188279791290549
 10
-2.806104889278675
 20
-5.101687984649922
  0
LWPOLYLINE
  5
388
330
18
100
AcDbEntity
  8
TEXT
100
AcDbPolyline
 90
        2
 70
     0
 43
0.0001332181640625
 10
-2.806104889278675
 20
-5.101687984649922
 10
-2.866053063106798
 20
-5.091696622345237
  0
LWPOLYLINE
  5
389
330
18
100
AcDbEntity
  8
TEXT
100
AcDbPolyline
 90
        5
 70
     0
 43
0.0001332181640625
 10
-2.85273124670055
 20
-5.091696622345237
 10
-2.866053063106798
 20
-5.091696622345237
 10
-2.866053063106798
 20
-5.128331617462423
 10
-2.902688058223988
 20
-5.128331617462423
 10
-2.902688058223988
 20
-5.141653433868674
  0
ARC
  5
38A
330
18
100
AcDbEntity
  8
TEXT
100
AcDbCircle
 10
-2.509347119618148
 20
-5.030666151440128
 30
0.0
 40
0.017902360805315
100
AcDbArc
 50
90.0
 51
270.0
  0
LINE
  5
38B
330
18
100
AcDbEntity
  8
TEXT
100
AcDbLine
 10
-2.596671909178901
 20
-5.146603122633122
 30
0.0
 11
-2.596671909178899
 21
-5.214960128966561
 31
0.0
  0
TEXT
  5
38C
330
18
100
AcDbEntity
  8
TEXT
100
AcDbText
 10
-0.8899438925238651
 20
-5.215332747287357
 30
0.0
 40
0.0522247191011236
  1
Phone  1-800-328-2495
 41
1.272321428571429
 72
     5
 11
0.4389886917457986
 21
-5.215332747287357
 31
0.0
100
AcDbText
  0
TEXT
  5
38D
330
18
100
AcDbEntity
  8
TEXT
100
AcDbText
 10
-0.8899438925238651
 20
-5.122074320321065
 30
0.0
 40
0.0522247191011236
  1
Minneapolis, MN 55432-0008
 41
1.11444212721585
 72
     5
 11
0.4389886917457986
 21
-5.122074320321065
 31
0.0
100
AcDbText
  0
LINE
  5
38E
330
18
100
AcDbEntity
  8
TEXT
100
AcDbLine
 10
-1.335515551822123
 20
-5.012763790634815
 30
0.0
 11
-1.258867570529567
 21
-5.012763790634815
 31
0.0
  0
LINE
  5
38F
330
18
100
AcDbEntity
  8
TEXT
100
AcDbLine
 10
-1.893558709452797
 20
-5.012763790634815
 30
0.0
 11
-1.843723429629648
 21
-5.012763790634815
 31
0.0
  0
ARC
  5
390
330
18
100
AcDbEntity
  8
TEXT
100
AcDbCircle
 10
-2.192024601723201
 20
-5.175412406692865
 30
0.0
 40
0.0392772371940762
100
AcDbArc
 50
270.1604552698595
 51
330.0831797321295
  0
ARC
  5
391
330
18
100
AcDbEntity
  8
TEXT
100
AcDbCircle
 10
-2.282325447615425
 20
-5.155167737628511
 30
0.0
 40
0.0601160179737537
100
AcDbArc
 50
180.0000000000003
 51
264.0521544866073
  0
LINE
  5
392
330
18
100
AcDbEntity
  8
TEXT
100
AcDbLine
 10
-2.342441465589178
 20
-5.012763790634815
 30
0.0
 11
-2.342441465589178
 21
-5.155167737628511
 31
0.0
  0
ARC
  5
393
330
18
100
AcDbEntity
  8
TEXT
100
AcDbCircle
 10
-2.438806609467567
 20
-5.129632568752088
 30
0.0
 40
0.0169705538810321
100
AcDbArc
 50
270.0
 51
90.0
  0
ARC
  5
394
330
18
100
AcDbEntity
  8
TEXT
100
AcDbCircle
 10
-2.443746983373847
 20
-5.131764320606004
 30
0.0
 40
0.0831958083605586
100
AcDbArc
 50
270.0
 51
90.0
  0
LWPOLYLINE
  5
395
330
18
100
AcDbEntity
  8
TEXT
100
AcDbPolyline
 90
        6
 70
     1
 43
0.0
 10
-2.246031054533922
 20
-5.012763790634815
 10
-2.27634764875413
 20
-5.012763790634815
 10
-2.27634764875413
 20
-5.13587478868971
 42
0.407328721240804
 10
-2.264803997592654
 20
-5.147693703366096
 10
-2.204182298547923
 20
-5.147693703366096
 10
-2.186716958140605
 20
-5.114881474322617
  0
LINE
  5
396
330
18
100
AcDbEntity
  8
TEXT
100
AcDbLine
 10
-2.288554858109073
 20
-5.214960128966561
 30
0.0
 11
-2.191914607034078
 21
-5.214689489868279
 31
0.0
  0
LWPOLYLINE
  5
397
330
18
100
AcDbEntity
  8
TEXT
100
AcDbPolyline
 90
        2
 70
     0
 43
0.0
 10
-2.060681335717543
 20
-5.163408786751633
 42
0.3318488747599744
 10
-1.99156204315223
 20
-5.214960128966561
 42
-6.868794160588311
  0
LINE
  5
398
330
18
100
AcDbEntity
  8
TEXT
100
AcDbLine
 10
-2.060681335717543
 20
-5.03065141192628
 30
0.0
 11
-2.060681335717543
 21
-5.163408786751636
 31
0.0
  0
LINE
  5
399
330
18
100
AcDbEntity
  8
TEXT
100
AcDbLine
 10
-2.157981041810987
 20
-5.195001622861548
 30
0.0
 11
-2.060681335717543
 21
-5.03065141192628
 31
0.0
  0
ARC
  5
39A
330
18
100
AcDbEntity
  8
TEXT
100
AcDbCircle
 10
-1.977383399395368
 20
-5.133969496467033
 30
0.0
 40
0.0153818062434269
100
AcDbArc
 50
174.7883570302258
 51
270.0
  0
LINE
  5
39B
330
18
100
AcDbEntity
  8
TEXT
100
AcDbLine
 10
-1.960389762510764
 20
-5.149351302710458
 30
0.0
 11
-1.977383399395368
 21
-5.149351302710458
 31
0.0
  0
LINE
  5
39C
330
18
100
AcDbEntity
  8
TEXT
100
AcDbLine
 10
-1.991562043152232
 20
-5.214960128966561
 30
0.0
 11
-1.893558709452797
 21
-5.214960128966561
 31
0.0
  0
LINE
  5
39D
330
18
100
AcDbEntity
  8
TEXT
100
AcDbLine
 10
-1.893558709452797
 20
-5.214960128966561
 30
0.0
 11
-1.893558709452797
 21
-5.012763790634815
 31
0.0
  0
LINE
  5
39E
330
18
100
AcDbEntity
  8
TEXT
100
AcDbLine
 10
-1.530707155464675
 20
-5.012763790634815
 30
0.0
 11
-1.637913428851966
 21
-5.012763790634815
 31
0.0
  0
LINE
  5
39F
330
18
100
AcDbEntity
  8
TEXT
100
AcDbLine
 10
-1.577194069943939
 20
-5.050038764096948
 30
0.0
 11
-1.494906080160554
 21
-5.050038764096948
 31
0.0
  0
LWPOLYLINE
  5
3A0
330
18
100
AcDbEntity
  8
TEXT
100
AcDbPolyline
 90
        4
 70
     1
 43
0.0
 10
-1.481975038877655
 20
-5.111996150982536
 10
-1.570635357537513
 20
-5.111996150982536
 42
0.9999999999999998
 10
-1.570635357537513
 20
-5.154394691486396
 10
-1.481975038877655
 20
-5.154394691486396
 42
1.0
  0
LWPOLYLINE
  5
3A1
330
18
100
AcDbEntity
  8
TEXT
100
AcDbPolyline
 90
        2
 70
     0
 43
0.0
 10
-1.595869991439139
 20
-5.214960128966561
 10
-1.461852573807762
 20
-5.214960128966561
 42
0.9999999999999998
  0
LINE
  5
3A2
330
18
100
AcDbEntity
  8
TEXT
100
AcDbLine
 10
-1.769111593681696
 20
-5.012763790634815
 30
0.0
 11
-1.714977996760744
 21
-5.012763790634815
 31
0.0
  0
LINE
  5
3A3
330
18
100
AcDbEntity
  8
TEXT
100
AcDbLine
 10
-1.836169640463534
 20
-5.214960128966561
 30
0.0
 11
-1.769111593681696
 21
-5.214960128966561
 31
0.0
  0
LINE
  5
3A4
330
18
100
AcDbEntity
  8
TEXT
100
AcDbLine
 10
-1.769111593681696
 20
-5.214960128966561
 30
0.0
 11
-1.769111593681696
 21
-5.012763790634815
 31
0.0
  0
LINE
  5
3A5
330
18
100
AcDbEntity
  8
TEXT
100
AcDbLine
 10
-1.836169640463534
 20
-5.020317579800925
 30
0.0
 11
-1.836169640463534
 21
-5.214960128966561
 31
0.0
  0
LWPOLYLINE
  5
3A6
330
18
100
AcDbEntity
  8
TEXT
100
AcDbPolyline
 90
        2
 70
     0
 43
0.0
 10
-1.843723429629649
 20
-5.012763790634815
 42
-0.4142135623731017
 10
-1.836169640463536
 20
-5.020317579800925
 42
-0.9999999999999998
  0
LINE
  5
3A7
330
18
100
AcDbEntity
  8
TEXT
100
AcDbLine
 10
-1.637913428851966
 20
-5.012763790634815
 30
0.0
 11
-1.637913428851966
 21
-5.087816196709022
 31
0.0
  0
ARC
  5
3A8
330
18
100
AcDbEntity
  8
TEXT
100
AcDbCircle
 10
-1.577194069943939
 20
-5.117724345241066
 30
0.0
 40
0.0676855811441166
100
AcDbArc
 50
90.0
 51
153.7768192527749
  0
LWPOLYLINE
  5
3A9
330
18
100
AcDbEntity
  8
TEXT
100
AcDbPolyline
 90
        2
 70
     0
 43
0.0
 10
-1.638945924306774
 20
-5.171469184016123
 42
0.2901071551932823
 10
-1.595869991439139
 20
-5.214960128966561
 42
5.328517124445801
  0
LWPOLYLINE
  5
3AA
330
18
100
AcDbEntity
  8
TEXT
100
AcDbPolyline
 90
        2
 70
     0
 43
0.0
 10
-1.714977996760746
 20
-5.012763790634815
 42
-0.4142135623731017
 10
-1.707424207594632
 20
-5.020317579800925
 42
-0.9999999999999998
  0
LWPOLYLINE
  5
3AB
330
18
100
AcDbEntity
  8
TEXT
100
AcDbPolyline
 90
        4
 70
     0
 43
0.0
 10
-1.707424207594632
 20
-5.020317579800925
 10
-1.707424207594632
 20
-5.214960128966561
 10
-1.638945924306774
 20
-5.214960128966561
 10
-1.638945924306774
 20
-5.171469184016123
 42
-1.714843617202739
  0
LWPOLYLINE
  5
3AC
330
18
100
AcDbEntity
  8
TEXT
100
AcDbPolyline
 90
        2
 70
     0
 43
0.0
 10
-1.418776640940118
 20
-5.171469184016123
 42
-0.2901071551932486
 10
-1.461852573807762
 20
-5.214960128966561
 42
-5.328517124445184
  0
LWPOLYLINE
  5
3AD
330
18
100
AcDbEntity
  8
TEXT
100
AcDbPolyline
 90
        2
 70
     0
 43
0.0
 10
-1.418776640940118
 20
-5.214960128966561
 10
-1.360421427104784
 20
-5.214960128966561
  0
LWPOLYLINE
  5
3AE
330
18
100
AcDbEntity
  8
TEXT
100
AcDbPolyline
 90
        2
 70
     0
 43
0.0
 10
-1.418776640940118
 20
-5.171469184016123
 10
-1.418776640940118
 20
-5.214960128966561
  0
LINE
  5
3AF
330
18
100
AcDbEntity
  8
TEXT
100
AcDbLine
 10
-1.494906080160554
 20
-5.050038764096948
 30
0.0
 11
-1.50517084057412
 21
-5.028788224524253
 31
0.0
  0
LINE
  5
3B0
330
18
100
AcDbEntity
  8
TEXT
100
AcDbLine
 10
-1.360421427104782
 20
-5.214960128966561
 30
0.0
 11
-1.360421427104789
 21
-5.037669623535093
 31
0.0
  0
LINE
  5
3B1
330
18
100
AcDbEntity
  8
TEXT
100
AcDbLine
 10
-1.042007480623269
 20
-5.214960128966561
 30
0.0
 11
-1.137499703986879
 21
-5.058380338919024
 31
0.0
  0
LINE
  5
3B2
330
18
100
AcDbEntity
  8
TEXT
100
AcDbLine
 10
-1.118585852999476
 20
-5.214960128966561
 30
0.0
 11
-1.042007480623269
 21
-5.214960128966561
 31
0.0
  0
LINE
  5
3B3
330
18
100
AcDbEntity
  8
TEXT
100
AcDbLine
 10
-1.258867570529559
 20
-5.214960128966561
 30
0.0
 11
-1.194489386210939
 21
-5.214960128966561
 31
0.0
  0
LINE
  5
3B4
330
18
100
AcDbEntity
  8
TEXT
100
AcDbLine
 10
-1.258867570529567
 20
-5.012763790634815
 30
0.0
 11
-1.258867570529559
 21
-5.214960128966561
 31
0.0
  0
LINE
  5
3B5
330
18
100
AcDbEntity
  8
TEXT
100
AcDbLine
 10
-1.194489386210939
 20
-5.083380560490381
 30
0.0
 11
-1.118585852999476
 21
-5.214960128966561
 31
0.0
  0
LINE
  5
3B6
330
18
100
AcDbEntity
  8
TEXT
100
AcDbLine
 10
-1.194489386210939
 20
-5.214960128966561
 30
0.0
 11
-1.194489386210939
 21
-5.083380560490381
 31
0.0
  0
LINE
  5
3B7
330
18
100
AcDbEntity
  8
TEXT
100
AcDbLine
 10
-2.338852696833885
 20
-4.94848709597805
 30
0.0
 11
-2.514584449732396
 21
-4.94848709597805
 31
0.0
  0
LWPOLYLINE
  5
3B8
330
18
100
AcDbEntity
  8
TEXT
100
AcDbPolyline
 90
        2
 70
     0
 43
0.0006660908203125
 10
-2.932662145138051
 20
-4.975130728790547
 10
-2.932662145138051
 20
-4.948487095978046
  0
LWPOLYLINE
  5
3B9
330
18
100
AcDbEntity
  8
TEXT
100
AcDbPolyline
 90
        2
 70
     0
 43
0.0006660908203125
 10
-2.892696695919299
 20
-4.975130728790547
 10
-2.892696695919299
 20
-4.948487095978046
  0
TEXT
  5
3BA
330
18
100
AcDbEntity
  8
TEXT
100
AcDbText
 10
-0.8899438925238651
 20
-4.93555746638848
 30
0.0
 40
0.0522247191011236
  1
Stylmark  Incorporated
 41
1.221428571428571
 72
     5
 11
0.4389886917457986
 21
-4.93555746638848
 31
0.0
100
AcDbText
  0
LINE
  5
3BB
330
18
100
AcDbEntity
  8
TEXT
100
AcDbLine
 10
-1.263347457856067
 20
-4.94848709597805
 30
0.0
 11
-1.330847175505581
 21
-4.94848709597805
 31
0.0
  0
TEXT
  5
3BC
330
18
100
AcDbEntity
  8
TEXT
100
AcDbText
 10
-2.056225241250377
 20
-4.768410104614981
 30
0.0
 40
0.125
  1
PART #110500
  7
ITALICC
 72
     1
 11
-1.303249050774187
 21
-4.768410104614981
 31
0.0
100
AcDbText
  0
LINE
  5
3BD
330
18
100
AcDbEntity
  8
TEXT
100
AcDbLine
 10
-1.826371706579628
 20
-4.94848709597805
 30
0.0
 11
-1.960389762510764
 21
-4.94848709597805
 31
0.0
  0
LINE
  5
3BE
330
18
100
AcDbEntity
  8
TEXT
100
AcDbLine
 10
-2.278810091989878
 20
-4.914099178383912
 30
0.0
 11
-2.338852696833885
 21
-4.914099178383912
 31
0.0
  0
LINE
  5
3BF
330
18
100
AcDbEntity
  8
TEXT
100
AcDbLine
 10
-2.338852696833885
 20
-4.914099178383912
 30
0.0
 11
-2.338852696833885
 21
-4.94848709597805
 31
0.0
  0
LINE
  5
3C0
330
18
100
AcDbEntity
  8
TEXT
100
AcDbLine
 10
-2.207011125845969
 20
-4.94848709597805
 30
0.0
 11
-2.278810091989878
 21
-4.94848709597805
 31
0.0
  0
LINE
  5
3C1
330
18
100
AcDbEntity
  8
TEXT
100
AcDbLine
 10
-2.278810091989878
 20
-4.94848709597805
 30
0.0
 11
-2.278810091989878
 21
-4.914099178383912
 31
0.0
  0
LINE
  5
3C2
330
18
100
AcDbEntity
  8
TEXT
100
AcDbLine
 10
-1.992701616648425
 20
-4.880475618239239
 30
0.0
 11
-2.059510329214791
 21
-4.880475618239239
 31
0.0
  0
LINE
  5
3C3
330
18
100
AcDbEntity
  8
TEXT
100
AcDbLine
 10
-2.059510329214791
 20
-4.94848709597805
 30
0.0
 11
-2.089632242008168
 21
-4.94848709597805
 31
0.0
  0
LINE
  5
3C4
330
18
100
AcDbEntity
  8
TEXT
100
AcDbLine
 10
-2.059510329214791
 20
-4.880475618239239
 30
0.0
 11
-2.059510329214791
 21
-4.94848709597805
 31
0.0
  0
LINE
  5
3C5
330
18
100
AcDbEntity
  8
TEXT
100
AcDbLine
 10
-1.501676257120198
 20
-4.94848709597805
 30
0.0
 11
-1.636508166337257
 21
-4.94848709597805
 31
0.0
  0
LWPOLYLINE
  5
3C6
330
18
100
AcDbEntity
  8
TEXT
100
AcDbPolyline
 90
        3
 70
     0
 43
0.0
 10
-1.672289857050422
 20
-4.948487095978046
 10
-1.790590015866467
 20
-4.948487095978046
 10
-1.790590015866467
 20
-4.975654592738942
 42
-1.960274751411753
  0
LWPOLYLINE
  5
3C7
330
18
100
AcDbEntity
  8
TEXT
100
AcDbPolyline
 90
        2
 70
     0
 43
0.0
 10
-1.826371706579628
 20
-4.948487095978046
 42
-0.3328679258950098
 10
-1.790590015866467
 20
-4.975654592738942
 42
6.772930709997214
  0
LINE
  5
3C8
330
18
100
AcDbEntity
  8
TEXT
100
AcDbLine
 10
-1.636508166337257
 20
-4.94848709597805
 30
0.0
 11
-1.636508166337257
 21
-4.976809641747694
 31
0.0
  0
LWPOLYLINE
  5
3C9
330
18
100
AcDbEntity
  8
TEXT
100
AcDbPolyline
 90
        2
 70
     0
 43
0.0
 10
-1.672289857050422
 20
-4.948487095978046
 42
-0.3277054968067132
 10
-1.636508166337257
 20
-4.97680964174769
 42
6.667889725900311
  0
LINE
  5
3CA
330
18
100
AcDbEntity
  8
TEXT
100
AcDbLine
 10
-1.358819411945656
 20
-4.94848709597805
 30
0.0
 11
-1.422716318245157
 21
-4.94848709597805
 31
0.0
  0
ARC
  5
3CB
330
18
100
AcDbEntity
  8
TEXT
100
AcDbCircle
 10
-1.503703196897266
 20
-4.990070663098952
 30
0.0
 40
0.0416329381542859
100
AcDbArc
 50
26.56974201007528
 51
87.20939649401342
  0
LINE
  5
3CC
330
18
100
AcDbEntity
  8
TEXT
100
AcDbLine
 10
-1.358819411945656
 20
-4.976034745838925
 30
0.0
 11
-1.358819411945656
 21
-4.94848709597805
 31
0.0
  0
ARC
  5
3CD
330
18
100
AcDbEntity
  8
TEXT
100
AcDbCircle
 10
-1.327626594882547
 20
-4.979732823260315
 30
0.0
 40
0.0314112657011332
100
AcDbArc
 50
95.88484768694724
 51
173.2388340632136
  0
LINE
  5
3CE
330
18
100
AcDbEntity
  8
TEXT
100
AcDbLine
 10
-1.072942588021174
 20
-4.94848709597805
 30
0.0
 11
-1.1479344207508
 21
-4.94848709597805
 31
0.0
  0
LINE
  5
3CF
330
18
100
AcDbEntity
  8
TEXT
100
AcDbLine
 10
-1.26334745785606
 20
-4.883022890210449
 30
0.0
 11
-1.263347457856067
 21
-4.94848709597805
 31
0.0
  0
LINE
  5
3D0
330
18
100
AcDbEntity
  8
TEXT
100
AcDbLine
 10
-1.195032579306786
 20
-4.883022890210449
 30
0.0
 11
-1.26334745785606
 21
-4.883022890210449
 31
0.0
  0
ENDSEC
  0
SECTION
  2
OBJECTS
  0
DICTIONARY
  5
C
330
0
100
AcDbDictionary
  3
ACAD_GROUP
350
D
  3
ACAD_LAYOUT
350
3D5
  3
ACAD_MLINESTYLE
350
E
  3
ACAD_PLOTSETTINGS
350
3D6
  3
ACAD_PLOTSTYLENAME
350
3D3
  3
ACDBHEADERROUNDTRIPXREC
350
3E1
  3
ACDBVARIABLEDICTIONARY
350
3DE
  0
DICTIONARY
  5
403
330
18
100
AcDbDictionary
280
     1
  3
ACAD_LAYOUTSELFREF
360
404
  0
DICTIONARY
  5
401
330
15
100
AcDbDictionary
280
     1
  3
ACAD_LAYOUTSELFREF
360
402
  0
DICTIONARY
  5
D
102
{ACAD_REACTORS
330
C
102
}
330
C
100
AcDbDictionary
  0
DICTIONARY
  5
3D5
102
{ACAD_REACTORS
330
C
102
}
330
C
100
AcDbDictionary
  0
DICTIONARY
  5
E
102
{ACAD_REACTORS
330
C
102
}
330
C
100
AcDbDictionary
  3
STANDARD
350
1B
  0
DICTIONARY
  5
3D6
102
{ACAD_REACTORS
330
C
102
}
330
C
100
AcDbDictionary
  0
ACDBDICTIONARYWDFLT
  5
3D3
102
{ACAD_REACTORS
330
C
102
}
330
C
100
AcDbDictionary
281
     1
  3
Normal
350
3D4
100
AcDbDictionaryWithDefault
340
3D4
  0
DICTIONARY
  5
3E1
102
{ACAD_REACTORS
330
C
102
}
330
C
100
AcDbDictionary
  3
CEPSNTYPE
350
3EB
  3
FINGERPRINTGUID
350
3EC
  3
HYPERLINKBASE
350
3E4
  3
INSUNITS
350
3EA
  3
LAYOUTDICT
350
3E6
  3
LWETCUNION
350
3E9
  3
PLOTSETDICT
350
3E7
  3
PLOTSTYLNAMDICT
350
3E8
  3
PSVPSCALE
350
3EE
  3
PUCSBASE
350
3F1
  3
PUCSORGBACK
350
3F7
  3
PUCSORGBOTTOM
350
3F3
  3
PUCSORGFRONT
350
3F6
  3
PUCSORGLEFT
350
3F4
  3
PUCSORGRIGHT
350
3F5
  3
PUCSORGTOP
350
3F2
  3
PUCSORTHOREF
350
3EF
  3
PUCSORTHOVIEW
350
3F0
  3
STYLESHEET
350
3E5
  3
TSTACKALIGN
350
3E2
  3
TSTACKSIZE
350
3E3
  3
UCSBASE
350
3FA
  3
UCSORGBACK
350
400
  3
UCSORGBOTTOM
350
3FC
  3
UCSORGFRONT
350
3FF
  3
UCSORGLEFT
350
3FD
  3
UCSORGRIGHT
350
3FE
  3
UCSORGTOP
350
3FB
  3
UCSORTHOREF
350
3F8
  3
UCSORTHOVIEW
350
3F9
  3
VERSIONGUID
350
3ED
  0
DICTIONARY
  5
3DE
102
{ACAD_REACTORS
330
C
102
}
330
C
100
AcDbDictionary
  3
DIMASSOC
350
3DF
  0
XRECORD
  5
404
102
{ACAD_REACTORS
330
403
102
}
330
403
100
AcDbXrecord
340
18
  0
XRECORD
  5
402
102
{ACAD_REACTORS
330
401
102
}
330
401
100
AcDbXrecord
340
15
  0
MLINESTYLE
  5
1B
102
{ACAD_REACTORS
330
E
102
}
330
E
100
AcDbMlineStyle
  2
STANDARD
 70
     0
  3

 62
     0
 51
90.0
 52
90.0
 71
     2
 49
0.5
 62
   256
  6
BYLAYER
 49
-0.5
 62
   256
  6
BYLAYER
  0
ACDBPLACEHOLDER
  5
3D4
102
{ACAD_REACTORS
330
3D3
102
}
330
3D3
100
AcDbPlaceHolder
280
     0
  0
XRECORD
  5
3EB
102
{ACAD_REACTORS
330
3E1
102
}
330
3E1
100
AcDbXrecord
 90
        0
  0
XRECORD
  5
3EC
102
{ACAD_REACTORS
330
3E1
102
}
330
3E1
100
AcDbXrecord
  1
{E9A1F3D0-8DB7-11D6-88E6-0090279574E7}
  0
XRECORD
  5
3E4
102
{ACAD_REACTORS
330
3E1
102
}
330
3E1
100
AcDbXrecord
  1

  0
XRECORD
  5
3EA
102
{ACAD_REACTORS
330
3E1
102
}
330
3E1
100
AcDbXrecord
 90
        0
  0
XRECORD
  5
3E6
102
{ACAD_REACTORS
330
3E1
102
}
330
3E1
100
AcDbXrecord
340
3D5
  0
XRECORD
  5
3E9
102
{ACAD_REACTORS
330
3E1
102
}
330
3E1
100
AcDbXrecord
 90
    14877
  0
XRECORD
  5
3E7
102
{ACAD_REACTORS
330
3E1
102
}
330
3E1
100
AcDbXrecord
340
3D6
  0
XRECORD
  5
3E8
102
{ACAD_REACTORS
330
3E1
102
}
330
3E1
100
AcDbXrecord
340
3D3
  0
XRECORD
  5
3EE
102
{ACAD_REACTORS
330
3E1
102
}
330
3E1
100
AcDbXrecord
 40
0.0
  0
XRECORD
  5
3F1
102
{ACAD_REACTORS
330
3E1
102
}
330
3E1
100
AcDbXrecord
340
0
  0
XRECORD
  5
3F7
102
{ACAD_REACTORS
330
3E1
102
}
330
3E1
100
AcDbXrecord
 10
0.0
 20
0.0
 30
0.0
  0
XRECORD
  5
3F3
102
{ACAD_REACTORS
330
3E1
102
}
330
3E1
100
AcDbXrecord
 10
0.0
 20
0.0
 30
0.0
  0
XRECORD
  5
3F6
102
{ACAD_REACTORS
330
3E1
102
}
330
3E1
100
AcDbXrecord
 10
0.0
 20
0.0
 30
0.0
  0
XRECORD
  5
3F4
102
{ACAD_REACTORS
330
3E1
102
}
330
3E1
100
AcDbXrecord
 10
0.0
 20
0.0
 30
0.0
  0
XRECORD
  5
3F5
102
{ACAD_REACTORS
330
3E1
102
}
330
3E1
100
AcDbXrecord
 10
0.0
 20
0.0
 30
0.0
  0
XRECORD
  5
3F2
102
{ACAD_REACTORS
330
3E1
102
}
330
3E1
100
AcDbXrecord
 10
0.0
 20
0.0
 30
0.0
  0
XRECORD
  5
3EF
102
{ACAD_REACTORS
330
3E1
102
}
330
3E1
100
AcDbXrecord
340
0
  0
XRECORD
  5
3F0
102
{ACAD_REACTORS
330
3E1
102
}
330
3E1
100
AcDbXrecord
 70
     0
  0
XRECORD
  5
3E5
102
{ACAD_REACTORS
330
3E1
102
}
330
3E1
100
AcDbXrecord
  1

  0
XRECORD
  5
3E2
102
{ACAD_REACTORS
330
3E1
102
}
330
3E1
100
AcDbXrecord
 90
        1
  0
XRECORD
  5
3E3
102
{ACAD_REACTORS
330
3E1
102
}
330
3E1
100
AcDbXrecord
 90
       70
  0
XRECORD
  5
3FA
102
{ACAD_REACTORS
330
3E1
102
}
330
3E1
100
AcDbXrecord
340
0
  0
XRECORD
  5
400
102
{ACAD_REACTORS
330
3E1
102
}
330
3E1
100
AcDbXrecord
 10
0.0
 20
0.0
 30
0.0
  0
XRECORD
  5
3FC
102
{ACAD_REACTORS
330
3E1
102
}
330
3E1
100
AcDbXrecord
 10
0.0
 20
0.0
 30
0.0
  0
XRECORD
  5
3FF
102
{ACAD_REACTORS
330
3E1
102
}
330
3E1
100
AcDbXrecord
 10
0.0
 20
0.0
 30
0.0
  0
XRECORD
  5
3FD
102
{ACAD_REACTORS
330
3E1
102
}
330
3E1
100
AcDbXrecord
 10
0.0
 20
0.0
 30
0.0
  0
XRECORD
  5
3FE
102
{ACAD_REACTORS
330
3E1
102
}
330
3E1
100
AcDbXrecord
 10
0.0
 20
0.0
 30
0.0
  0
XRECORD
  5
3FB
102
{ACAD_REACTORS
330
3E1
102
}
330
3E1
100
AcDbXrecord
 10
0.0
 20
0.0
 30
0.0
  0
XRECORD
  5
3F8
102
{ACAD_REACTORS
330
3E1
102
}
330
3E1
100
AcDbXrecord
340
0
  0
XRECORD
  5
3F9
102
{ACAD_REACTORS
330
3E1
102
}
330
3E1
100
AcDbXrecord
 70
     0
  0
XRECORD
  5
3ED
102
{ACAD_REACTORS
330
3E1
102
}
330
3E1
100
AcDbXrecord
  1
{E9A1F3D2-8DB7-11D6-88E6-0090279574E7}
  0
DICTIONARYVAR
  5
3DF
102
{ACAD_REACTORS
330
3DE
102
}
330
3DE
100
DictionaryVariables
280
     0
  1
1
  0
ENDSEC
  0
EOF
