  0
SECTION
  2
HEADER
  9
$ACADVER
  1
AC1014
  9
$ACADMAINTVER
 70
     9
  9
$DWGCODEPAGE
  3
ANSI_1252
  9
$INSBASE
 10
0.0
 20
0.0
 30
0.0
  9
$EXTMIN
 10
-0.7903922873562456
 20
1.091583769070967
 30
0.0
  9
$EXTMAX
 10
2.694827034390883
 20
2.57665757938292
 30
0.0
  9
$LIMMIN
 10
0.0
 20
0.0
  9
$LIMMAX
 10
18.0
 20
12.0
  9
$ORTHOMODE
 70
     1
  9
$REGENMODE
 70
     1
  9
$FILLMODE
 70
     1
  9
$QTEXTMODE
 70
     0
  9
$MIRRTEXT
 70
     0
  9
$DRAGMODE
 70
     2
  9
$LTSCALE
 40
1.0
  9
$OSMODE
 70
    39
  9
$ATTMODE
 70
     1
  9
$TEXTSIZE
 40
0.125
  9
$TRACEWID
 40
0.05
  9
$TEXTSTYLE
  7
ROMANS
  9
$CLAYER
  8
TEXT
  9
$CELTYPE
  6
BYLAYER
  9
$CECOLOR
 62
   256
  9
$CELTSCALE
 40
1.0
  9
$DELOBJ
 70
     1
  9
$DISPSILH
 70
     1
  9
$DIMSCALE
 40
1.0
  9
$DIMASZ
 40
0.125
  9
$DIMEXO
 40
0.125
  9
$DIMDLI
 40
0.375
  9
$DIMRND
 40
0.0
  9
$DIMDLE
 40
0.0
  9
$DIMEXE
 40
0.125
  9
$DIMTP
 40
0.0
  9
$DIMTM
 40
0.0
  9
$DIMTXT
 40
0.125
  9
$DIMCEN
 40
-0.125
  9
$DIMTSZ
 40
0.0
  9
$DIMTOL
 70
     0
  9
$DIMLIM
 70
     0
  9
$DIMTIH
 70
     1
  9
$DIMTOH
 70
     1
  9
$DIMSE1
 70
     0
  9
$DIMSE2
 70
     0
  9
$DIMTAD
 70
     0
  9
$DIMZIN
 70
     4
  9
$DIMBLK
  1

  9
$DIMASO
 70
     1
  9
$DIMSHO
 70
     1
  9
$DIMPOST
  1

  9
$DIMAPOST
  1

  9
$DIMALT
 70
     0
  9
$DIMALTD
 70
     2
  9
$DIMALTF
 40
25.4
  9
$DIMLFAC
 40
0.5
  9
$DIMTOFL
 70
     0
  9
$DIMTVP
 40
0.0
  9
$DIMTIX
 70
     1
  9
$DIMSOXD
 70
     0
  9
$DIMSAH
 70
     0
  9
$DIMBLK1
  1

  9
$DIMBLK2
  1

  9
$DIMSTYLE
  2
STANDARD
  9
$DIMCLRD
 70
     0
  9
$DIMCLRE
 70
     0
  9
$DIMCLRT
 70
     0
  9
$DIMTFAC
 40
1.0
  9
$DIMGAP
 40
0.09
  9
$DIMJUST
 70
     0
  9
$DIMSD1
 70
     0
  9
$DIMSD2
 70
     0
  9
$DIMTOLJ
 70
     1
  9
$DIMTZIN
 70
     0
  9
$DIMALTZ
 70
     0
  9
$DIMALTTZ
 70
     0
  9
$DIMFIT
 70
     3
  9
$DIMUPT
 70
     0
  9
$DIMUNIT
 70
     2
  9
$DIMDEC
 70
     3
  9
$DIMTDEC
 70
     4
  9
$DIMALTU
 70
     2
  9
$DIMALTTD
 70
     2
  9
$DIMTXSTY
  7
ROMANS
  9
$DIMAUNIT
 70
     0
  9
$LUNITS
 70
     2
  9
$LUPREC
 70
     3
  9
$SKETCHINC
 40
0.1
  9
$FILLETRAD
 40
0.03125
  9
$AUNITS
 70
     0
  9
$AUPREC
 70
     0
  9
$MENU
  1
acad
  9
$ELEVATION
 40
0.0
  9
$PELEVATION
 40
0.0
  9
$THICKNESS
 40
0.0
  9
$LIMCHECK
 70
     0
  9
$BLIPMODE
 70
     0
  9
$CHAMFERA
 40
0.0
  9
$CHAMFERB
 40
0.0
  9
$CHAMFERC
 40
0.0
  9
$CHAMFERD
 40
0.0
  9
$SKPOLY
 70
     0
  9
$TDCREATE
 40
2449080.440204861
  9
$TDUPDATE
 40
2452458.314584039
  9
$TDINDWG
 40
0.0002384259
  9
$TDUSRTIMER
 40
0.0002384259
  9
$USRTIMER
 70
     1
  9
$ANGBASE
 50
0.0
  9
$ANGDIR
 70
     0
  9
$PDMODE
 70
     0
  9
$PDSIZE
 40
0.0
  9
$PLINEWID
 40
0.0
  9
$COORDS
 70
     2
  9
$SPLFRAME
 70
     0
  9
$SPLINETYPE
 70
     6
  9
$SPLINESEGS
 70
     8
  9
$ATTDIA
 70
     0
  9
$ATTREQ
 70
     1
  9
$HANDLING
 70
 22529
  9
$HANDSEED
  5
33B
  9
$SURFTAB1
 70
     6
  9
$SURFTAB2
 70
     6
  9
$SURFTYPE
 70
     6
  9
$SURFU
 70
     6
  9
$SURFV
 70
     6
  9
$UCSNAME
  2

  9
$UCSORG
 10
0.0
 20
0.0
 30
0.0
  9
$UCSXDIR
 10
1.0
 20
0.0
 30
0.0
  9
$UCSYDIR
 10
0.0
 20
1.0
 30
0.0
  9
$PUCSNAME
  2

  9
$PUCSORG
 10
0.0
 20
0.0
 30
0.0
  9
$PUCSXDIR
 10
1.0
 20
0.0
 30
0.0
  9
$PUCSYDIR
 10
0.0
 20
1.0
 30
0.0
  9
$USERI1
 70
     0
  9
$USERI2
 70
     0
  9
$USERI3
 70
     0
  9
$USERI4
 70
     0
  9
$USERI5
 70
     0
  9
$USERR1
 40
0.0
  9
$USERR2
 40
0.0
  9
$USERR3
 40
0.0
  9
$USERR4
 40
0.0
  9
$USERR5
 40
0.0
  9
$WORLDVIEW
 70
     1
  9
$SHADEDGE
 70
     3
  9
$SHADEDIF
 70
    70
  9
$TILEMODE
 70
     1
  9
$MAXACTVP
 70
    16
  9
$PINSBASE
 10
0.0
 20
0.0
 30
0.0
  9
$PLIMCHECK
 70
     0
  9
$PEXTMIN
 10
1.000000000000000E+20
 20
1.000000000000000E+20
 30
1.000000000000000E+20
  9
$PEXTMAX
 10
-1.000000000000000E+20
 20
-1.000000000000000E+20
 30
-1.000000000000000E+20
  9
$PLIMMIN
 10
0.0
 20
0.0
  9
$PLIMMAX
 10
12.0
 20
9.0
  9
$UNITMODE
 70
     0
  9
$VISRETAIN
 70
     0
  9
$PLINEGEN
 70
     1
  9
$PSLTSCALE
 70
     0
  9
$TREEDEPTH
 70
  3020
  9
$PICKSTYLE
 70
     1
  9
$CMLSTYLE
  2
STANDARD
  9
$CMLJUST
 70
     0
  9
$CMLSCALE
 40
1.0
  9
$PROXYGRAPHICS
 70
     1
  9
$MEASUREMENT
 70
     0
  0
ENDSEC
  0
SECTION
  2
CLASSES
  0
CLASS
  1
LWPOLYLINE
  2
AcDbPolyline
  3
AutoCAD 2000
 90
        0
280
     0
281
     1
  0
CLASS
  1
ACDBDICTIONARYWDFLT
  2
AcDbDictionaryWithDefault
  3
AutoCAD 2000
 90
        0
280
     0
281
     0
  0
CLASS
  1
ACDBPLACEHOLDER
  2
AcDbPlaceHolder
  3
AutoCAD 2000
 90
        0
280
     0
281
     0
  0
CLASS
  1
LAYOUT
  2
AcDbLayout
  3
AutoCAD 2000
 90
        0
280
     0
281
     0
  0
CLASS
  1
DICTIONARYVAR
  2
AcDbDictionaryVar
  3
AutoCAD 2000
 90
        0
280
     0
281
     0
  0
CLASS
  1
LONG_TRANSACTION
  2
AcDbLongTransaction
  3
AutoCAD 2000
 90
        0
280
     0
281
     0
  0
CLASS
  1
LWPOLYLINE
  2
AcDbPolyline
  3
AutoCAD 2000
 90
        0
280
     0
281
     1
  0
CLASS
  1
HATCH
  2
AcDbHatch
  3
AutoCAD 2000
 90
        0
280
     0
281
     1
  0
CLASS
  1
XRECORD
  2
AcDbXrecord
  3
AutoCAD 2000
 90
        0
280
     0
281
     0
  0
ENDSEC
  0
SECTION
  2
TABLES
  0
TABLE
  2
VPORT
  5
8
330
0
100
AcDbSymbolTable
 70
     2
  0
VPORT
  5
316
330
8
100
AcDbSymbolTableRecord
100
AcDbViewportTableRecord
  2
*ACTIVE
 70
     0
 10
0.0
 20
0.0
 11
1.0
 21
1.0
 12
3.875765701996588
 22
1.833892845355315
 13
0.0
 23
0.0
 14
0.015625
 24
0.015625
 15
0.0
 25
0.0
 16
0.0
 26
0.0
 36
1.0
 17
0.0
 27
0.0
 37
0.0
 40
2.16456555673436
 41
4.320930232558139
 42
50.0
 43
0.0
 44
0.0
 50
0.0
 51
0.0
 71
     0
 72
  2000
 73
     1
 74
     1
 75
     0
 76
     0
 77
     0
 78
     0
  0
ENDTAB
  0
TABLE
  2
LTYPE
  5
5
330
0
100
AcDbSymbolTable
 70
     1
  0
LTYPE
  5
12
330
5
100
AcDbSymbolTableRecord
100
AcDbLinetypeTableRecord
  2
BYBLOCK
 70
     0
  3

 72
    65
 73
     0
 40
0.0
  0
LTYPE
  5
13
330
5
100
AcDbSymbolTableRecord
100
AcDbLinetypeTableRecord
  2
BYLAYER
 70
     0
  3

 72
    65
 73
     0
 40
0.0
  0
LTYPE
  5
14
330
5
100
AcDbSymbolTableRecord
100
AcDbLinetypeTableRecord
  2
CONTINUOUS
 70
     0
  3
Solid line
 72
    65
 73
     0
 40
0.0
  0
ENDTAB
  0
TABLE
  2
LAYER
  5
2
330
0
100
AcDbSymbolTable
 70
     2
  0
LAYER
  5
F
330
2
100
AcDbSymbolTableRecord
100
AcDbLayerTableRecord
  2
0
 70
     0
 62
     7
  6
CONTINUOUS
  0
LAYER
  5
27
330
2
100
AcDbSymbolTableRecord
100
AcDbLayerTableRecord
  2
TEXT
 70
     0
 62
     3
  6
CONTINUOUS
  0
ENDTAB
  0
TABLE
  2
STYLE
  5
3
330
0
100
AcDbSymbolTable
 70
     3
  0
STYLE
  5
10
330
3
100
AcDbSymbolTableRecord
100
AcDbTextStyleTableRecord
  2
STANDARD
 70
     0
 40
0.0
 41
1.0
 50
0.0
 71
     0
 42
0.125
  3
txt
  4

  0
STYLE
  5
202
330
3
100
AcDbSymbolTableRecord
100
AcDbTextStyleTableRecord
  2
ITALICC
 70
     0
 40
0.0
 41
1.0
 50
0.0
 71
     0
 42
0.125
  3
italicc
  4

  0
STYLE
  5
312
330
3
100
AcDbSymbolTableRecord
100
AcDbTextStyleTableRecord
  2
ROMANS
 70
     0
 40
0.0
 41
1.0
 50
0.0
 71
     0
 42
0.125
  3
romans.shx
  4

  0
ENDTAB
  0
TABLE
  2
VIEW
  5
6
330
0
100
AcDbSymbolTable
 70
     0
  0
ENDTAB
  0
TABLE
  2
UCS
  5
7
330
0
100
AcDbSymbolTable
 70
     0
  0
ENDTAB
  0
TABLE
  2
APPID
  5
9
330
0
100
AcDbSymbolTable
 70
     1
  0
APPID
  5
11
330
9
100
AcDbSymbolTableRecord
100
AcDbRegAppTableRecord
  2
ACAD
 70
     0
  0
ENDTAB
  0
TABLE
  2
DIMSTYLE
  5
A
330
0
100
AcDbSymbolTable
 70
     1
  0
DIMSTYLE
105
1F5
330
A
100
AcDbSymbolTableRecord
100
AcDbDimStyleTableRecord
  2
STANDARD
 70
     0
  3

  4

  5

  6

  7

 40
1.0
 41
0.18
 42
0.0625
 43
0.38
 44
0.18
 45
0.0
 46
0.0
 47
0.0
 48
0.0
140
0.18
141
0.09
142
0.0
143
25.4
144
1.0
145
0.0
146
1.0
147
0.09
 71
     0
 72
     0
 73
     1
 74
     1
 75
     0
 76
     0
 77
     0
 78
     0
170
     0
171
     2
172
     0
173
     0
174
     0
175
     0
176
     0
177
     0
178
     0
270
     2
271
     4
272
     4
273
     2
274
     2
340
10
275
     0
280
     0
281
     0
282
     0
283
     1
284
     0
285
     0
286
     0
287
     3
288
     0
  0
ENDTAB
  0
TABLE
  2
BLOCK_RECORD
  5
1
330
0
100
AcDbSymbolTable
 70
     0
  0
BLOCK_RECORD
  5
18
102
{ACAD_XDICTIONARY
360
339
102
}
330
1
100
AcDbSymbolTableRecord
100
AcDbBlockTableRecord
  2
*MODEL_SPACE
  0
BLOCK_RECORD
  5
15
102
{ACAD_XDICTIONARY
360
337
102
}
330
1
100
AcDbSymbolTableRecord
100
AcDbBlockTableRecord
  2
*PAPER_SPACE
  0
ENDTAB
  0
ENDSEC
  0
SECTION
  2
BLOCKS
  0
BLOCK
  5
2D
330
18
100
AcDbEntity
  8
0
100
AcDbBlockBegin
  2
*MODEL_SPACE
 70
     0
 10
0.0
 20
0.0
 30
0.0
  3
*MODEL_SPACE
  1

  0
ENDBLK
  5
2E
330
18
100
AcDbEntity
  8
0
100
AcDbBlockEnd
  0
BLOCK
  5
2B
330
15
100
AcDbEntity
 67
     1
  8
0
100
AcDbBlockBegin
  2
*PAPER_SPACE
 70
     0
 10
0.0
 20
0.0
 30
0.0
  3
*PAPER_SPACE
  1

  0
ENDBLK
  5
2C
330
15
100
AcDbEntity
 67
     1
  8
0
100
AcDbBlockEnd
  0
ENDSEC
  0
SECTION
  2
ENTITIES
  0
LWPOLYLINE
  5
1E7
330
18
100
AcDbEntity
  8
0
100
AcDbPolyline
 90
        9
 70
     1
 43
0.0
 10
1.329741849018053
 20
2.123282579382919
 10
1.329741849018053
 20
2.222614113740315
 10
1.319741849018053
 20
2.232657579382919
 10
1.329741849018053
 20
2.242561952926656
 10
1.329741849018053
 20
2.342032579382919
 42
0.4142135623730951
 10
1.314116849018053
 20
2.357657579382919
 10
1.306227418115946
 20
2.357657579382918
 42
5.315884552783222
 10
1.306227418115946
 20
2.10765757938292
 10
1.314116849018053
 20
2.107657579382919
 42
0.4142135623730951
  0
CIRCLE
  5
1F2
330
18
100
AcDbEntity
  8
0
100
AcDbCircle
 10
0.9857418490180531
 20
2.232657579382919
 30
0.0
 40
0.265625
  0
LINE
  5
288
330
18
100
AcDbEntity
  8
TEXT
100
AcDbLine
 10
1.060805763338297
 20
1.293660055378943
 30
0.0
 11
1.060805763338297
 21
1.434989587558082
 31
0.0
  0
LINE
  5
289
330
18
100
AcDbEntity
  8
TEXT
100
AcDbLine
 10
1.10790392189428
 20
1.369525381790481
 30
0.0
 11
1.060805763338297
 21
1.293660055378943
 31
0.0
  0
LINE
  5
28A
330
18
100
AcDbEntity
  8
TEXT
100
AcDbLine
 10
1.118338638658205
 20
1.259632138849507
 30
0.0
 11
1.18289575462391
 21
1.369525381790481
 31
0.0
  0
TEXT
  5
28B
330
18
100
AcDbEntity
  8
TEXT
100
AcDbText
 10
1.365894450121219
 20
1.289196584413758
 30
0.0
 40
0.0522247191011236
  1
6536 Main St. N.E. * P.O. Box 32008
 41
0.8388932496075355
 72
     5
 11
2.694827034390883
 21
1.289196584413758
 31
0.0
100
AcDbText
  0
ARC
  5
28C
330
18
100
AcDbEntity
  8
TEXT
100
AcDbCircle
 10
0.9203227908229596
 20
1.280342811851053
 30
0.0
 40
0.0249058752826653
100
AcDbArc
 50
89.99971217465335
 51
179.9999999999985
  0
LINE
  5
28D
330
18
100
AcDbEntity
  8
TEXT
100
AcDbLine
 10
0.8331220243999268
 20
1.264313403237053
 30
0.0
 11
0.7893712532180253
 21
1.346563679233199
 31
0.0
  0
LINE
  5
28E
330
18
100
AcDbEntity
  8
TEXT
100
AcDbLine
 10
0.8331220243999268
 20
1.369525381790481
 30
0.0
 11
0.8331220243999268
 21
1.264313403237053
 31
0.0
  0
ARC
  5
28F
330
18
100
AcDbEntity
  8
TEXT
100
AcDbCircle
 10
0.7251311871804074
 20
1.276889312133718
 30
0.0
 40
0.028359375
100
AcDbArc
 50
25.78218179591245
 51
90.0
  0
LINE
  5
290
330
18
100
AcDbEntity
  8
TEXT
100
AcDbLine
 10
0.2631367259966595
 20
1.185440186904969
 30
0.0
 11
0.2631367259966595
 21
1.437536859529291
 31
0.0
  0
LINE
  5
291
330
18
100
AcDbEntity
  8
TEXT
100
AcDbLine
 10
0.2954485801343196
 20
1.369525381790481
 30
0.0
 11
0.2954485801343196
 21
1.168661175058073
 31
0.0
  0
LINE
  5
292
330
18
100
AcDbEntity
  8
TEXT
100
AcDbLine
 10
0.1662061006369164
 20
1.369525381790481
 30
0.0
 11
0.1074575378310527
 21
1.26865338567736
 31
0.0
  0
LINE
  5
293
330
18
100
AcDbEntity
  8
TEXT
100
AcDbLine
 10
0.1074575378310527
 20
1.26865338567736
 30
0.0
 11
0.0488272167991148
 21
1.369525381790481
 31
0.0
  0
ARC
  5
294
330
18
100
AcDbEntity
  8
TEXT
100
AcDbCircle
 10
-0.2587461070873118
 20
1.287437922343979
 30
0.0
 40
0.0820874594465043
100
AcDbArc
 50
90.0
 51
270.0
  0
LWPOLYLINE
  5
295
330
18
100
AcDbEntity
  8
TEXT
100
AcDbPolyline
 90
        2
 70
     0
 43
0.0001332181640625
 10
-0.6668324401882764
 20
1.296255391556105
 10
-0.676823802492967
 20
1.369525381790484
  0
LWPOLYLINE
  5
296
330
18
100
AcDbEntity
  8
TEXT
100
AcDbPolyline
 90
        2
 70
     0
 43
0.0001332181640625
 10
-0.676823802492967
 20
1.342881748977983
 10
-0.6668324401882764
 20
1.282933575149858
  0
LWPOLYLINE
  5
297
330
18
100
AcDbEntity
  8
TEXT
100
AcDbPolyline
 90
        2
 70
     0
 43
0.0001332181640625
 10
-0.6368583532742154
 20
1.342881748977983
 10
-0.6468497155789042
 20
1.282933575149858
  0
LWPOLYLINE
  5
298
330
18
100
AcDbEntity
  8
TEXT
100
AcDbPolyline
 90
        2
 70
     0
 43
0.0001332181640625
 10
-0.6368583532742154
 20
1.369525381790484
 10
-0.6468497155789042
 20
1.296255391556105
  0
LWPOLYLINE
  5
299
330
18
100
AcDbEntity
  8
TEXT
100
AcDbPolyline
 90
        3
 70
     0
 43
0.0006660908203125
 10
-0.5236229138210895
 20
1.256289942337357
 10
-0.5236229138210895
 20
1.369525381790484
 10
-0.6368583532742154
 20
1.369525381790484
  0
LWPOLYLINE
  5
29A
330
18
100
AcDbEntity
  8
TEXT
100
AcDbPolyline
 90
        3
 70
     0
 43
0.0006660908203125
 10
-0.5502665466335906
 20
1.256289942337357
 10
-0.5502665466335906
 20
1.342881748977983
 10
-0.6368583532742154
 20
1.342881748977983
  0
LWPOLYLINE
  5
29B
330
18
100
AcDbEntity
  8
TEXT
100
AcDbPolyline
 90
        2
 70
     0
 43
0.0001332181640625
 10
-0.5502665466335906
 20
1.342881748977983
 10
-0.6102147204617144
 20
1.282933575149858
  0
LWPOLYLINE
  5
29C
330
18
100
AcDbEntity
  8
TEXT
100
AcDbPolyline
 90
        2
 70
     0
 43
0.0001332181640625
 10
-0.7634156091335918
 20
1.342881748977983
 10
-0.7034674353054662
 20
1.282933575149858
  0
LWPOLYLINE
  5
29D
330
18
100
AcDbEntity
  8
TEXT
100
AcDbPolyline
 90
        3
 70
     0
 43
0.0006660908203125
 10
-0.676823802492967
 20
1.369525381790484
 10
-0.7900592419460893
 20
1.369525381790484
 10
-0.7900592419460893
 20
1.256289942337357
  0
LWPOLYLINE
  5
29E
330
18
100
AcDbEntity
  8
TEXT
100
AcDbPolyline
 90
        3
 70
     0
 43
0.0006660908203125
 10
-0.676823802492967
 20
1.342881748977983
 10
-0.7634156091335918
 20
1.342881748977983
 10
-0.7634156091335918
 20
1.256289942337357
  0
LINE
  5
29F
330
18
100
AcDbEntity
  8
TEXT
100
AcDbLine
 10
-0.1879086407287627
 20
1.269443965523088
 30
0.0
 11
-0.2535087769730637
 21
1.269443965523088
 31
0.0
  0
LINE
  5
2A0
330
18
100
AcDbEntity
  8
TEXT
100
AcDbLine
 10
-0.2587461070873118
 20
1.205350462897474
 30
0.0
 11
-0.182968266822483
 21
1.205350462897474
 31
0.0
  0
LINE
  5
2A1
330
18
100
AcDbEntity
  8
TEXT
100
AcDbLine
 10
-0.3408335665338154
 20
1.10305234880197
 30
0.0
 11
-0.1879086407287627
 21
1.10305234880197
 31
0.0
  0
LINE
  5
2A2
330
18
100
AcDbEntity
  8
TEXT
100
AcDbLine
 10
-0.182968266822483
 20
1.171409355135409
 30
0.0
 11
-0.3408335665338171
 21
1.171409355135409
 31
0.0
  0
LINE
  5
2A3
330
18
100
AcDbEntity
  8
TEXT
100
AcDbLine
 10
-0.2535087769730637
 20
1.305248687133715
 30
0.0
 11
-0.0866031229440942
 21
1.305248687133715
 31
0.0
  0
LWPOLYLINE
  5
2A4
330
18
100
AcDbEntity
  8
TEXT
100
AcDbPolyline
 90
        2
 70
     0
 43
0.0006660908203125
 10
-0.5502665466335906
 20
1.256289942337357
 10
-0.5236229138210895
 20
1.256289942337357
  0
LWPOLYLINE
  5
2A5
330
18
100
AcDbEntity
  8
TEXT
100
AcDbPolyline
 90
        2
 70
     0
 43
0.0001332181640625
 10
-0.5968929040554656
 20
1.246298580032668
 10
-0.5236229138210895
 20
1.256289942337357
  0
LWPOLYLINE
  5
2A6
330
18
100
AcDbEntity
  8
TEXT
100
AcDbPolyline
 90
        2
 70
     0
 43
0.0006660908203125
 10
-0.5502665466335906
 20
1.216324493118609
 10
-0.5236229138210895
 20
1.216324493118609
  0
LWPOLYLINE
  5
2A7
330
18
100
AcDbEntity
  8
TEXT
100
AcDbPolyline
 90
        3
 70
     0
 43
0.0006660908203125
 10
-0.6368583532742154
 20
1.103089053665481
 10
-0.5236229138210895
 20
1.103089053665481
 10
-0.5236229138210895
 20
1.216324493118609
  0
LWPOLYLINE
  5
2A8
330
18
100
AcDbEntity
  8
TEXT
100
AcDbPolyline
 90
        2
 70
     0
 43
0.0001332181640625
 10
-0.5236229138210895
 20
1.216324493118609
 10
-0.5968929040554656
 20
1.226315855423294
  0
LWPOLYLINE
  5
2A9
330
18
100
AcDbEntity
  8
TEXT
100
AcDbPolyline
 90
        3
 70
     0
 43
0.0006660908203125
 10
-0.7900592419460893
 20
1.216324493118609
 10
-0.7900592419460893
 20
1.103089053665481
 10
-0.676823802492967
 20
1.103089053665481
  0
LWPOLYLINE
  5
2AA
330
18
100
AcDbEntity
  8
TEXT
100
AcDbPolyline
 90
        3
 70
     0
 43
0.0006660908203125
 10
-0.7634156091335918
 20
1.216324493118609
 10
-0.7634156091335918
 20
1.129732686477982
 10
-0.676823802492967
 20
1.129732686477982
  0
LWPOLYLINE
  5
2AB
330
18
100
AcDbEntity
  8
TEXT
100
AcDbPolyline
 90
        5
 70
     0
 43
0.0001332181640625
 10
-0.6668324401882764
 20
1.176359043899857
 10
-0.6668324401882764
 20
1.189680860306108
 10
-0.7034674353054644
 20
1.189680860306108
 10
-0.7034674353054644
 20
1.226315855423294
 10
-0.716789251711715
 20
1.226315855423294
  0
LWPOLYLINE
  5
2AC
330
18
100
AcDbEntity
  8
TEXT
100
AcDbPolyline
 90
        5
 70
     0
 43
0.0001332181640625
 10
-0.716789251711715
 20
1.246298580032668
 10
-0.7034674353054662
 20
1.246298580032668
 10
-0.7034674353054662
 20
1.282933575149858
 10
-0.6668324401882764
 20
1.282933575149858
 10
-0.6668324401882764
 20
1.296255391556105
  0
LWPOLYLINE
  5
2AD
330
18
100
AcDbEntity
  8
TEXT
100
AcDbPolyline
 90
        2
 70
     0
 43
0.0001332181640625
 10
-0.7634156091335918
 20
1.256289942337357
 10
-0.7034674353054662
 20
1.246298580032668
  0
LWPOLYLINE
  5
2AE
330
18
100
AcDbEntity
  8
TEXT
100
AcDbPolyline
 90
        2
 70
     0
 43
0.0001332181640625
 10
-0.7900592419460893
 20
1.256289942337357
 10
-0.716789251711715
 20
1.246298580032668
  0
LWPOLYLINE
  5
2AF
330
18
100
AcDbEntity
  8
TEXT
100
AcDbPolyline
 90
        2
 70
     0
 43
0.0006660908203125
 10
-0.7634156091335918
 20
1.256289942337357
 10
-0.7900592419460893
 20
1.256289942337357
  0
LWPOLYLINE
  5
2B0
330
18
100
AcDbEntity
  8
TEXT
100
AcDbPolyline
 90
        2
 70
     0
 43
0.0001332181640625
 10
-0.7634156091335918
 20
1.129732686477982
 10
-0.7034674353054644
 20
1.189680860306108
  0
LWPOLYLINE
  5
2B1
330
18
100
AcDbEntity
  8
TEXT
100
AcDbPolyline
 90
        2
 70
     0
 43
0.0006660908203125
 10
-0.7634156091335918
 20
1.216324493118609
 10
-0.7900592419460893
 20
1.216324493118609
  0
LWPOLYLINE
  5
2B2
330
18
100
AcDbEntity
  8
TEXT
100
AcDbPolyline
 90
        2
 70
     0
 43
0.0001332181640625
 10
-0.716789251711715
 20
1.226315855423294
 10
-0.7900592419460893
 20
1.216324493118609
  0
LWPOLYLINE
  5
2B3
330
18
100
AcDbEntity
  8
TEXT
100
AcDbPolyline
 90
        2
 70
     0
 43
0.0001332181640625
 10
-0.7634156091335918
 20
1.216324493118609
 10
-0.7034674353054644
 20
1.226315855423294
  0
LWPOLYLINE
  5
2B4
330
18
100
AcDbEntity
  8
TEXT
100
AcDbPolyline
 90
        5
 70
     0
 43
0.0001332181640625
 10
-0.6468497155789042
 20
1.296255391556105
 10
-0.6468497155789042
 20
1.282933575149858
 10
-0.6102147204617144
 20
1.282933575149858
 10
-0.6102147204617144
 20
1.246298580032668
 10
-0.5968929040554656
 20
1.246298580032668
  0
LWPOLYLINE
  5
2B5
330
18
100
AcDbEntity
  8
TEXT
100
AcDbPolyline
 90
        2
 70
     0
 43
0.0001332181640625
 10
-0.5502665466335906
 20
1.256289942337357
 10
-0.6102147204617144
 20
1.246298580032668
  0
LWPOLYLINE
  5
2B6
330
18
100
AcDbEntity
  8
TEXT
100
AcDbPolyline
 90
        2
 70
     0
 43
0.0006660908203125
 10
-0.676823802492967
 20
1.129732686477982
 10
-0.676823802492967
 20
1.103089053665481
  0
LWPOLYLINE
  5
2B7
330
18
100
AcDbEntity
  8
TEXT
100
AcDbPolyline
 90
        2
 70
     0
 43
0.0001332181640625
 10
-0.676823802492967
 20
1.129732686477982
 10
-0.6668324401882764
 20
1.189680860306108
  0
LWPOLYLINE
  5
2B8
330
18
100
AcDbEntity
  8
TEXT
100
AcDbPolyline
 90
        2
 70
     0
 43
0.0001332181640625
 10
-0.676823802492967
 20
1.103089053665481
 10
-0.6668324401882764
 20
1.176359043899857
  0
LWPOLYLINE
  5
2B9
330
18
100
AcDbEntity
  8
TEXT
100
AcDbPolyline
 90
        2
 70
     0
 43
0.0001332181640625
 10
-0.6368583532742154
 20
1.129732686477982
 10
-0.6468497155789042
 20
1.189680860306108
  0
LWPOLYLINE
  5
2BA
330
18
100
AcDbEntity
  8
TEXT
100
AcDbPolyline
 90
        2
 70
     0
 43
0.0001332181640625
 10
-0.6468497155789042
 20
1.176359043899857
 10
-0.6368583532742154
 20
1.103089053665481
  0
LWPOLYLINE
  5
2BB
330
18
100
AcDbEntity
  8
TEXT
100
AcDbPolyline
 90
        2
 70
     0
 43
0.0006660908203125
 10
-0.6368583532742154
 20
1.129732686477982
 10
-0.6368583532742154
 20
1.103089053665481
  0
LWPOLYLINE
  5
2BC
330
18
100
AcDbEntity
  8
TEXT
100
AcDbPolyline
 90
        2
 70
     0
 43
0.0001332181640625
 10
-0.5502665466335906
 20
1.129732686477982
 10
-0.6102147204617144
 20
1.189680860306108
  0
LWPOLYLINE
  5
2BD
330
18
100
AcDbEntity
  8
TEXT
100
AcDbPolyline
 90
        3
 70
     0
 43
0.0006660908203125
 10
-0.6368583532742154
 20
1.129732686477982
 10
-0.5502665466335906
 20
1.129732686477982
 10
-0.5502665466335906
 20
1.216324493118609
  0
LWPOLYLINE
  5
2BE
330
18
100
AcDbEntity
  8
TEXT
100
AcDbPolyline
 90
        2
 70
     0
 43
0.0001332181640625
 10
-0.5502665466335906
 20
1.216324493118609
 10
-0.6102147204617144
 20
1.226315855423294
  0
LWPOLYLINE
  5
2BF
330
18
100
AcDbEntity
  8
TEXT
100
AcDbPolyline
 90
        5
 70
     0
 43
0.0001332181640625
 10
-0.5968929040554656
 20
1.226315855423294
 10
-0.6102147204617144
 20
1.226315855423294
 10
-0.6102147204617144
 20
1.189680860306108
 10
-0.6468497155789042
 20
1.189680860306108
 10
-0.6468497155789042
 20
1.176359043899857
  0
ARC
  5
2C0
330
18
100
AcDbEntity
  8
TEXT
100
AcDbCircle
 10
-0.2535087769730637
 20
1.287346326328403
 30
0.0
 40
0.017902360805315
100
AcDbArc
 50
90.0
 51
270.0
  0
LINE
  5
2C1
330
18
100
AcDbEntity
  8
TEXT
100
AcDbLine
 10
-0.3408335665338171
 20
1.171409355135409
 30
0.0
 11
-0.3408335665338154
 21
1.10305234880197
 31
0.0
  0
TEXT
  5
2C2
330
18
100
AcDbEntity
  8
TEXT
100
AcDbText
 10
1.365894450121219
 20
1.102679730481174
 30
0.0
 40
0.0522247191011236
  1
Phone  1-800-328-2495
 41
1.272321428571429
 72
     5
 11
2.694827034390883
 21
1.102679730481174
 31
0.0
100
AcDbText
  0
TEXT
  5
2C3
330
18
100
AcDbEntity
  8
TEXT
100
AcDbText
 10
1.365894450121219
 20
1.195938157447466
 30
0.0
 40
0.0522247191011236
  1
Minneapolis, MN 55432-0008
 41
1.11444212721585
 72
     5
 11
2.694827034390883
 21
1.195938157447466
 31
0.0
100
AcDbText
  0
LINE
  5
2C4
330
18
100
AcDbEntity
  8
TEXT
100
AcDbLine
 10
0.9203227908229614
 20
1.305248687133715
 30
0.0
 11
0.9969707721155174
 21
1.305248687133715
 31
0.0
  0
LINE
  5
2C5
330
18
100
AcDbEntity
  8
TEXT
100
AcDbLine
 10
0.3622796331922871
 20
1.305248687133715
 30
0.0
 11
0.4121149130154365
 21
1.305248687133715
 31
0.0
  0
ARC
  5
2C6
330
18
100
AcDbEntity
  8
TEXT
100
AcDbCircle
 10
0.0638137409218835
 20
1.142600071075666
 30
0.0
 40
0.0392772371940762
100
AcDbArc
 50
270.1604552698595
 51
330.0831797321295
  0
ARC
  5
2C7
330
18
100
AcDbEntity
  8
TEXT
100
AcDbCircle
 10
-0.0264871049703412
 20
1.16284474014002
 30
0.0
 40
0.0601160179737537
100
AcDbArc
 50
180.0000000000003
 51
264.0521544866073
  0
LINE
  5
2C8
330
18
100
AcDbEntity
  8
TEXT
100
AcDbLine
 10
-0.0866031229440942
 20
1.305248687133715
 30
0.0
 11
-0.0866031229440942
 21
1.16284474014002
 31
0.0
  0
ARC
  5
2C9
330
18
100
AcDbEntity
  8
TEXT
100
AcDbCircle
 10
-0.182968266822483
 20
1.188379909016443
 30
0.0
 40
0.0169705538810321
100
AcDbArc
 50
270.0
 51
90.0
  0
ARC
  5
2CA
330
18
100
AcDbEntity
  8
TEXT
100
AcDbCircle
 10
-0.1879086407287627
 20
1.186248157162527
 30
0.0
 40
0.0831958083605586
100
AcDbArc
 50
270.0
 51
90.0
  0
LWPOLYLINE
  5
2CB
330
18
100
AcDbEntity
  8
TEXT
100
AcDbPolyline
 90
        6
 70
     1
 43
0.0
 10
0.0098072881111619
 20
1.305248687133715
 10
-0.0205093061090462
 20
1.305248687133715
 10
-0.0205093061090462
 20
1.182137689078821
 42
0.407328721240804
 10
-0.0089656549475698
 20
1.170318774402435
 10
0.051656044097161
 20
1.170318774402435
 10
0.0691213845044789
 20
1.203131003445914
  0
LINE
  5
2CC
330
18
100
AcDbEntity
  8
TEXT
100
AcDbLine
 10
-0.0327165154639886
 20
1.10305234880197
 30
0.0
 11
0.0639237356110059
 21
1.103322987900252
 31
0.0
  0
LWPOLYLINE
  5
2CD
330
18
100
AcDbEntity
  8
TEXT
100
AcDbPolyline
 90
        2
 70
     0
 43
0.0
 10
0.1951570069275412
 20
1.154603691016898
 42
0.3318488747599744
 10
0.2642762994928542
 20
1.10305234880197
 42
-6.868794160588311
  0
LINE
  5
2CE
330
18
100
AcDbEntity
  8
TEXT
100
AcDbLine
 10
0.1951570069275412
 20
1.287361065842251
 30
0.0
 11
0.1951570069275412
 21
1.154603691016895
 31
0.0
  0
LINE
  5
2CF
330
18
100
AcDbEntity
  8
TEXT
100
AcDbLine
 10
0.0978573008340966
 20
1.123010854906983
 30
0.0
 11
0.1951570069275412
 21
1.287361065842251
 31
0.0
  0
ARC
  5
2D0
330
18
100
AcDbEntity
  8
TEXT
100
AcDbCircle
 10
0.2784549432497165
 20
1.184042981301498
 30
0.0
 40
0.0153818062434269
100
AcDbArc
 50
174.7883570302258
 51
270.0
  0
LINE
  5
2D1
330
18
100
AcDbEntity
  8
TEXT
100
AcDbLine
 10
0.2954485801343196
 20
1.168661175058073
 30
0.0
 11
0.2784549432497165
 21
1.168661175058073
 31
0.0
  0
LINE
  5
2D2
330
18
100
AcDbEntity
  8
TEXT
100
AcDbLine
 10
0.2642762994928525
 20
1.10305234880197
 30
0.0
 11
0.3622796331922871
 21
1.10305234880197
 31
0.0
  0
LINE
  5
2D3
330
18
100
AcDbEntity
  8
TEXT
100
AcDbLine
 10
0.3622796331922871
 20
1.10305234880197
 30
0.0
 11
0.3622796331922871
 21
1.305248687133715
 31
0.0
  0
LINE
  5
2D4
330
18
100
AcDbEntity
  8
TEXT
100
AcDbLine
 10
0.7251311871804092
 20
1.305248687133715
 30
0.0
 11
0.617924913793118
 21
1.305248687133715
 31
0.0
  0
LINE
  5
2D5
330
18
100
AcDbEntity
  8
TEXT
100
AcDbLine
 10
0.6786442727011455
 20
1.267973713671583
 30
0.0
 11
0.7609322624845305
 21
1.267973713671583
 31
0.0
  0
LWPOLYLINE
  5
2D6
330
18
100
AcDbEntity
  8
TEXT
100
AcDbPolyline
 90
        4
 70
     1
 43
0.0
 10
0.7738633037674294
 20
1.206016326785995
 10
0.685202985107571
 20
1.206016326785995
 42
0.9999999999999998
 10
0.685202985107571
 20
1.163617786282134
 10
0.7738633037674294
 20
1.163617786282134
 42
1.0
  0
LWPOLYLINE
  5
2D7
330
18
100
AcDbEntity
  8
TEXT
100
AcDbPolyline
 90
        2
 70
     0
 43
0.0
 10
0.6599683512059454
 20
1.10305234880197
 10
0.793985768837322
 20
1.10305234880197
 42
0.9999999999999998
  0
LINE
  5
2D8
330
18
100
AcDbEntity
  8
TEXT
100
AcDbLine
 10
0.4867267489633882
 20
1.305248687133715
 30
0.0
 11
0.5408603458843402
 21
1.305248687133715
 31
0.0
  0
LINE
  5
2D9
330
18
100
AcDbEntity
  8
TEXT
100
AcDbLine
 10
0.41966870218155
 20
1.10305234880197
 30
0.0
 11
0.4867267489633882
 21
1.10305234880197
 31
0.0
  0
LINE
  5
2DA
330
18
100
AcDbEntity
  8
TEXT
100
AcDbLine
 10
0.4867267489633882
 20
1.10305234880197
 30
0.0
 11
0.4867267489633882
 21
1.305248687133715
 31
0.0
  0
LINE
  5
2DB
330
18
100
AcDbEntity
  8
TEXT
100
AcDbLine
 10
0.41966870218155
 20
1.297694897967605
 30
0.0
 11
0.41966870218155
 21
1.10305234880197
 31
0.0
  0
LWPOLYLINE
  5
2DC
330
18
100
AcDbEntity
  8
TEXT
100
AcDbPolyline
 90
        2
 70
     0
 43
0.0
 10
0.4121149130154347
 20
1.305248687133715
 42
-0.4142135623731017
 10
0.4196687021815482
 20
1.297694897967605
 42
-0.9999999999999998
  0
LINE
  5
2DD
330
18
100
AcDbEntity
  8
TEXT
100
AcDbLine
 10
0.617924913793118
 20
1.305248687133715
 30
0.0
 11
0.617924913793118
 21
1.230196281059509
 31
0.0
  0
ARC
  5
2DE
330
18
100
AcDbEntity
  8
TEXT
100
AcDbCircle
 10
0.6786442727011455
 20
1.200288132527465
 30
0.0
 40
0.0676855811441166
100
AcDbArc
 50
90.0
 51
153.7768192527749
  0
LWPOLYLINE
  5
2DF
330
18
100
AcDbEntity
  8
TEXT
100
AcDbPolyline
 90
        2
 70
     0
 43
0.0
 10
0.6168924183383098
 20
1.146543293752408
 42
0.2901071551932823
 10
0.6599683512059454
 20
1.10305234880197
 42
5.328517124445801
  0
LWPOLYLINE
  5
2E0
330
18
100
AcDbEntity
  8
TEXT
100
AcDbPolyline
 90
        2
 70
     0
 43
0.0
 10
0.5408603458843384
 20
1.305248687133715
 42
-0.4142135623731017
 10
0.5484141350504519
 20
1.297694897967605
 42
-0.9999999999999998
  0
LWPOLYLINE
  5
2E1
330
18
100
AcDbEntity
  8
TEXT
100
AcDbPolyline
 90
        4
 70
     0
 43
0.0
 10
0.5484141350504519
 20
1.297694897967605
 10
0.5484141350504519
 20
1.10305234880197
 10
0.6168924183383098
 20
1.10305234880197
 10
0.6168924183383098
 20
1.146543293752408
 42
-1.714843617202739
  0
LWPOLYLINE
  5
2E2
330
18
100
AcDbEntity
  8
TEXT
100
AcDbPolyline
 90
        2
 70
     0
 43
0.0
 10
0.8370617017049664
 20
1.146543293752408
 42
-0.2901071551932486
 10
0.793985768837322
 20
1.10305234880197
 42
-5.328517124445184
  0
LWPOLYLINE
  5
2E3
330
18
100
AcDbEntity
  8
TEXT
100
AcDbPolyline
 90
        2
 70
     0
 43
0.0
 10
0.8370617017049664
 20
1.10305234880197
 10
0.8954169155403004
 20
1.10305234880197
  0
LWPOLYLINE
  5
2E4
330
18
100
AcDbEntity
  8
TEXT
100
AcDbPolyline
 90
        2
 70
     0
 43
0.0
 10
0.8370617017049664
 20
1.146543293752408
 10
0.8370617017049664
 20
1.10305234880197
  0
LINE
  5
2E5
330
18
100
AcDbEntity
  8
TEXT
100
AcDbLine
 10
0.7609322624845305
 20
1.267973713671583
 30
0.0
 11
0.7506675020709644
 21
1.289224253244277
 31
0.0
  0
LINE
  5
2E6
330
18
100
AcDbEntity
  8
TEXT
100
AcDbLine
 10
0.8954169155403022
 20
1.10305234880197
 30
0.0
 11
0.8954169155402951
 21
1.280342854233438
 31
0.0
  0
LINE
  5
2E7
330
18
100
AcDbEntity
  8
TEXT
100
AcDbLine
 10
1.213830862021815
 20
1.10305234880197
 30
0.0
 11
1.118338638658205
 21
1.259632138849507
 31
0.0
  0
LINE
  5
2E8
330
18
100
AcDbEntity
  8
TEXT
100
AcDbLine
 10
1.137252489645607
 20
1.10305234880197
 30
0.0
 11
1.213830862021815
 21
1.10305234880197
 31
0.0
  0
LINE
  5
2E9
330
18
100
AcDbEntity
  8
TEXT
100
AcDbLine
 10
0.9969707721155245
 20
1.10305234880197
 30
0.0
 11
1.061348956434144
 21
1.10305234880197
 31
0.0
  0
LINE
  5
2EA
330
18
100
AcDbEntity
  8
TEXT
100
AcDbLine
 10
0.9969707721155174
 20
1.305248687133715
 30
0.0
 11
0.9969707721155245
 21
1.10305234880197
 31
0.0
  0
LINE
  5
2EB
330
18
100
AcDbEntity
  8
TEXT
100
AcDbLine
 10
1.061348956434144
 20
1.23463191727815
 30
0.0
 11
1.137252489645607
 21
1.10305234880197
 31
0.0
  0
LINE
  5
2EC
330
18
100
AcDbEntity
  8
TEXT
100
AcDbLine
 10
1.061348956434144
 20
1.10305234880197
 30
0.0
 11
1.061348956434144
 21
1.23463191727815
 31
0.0
  0
LINE
  5
2ED
330
18
100
AcDbEntity
  8
TEXT
100
AcDbLine
 10
-0.0830143541888013
 20
1.369525381790481
 30
0.0
 11
-0.2587461070873118
 21
1.369525381790481
 31
0.0
  0
LWPOLYLINE
  5
2EE
330
18
100
AcDbEntity
  8
TEXT
100
AcDbPolyline
 90
        2
 70
     0
 43
0.0006660908203125
 10
-0.676823802492967
 20
1.342881748977983
 10
-0.676823802492967
 20
1.369525381790484
  0
LWPOLYLINE
  5
2EF
330
18
100
AcDbEntity
  8
TEXT
100
AcDbPolyline
 90
        2
 70
     0
 43
0.0006660908203125
 10
-0.6368583532742154
 20
1.342881748977983
 10
-0.6368583532742154
 20
1.369525381790484
  0
TEXT
  5
2F0
330
18
100
AcDbEntity
  8
TEXT
100
AcDbText
 10
1.365894450121219
 20
1.38245501138005
 30
0.0
 40
0.0522247191011236
  1
Stylmark  Incorporated
 41
1.221428571428571
 72
     5
 11
2.694827034390883
 21
1.38245501138005
 31
0.0
100
AcDbText
  0
LINE
  5
2F1
330
18
100
AcDbEntity
  8
TEXT
100
AcDbLine
 10
0.9924908847890172
 20
1.369525381790481
 30
0.0
 11
0.9249911671395025
 21
1.369525381790481
 31
0.0
  0
TEXT
  5
2F2
330
18
100
AcDbEntity
  8
TEXT
100
AcDbText
 10
0.1966369109185159
 20
1.549602373153549
 30
0.0
 40
0.125
  1
PART #110495
  7
ITALICC
 72
     1
 11
0.9525892918708969
 21
1.549602373153549
 31
0.0
100
AcDbText
  0
LINE
  5
2F3
330
18
100
AcDbEntity
  8
TEXT
100
AcDbLine
 10
0.429466636065456
 20
1.369525381790481
 30
0.0
 11
0.2954485801343196
 21
1.369525381790481
 31
0.0
  0
LINE
  5
2F4
330
18
100
AcDbEntity
  8
TEXT
100
AcDbLine
 10
-0.0229717493447943
 20
1.403913299384619
 30
0.0
 11
-0.0830143541888013
 21
1.403913299384619
 31
0.0
  0
LINE
  5
2F5
330
18
100
AcDbEntity
  8
TEXT
100
AcDbLine
 10
-0.0830143541888013
 20
1.403913299384619
 30
0.0
 11
-0.0830143541888013
 21
1.369525381790481
 31
0.0
  0
LINE
  5
2F6
330
18
100
AcDbEntity
  8
TEXT
100
AcDbLine
 10
0.0488272167991148
 20
1.369525381790481
 30
0.0
 11
-0.0229717493447943
 21
1.369525381790481
 31
0.0
  0
LINE
  5
2F7
330
18
100
AcDbEntity
  8
TEXT
100
AcDbLine
 10
-0.0229717493447943
 20
1.369525381790481
 30
0.0
 11
-0.0229717493447943
 21
1.403913299384619
 31
0.0
  0
LINE
  5
2F8
330
18
100
AcDbEntity
  8
TEXT
100
AcDbLine
 10
0.2631367259966595
 20
1.437536859529291
 30
0.0
 11
0.1963280134302927
 21
1.437536859529291
 31
0.0
  0
LINE
  5
2F9
330
18
100
AcDbEntity
  8
TEXT
100
AcDbLine
 10
0.1963280134302927
 20
1.369525381790481
 30
0.0
 11
0.1662061006369164
 21
1.369525381790481
 31
0.0
  0
LINE
  5
2FA
330
18
100
AcDbEntity
  8
TEXT
100
AcDbLine
 10
0.1963280134302927
 20
1.437536859529291
 30
0.0
 11
0.1963280134302927
 21
1.369525381790481
 31
0.0
  0
LINE
  5
2FB
330
18
100
AcDbEntity
  8
TEXT
100
AcDbLine
 10
0.7541620855248859
 20
1.369525381790481
 30
0.0
 11
0.6193301763078268
 21
1.369525381790481
 31
0.0
  0
LWPOLYLINE
  5
2FC
330
18
100
AcDbEntity
  8
TEXT
100
AcDbPolyline
 90
        3
 70
     0
 43
0.0
 10
0.5835484855946618
 20
1.369525381790484
 10
0.4652483267786174
 20
1.369525381790484
 10
0.4652483267786174
 20
1.342357885029588
 42
-1.960274751411753
  0
LWPOLYLINE
  5
2FD
330
18
100
AcDbEntity
  8
TEXT
100
AcDbPolyline
 90
        2
 70
     0
 43
0.0
 10
0.429466636065456
 20
1.369525381790484
 42
-0.3328679258950098
 10
0.4652483267786174
 20
1.342357885029588
 42
6.772930709997214
  0
LINE
  5
2FE
330
18
100
AcDbEntity
  8
TEXT
100
AcDbLine
 10
0.6193301763078268
 20
1.369525381790481
 30
0.0
 11
0.6193301763078268
 21
1.341202836020837
 31
0.0
  0
LWPOLYLINE
  5
2FF
330
18
100
AcDbEntity
  8
TEXT
100
AcDbPolyline
 90
        2
 70
     0
 43
0.0
 10
0.5835484855946618
 20
1.369525381790484
 42
-0.3277054968067132
 10
0.6193301763078268
 20
1.341202836020841
 42
6.667889725900311
  0
LINE
  5
300
330
18
100
AcDbEntity
  8
TEXT
100
AcDbLine
 10
0.8970189306994278
 20
1.369525381790481
 30
0.0
 11
0.8331220243999268
 21
1.369525381790481
 31
0.0
  0
ARC
  5
301
330
18
100
AcDbEntity
  8
TEXT
100
AcDbCircle
 10
0.7521351457478183
 20
1.327941814669578
 30
0.0
 40
0.0416329381542859
100
AcDbArc
 50
26.56974201007528
 51
87.20939649401342
  0
LINE
  5
302
330
18
100
AcDbEntity
  8
TEXT
100
AcDbLine
 10
0.8970189306994278
 20
1.341977731929606
 30
0.0
 11
0.8970189306994278
 21
1.369525381790481
 31
0.0
  0
ARC
  5
303
330
18
100
AcDbEntity
  8
TEXT
100
AcDbCircle
 10
0.9282117477625373
 20
1.338279654508216
 30
0.0
 40
0.0314112657011332
100
AcDbArc
 50
95.88484768694724
 51
173.2388340632136
  0
LINE
  5
304
330
18
100
AcDbEntity
  8
TEXT
100
AcDbLine
 10
1.18289575462391
 20
1.369525381790481
 30
0.0
 11
1.107903921894283
 21
1.369525381790481
 31
0.0
  0
LINE
  5
305
330
18
100
AcDbEntity
  8
TEXT
100
AcDbLine
 10
0.9924908847890243
 20
1.434989587558082
 30
0.0
 11
0.9924908847890172
 21
1.369525381790481
 31
0.0
  0
LINE
  5
306
330
18
100
AcDbEntity
  8
TEXT
100
AcDbLine
 10
1.060805763338297
 20
1.434989587558082
 30
0.0
 11
0.9924908847890243
 21
1.434989587558082
 31
0.0
  0
ENDSEC
  0
SECTION
  2
OBJECTS
  0
DICTIONARY
  5
C
330
0
100
AcDbDictionary
  3
ACAD_GROUP
350
D
  3
ACAD_LAYOUT
350
30B
  3
ACAD_MLINESTYLE
350
E
  3
ACAD_PLOTSETTINGS
350
30C
  3
ACAD_PLOTSTYLENAME
350
309
  3
ACDBHEADERROUNDTRIPXREC
350
317
  3
ACDBVARIABLEDICTIONARY
350
314
  0
DICTIONARY
  5
339
330
18
100
AcDbDictionary
280
     1
  3
ACAD_LAYOUTSELFREF
360
33A
  0
DICTIONARY
  5
337
330
15
100
AcDbDictionary
280
     1
  3
ACAD_LAYOUTSELFREF
360
338
  0
DICTIONARY
  5
D
102
{ACAD_REACTORS
330
C
102
}
330
C
100
AcDbDictionary
  0
DICTIONARY
  5
30B
102
{ACAD_REACTORS
330
C
102
}
330
C
100
AcDbDictionary
  0
DICTIONARY
  5
E
102
{ACAD_REACTORS
330
C
102
}
330
C
100
AcDbDictionary
  3
STANDARD
350
1B
  0
DICTIONARY
  5
30C
102
{ACAD_REACTORS
330
C
102
}
330
C
100
AcDbDictionary
  0
ACDBDICTIONARYWDFLT
  5
309
102
{ACAD_REACTORS
330
C
102
}
330
C
100
AcDbDictionary
281
     1
  3
Normal
350
30A
100
AcDbDictionaryWithDefault
340
30A
  0
DICTIONARY
  5
317
102
{ACAD_REACTORS
330
C
102
}
330
C
100
AcDbDictionary
  3
CEPSNTYPE
350
321
  3
FINGERPRINTGUID
350
322
  3
HYPERLINKBASE
350
31A
  3
INSUNITS
350
320
  3
LAYOUTDICT
350
31C
  3
LWETCUNION
350
31F
  3
PLOTSETDICT
350
31D
  3
PLOTSTYLNAMDICT
350
31E
  3
PSVPSCALE
350
324
  3
PUCSBASE
350
327
  3
PUCSORGBACK
350
32D
  3
PUCSORGBOTTOM
350
329
  3
PUCSORGFRONT
350
32C
  3
PUCSORGLEFT
350
32A
  3
PUCSORGRIGHT
350
32B
  3
PUCSORGTOP
350
328
  3
PUCSORTHOREF
350
325
  3
PUCSORTHOVIEW
350
326
  3
STYLESHEET
350
31B
  3
TSTACKALIGN
350
318
  3
TSTACKSIZE
350
319
  3
UCSBASE
350
330
  3
UCSORGBACK
350
336
  3
UCSORGBOTTOM
350
332
  3
UCSORGFRONT
350
335
  3
UCSORGLEFT
350
333
  3
UCSORGRIGHT
350
334
  3
UCSORGTOP
350
331
  3
UCSORTHOREF
350
32E
  3
UCSORTHOVIEW
350
32F
  3
VERSIONGUID
350
323
  0
DICTIONARY
  5
314
102
{ACAD_REACTORS
330
C
102
}
330
C
100
AcDbDictionary
  3
DIMASSOC
350
315
  0
XRECORD
  5
33A
102
{ACAD_REACTORS
330
339
102
}
330
339
100
AcDbXrecord
340
18
  0
XRECORD
  5
338
102
{ACAD_REACTORS
330
337
102
}
330
337
100
AcDbXrecord
340
15
  0
MLINESTYLE
  5
1B
102
{ACAD_REACTORS
330
E
102
}
330
E
100
AcDbMlineStyle
  2
STANDARD
 70
     0
  3

 62
     0
 51
90.0
 52
90.0
 71
     2
 49
0.5
 62
   256
  6
BYLAYER
 49
-0.5
 62
   256
  6
BYLAYER
  0
ACDBPLACEHOLDER
  5
30A
102
{ACAD_REACTORS
330
309
102
}
330
309
100
AcDbPlaceHolder
280
     0
  0
XRECORD
  5
321
102
{ACAD_REACTORS
330
317
102
}
330
317
100
AcDbXrecord
 90
        0
  0
XRECORD
  5
322
102
{ACAD_REACTORS
330
317
102
}
330
317
100
AcDbXrecord
  1
{D692CE20-8DB7-11D6-88E6-0090279574E7}
  0
XRECORD
  5
31A
102
{ACAD_REACTORS
330
317
102
}
330
317
100
AcDbXrecord
  1

  0
XRECORD
  5
320
102
{ACAD_REACTORS
330
317
102
}
330
317
100
AcDbXrecord
 90
        0
  0
XRECORD
  5
31C
102
{ACAD_REACTORS
330
317
102
}
330
317
100
AcDbXrecord
340
30B
  0
XRECORD
  5
31F
102
{ACAD_REACTORS
330
317
102
}
330
317
100
AcDbXrecord
 90
    14877
  0
XRECORD
  5
31D
102
{ACAD_REACTORS
330
317
102
}
330
317
100
AcDbXrecord
340
30C
  0
XRECORD
  5
31E
102
{ACAD_REACTORS
330
317
102
}
330
317
100
AcDbXrecord
340
309
  0
XRECORD
  5
324
102
{ACAD_REACTORS
330
317
102
}
330
317
100
AcDbXrecord
 40
0.0
  0
XRECORD
  5
327
102
{ACAD_REACTORS
330
317
102
}
330
317
100
AcDbXrecord
340
0
  0
XRECORD
  5
32D
102
{ACAD_REACTORS
330
317
102
}
330
317
100
AcDbXrecord
 10
0.0
 20
0.0
 30
0.0
  0
XRECORD
  5
329
102
{ACAD_REACTORS
330
317
102
}
330
317
100
AcDbXrecord
 10
0.0
 20
0.0
 30
0.0
  0
XRECORD
  5
32C
102
{ACAD_REACTORS
330
317
102
}
330
317
100
AcDbXrecord
 10
0.0
 20
0.0
 30
0.0
  0
XRECORD
  5
32A
102
{ACAD_REACTORS
330
317
102
}
330
317
100
AcDbXrecord
 10
0.0
 20
0.0
 30
0.0
  0
XRECORD
  5
32B
102
{ACAD_REACTORS
330
317
102
}
330
317
100
AcDbXrecord
 10
0.0
 20
0.0
 30
0.0
  0
XRECORD
  5
328
102
{ACAD_REACTORS
330
317
102
}
330
317
100
AcDbXrecord
 10
0.0
 20
0.0
 30
0.0
  0
XRECORD
  5
325
102
{ACAD_REACTORS
330
317
102
}
330
317
100
AcDbXrecord
340
0
  0
XRECORD
  5
326
102
{ACAD_REACTORS
330
317
102
}
330
317
100
AcDbXrecord
 70
     0
  0
XRECORD
  5
31B
102
{ACAD_REACTORS
330
317
102
}
330
317
100
AcDbXrecord
  1

  0
XRECORD
  5
318
102
{ACAD_REACTORS
330
317
102
}
330
317
100
AcDbXrecord
 90
        1
  0
XRECORD
  5
319
102
{ACAD_REACTORS
330
317
102
}
330
317
100
AcDbXrecord
 90
       70
  0
XRECORD
  5
330
102
{ACAD_REACTORS
330
317
102
}
330
317
100
AcDbXrecord
340
0
  0
XRECORD
  5
336
102
{ACAD_REACTORS
330
317
102
}
330
317
100
AcDbXrecord
 10
0.0
 20
0.0
 30
0.0
  0
XRECORD
  5
332
102
{ACAD_REACTORS
330
317
102
}
330
317
100
AcDbXrecord
 10
0.0
 20
0.0
 30
0.0
  0
XRECORD
  5
335
102
{ACAD_REACTORS
330
317
102
}
330
317
100
AcDbXrecord
 10
0.0
 20
0.0
 30
0.0
  0
XRECORD
  5
333
102
{ACAD_REACTORS
330
317
102
}
330
317
100
AcDbXrecord
 10
0.0
 20
0.0
 30
0.0
  0
XRECORD
  5
334
102
{ACAD_REACTORS
330
317
102
}
330
317
100
AcDbXrecord
 10
0.0
 20
0.0
 30
0.0
  0
XRECORD
  5
331
102
{ACAD_REACTORS
330
317
102
}
330
317
100
AcDbXrecord
 10
0.0
 20
0.0
 30
0.0
  0
XRECORD
  5
32E
102
{ACAD_REACTORS
330
317
102
}
330
317
100
AcDbXrecord
340
0
  0
XRECORD
  5
32F
102
{ACAD_REACTORS
330
317
102
}
330
317
100
AcDbXrecord
 70
     0
  0
XRECORD
  5
323
102
{ACAD_REACTORS
330
317
102
}
330
317
100
AcDbXrecord
  1
{D692CE22-8DB7-11D6-88E6-0090279574E7}
  0
DICTIONARYVAR
  5
315
102
{ACAD_REACTORS
330
314
102
}
330
314
100
DictionaryVariables
280
     0
  1
1
  0
ENDSEC
  0
EOF
