  0
SECTION
  2
HEADER
  9
$ACADVER
  1
AC1014
  9
$ACADMAINTVER
 70
     9
  9
$DWGCODEPAGE
  3
ANSI_1252
  9
$INSBASE
 10
1.700992923704169
 20
1.388362847126795
 30
0.0
  9
$EXTMIN
 10
-1.751547366164403
 20
-0.4386085123793436
 30
0.0
  9
$EXTMAX
 10
1.733671955582726
 20
6.380683176062141
 30
0.0
  9
$LIMMIN
 10
0.0
 20
0.0
  9
$LIMMAX
 10
18.0
 20
12.0
  9
$ORTHOMODE
 70
     1
  9
$REGENMODE
 70
     1
  9
$FILLMODE
 70
     1
  9
$QTEXTMODE
 70
     0
  9
$MIRRTEXT
 70
     0
  9
$DRAGMODE
 70
     2
  9
$LTSCALE
 40
1.0
  9
$OSMODE
 70
    39
  9
$ATTMODE
 70
     1
  9
$TEXTSIZE
 40
0.125
  9
$TRACEWID
 40
0.05
  9
$TEXTSTYLE
  7
ROMANS
  9
$CLAYER
  8
0
  9
$CELTYPE
  6
BYLAYER
  9
$CECOLOR
 62
   256
  9
$CELTSCALE
 40
1.0
  9
$DELOBJ
 70
     1
  9
$DISPSILH
 70
     1
  9
$DIMSCALE
 40
1.0
  9
$DIMASZ
 40
0.125
  9
$DIMEXO
 40
0.125
  9
$DIMDLI
 40
0.375
  9
$DIMRND
 40
0.0
  9
$DIMDLE
 40
0.0
  9
$DIMEXE
 40
0.125
  9
$DIMTP
 40
0.0
  9
$DIMTM
 40
0.0
  9
$DIMTXT
 40
0.125
  9
$DIMCEN
 40
-0.125
  9
$DIMTSZ
 40
0.0
  9
$DIMTOL
 70
     0
  9
$DIMLIM
 70
     0
  9
$DIMTIH
 70
     1
  9
$DIMTOH
 70
     1
  9
$DIMSE1
 70
     0
  9
$DIMSE2
 70
     0
  9
$DIMTAD
 70
     0
  9
$DIMZIN
 70
     4
  9
$DIMBLK
  1

  9
$DIMASO
 70
     1
  9
$DIMSHO
 70
     1
  9
$DIMPOST
  1

  9
$DIMAPOST
  1

  9
$DIMALT
 70
     0
  9
$DIMALTD
 70
     2
  9
$DIMALTF
 40
25.4
  9
$DIMLFAC
 40
1.0
  9
$DIMTOFL
 70
     0
  9
$DIMTVP
 40
0.0
  9
$DIMTIX
 70
     1
  9
$DIMSOXD
 70
     0
  9
$DIMSAH
 70
     0
  9
$DIMBLK1
  1

  9
$DIMBLK2
  1

  9
$DIMSTYLE
  2
STANDARD
  9
$DIMCLRD
 70
     0
  9
$DIMCLRE
 70
     0
  9
$DIMCLRT
 70
     0
  9
$DIMTFAC
 40
1.0
  9
$DIMGAP
 40
0.09
  9
$DIMJUST
 70
     0
  9
$DIMSD1
 70
     0
  9
$DIMSD2
 70
     0
  9
$DIMTOLJ
 70
     1
  9
$DIMTZIN
 70
     4
  9
$DIMALTZ
 70
     0
  9
$DIMALTTZ
 70
     0
  9
$DIMFIT
 70
     3
  9
$DIMUPT
 70
     0
  9
$DIMUNIT
 70
     2
  9
$DIMDEC
 70
     3
  9
$DIMTDEC
 70
     3
  9
$DIMALTU
 70
     2
  9
$DIMALTTD
 70
     2
  9
$DIMTXSTY
  7
ROMANS
  9
$DIMAUNIT
 70
     0
  9
$LUNITS
 70
     2
  9
$LUPREC
 70
     3
  9
$SKETCHINC
 40
0.1
  9
$FILLETRAD
 40
0.03125
  9
$AUNITS
 70
     0
  9
$AUPREC
 70
     0
  9
$MENU
  1
G:\DAVE\ACADW
  9
$ELEVATION
 40
0.0
  9
$PELEVATION
 40
0.0
  9
$THICKNESS
 40
0.0
  9
$LIMCHECK
 70
     0
  9
$BLIPMODE
 70
     0
  9
$CHAMFERA
 40
0.0
  9
$CHAMFERB
 40
0.0
  9
$CHAMFERC
 40
0.0
  9
$CHAMFERD
 40
0.0
  9
$SKPOLY
 70
     0
  9
$TDCREATE
 40
2449518.663318750
  9
$TDUPDATE
 40
2452458.314050856
  9
$TDINDWG
 40
0.0003376736
  9
$TDUSRTIMER
 40
0.0003376736
  9
$USRTIMER
 70
     1
  9
$ANGBASE
 50
0.0
  9
$ANGDIR
 70
     0
  9
$PDMODE
 70
     0
  9
$PDSIZE
 40
0.0
  9
$PLINEWID
 40
0.0
  9
$COORDS
 70
     2
  9
$SPLFRAME
 70
     0
  9
$SPLINETYPE
 70
     6
  9
$SPLINESEGS
 70
     8
  9
$ATTDIA
 70
     0
  9
$ATTREQ
 70
     1
  9
$HANDLING
 70
 22529
  9
$HANDSEED
  5
3B01CC07CE297F24
  9
$SURFTAB1
 70
     6
  9
$SURFTAB2
 70
     6
  9
$SURFTYPE
 70
     6
  9
$SURFU
 70
     6
  9
$SURFV
 70
     6
  9
$UCSNAME
  2

  9
$UCSORG
 10
0.0
 20
0.0
 30
0.0
  9
$UCSXDIR
 10
1.0
 20
0.0
 30
0.0
  9
$UCSYDIR
 10
0.0
 20
1.0
 30
0.0
  9
$PUCSNAME
  2

  9
$PUCSORG
 10
0.0
 20
0.0
 30
0.0
  9
$PUCSXDIR
 10
1.0
 20
0.0
 30
0.0
  9
$PUCSYDIR
 10
0.0
 20
1.0
 30
0.0
  9
$USERI1
 70
     0
  9
$USERI2
 70
     0
  9
$USERI3
 70
     0
  9
$USERI4
 70
     0
  9
$USERI5
 70
     0
  9
$USERR1
 40
0.0
  9
$USERR2
 40
0.0
  9
$USERR3
 40
0.0
  9
$USERR4
 40
0.0
  9
$USERR5
 40
0.0
  9
$WORLDVIEW
 70
     1
  9
$SHADEDGE
 70
     3
  9
$SHADEDIF
 70
    70
  9
$TILEMODE
 70
     1
  9
$MAXACTVP
 70
    16
  9
$PINSBASE
 10
0.9840919030209246
 20
50.00000000000001
 30
0.9115853619977546
  9
$PLIMCHECK
 70
     0
  9
$PEXTMIN
 10
1.000000000000000E+20
 20
1.000000000000000E+20
 30
1.000000000000000E+20
  9
$PEXTMAX
 10
-1.000000000000000E+20
 20
-1.000000000000000E+20
 30
-1.000000000000000E+20
  9
$PLIMMIN
 10
0.0
 20
0.0
  9
$PLIMMAX
 10
12.0
 20
9.0
  9
$UNITMODE
 70
     0
  9
$VISRETAIN
 70
     0
  9
$PLINEGEN
 70
     1
  9
$PSLTSCALE
 70
     0
  9
$TREEDEPTH
 70
  3020
  9
$PICKSTYLE
 70
     1
  9
$CMLSTYLE
  2
STANDARD
  9
$CMLJUST
 70
     0
  9
$CMLSCALE
 40
1.0
  9
$PROXYGRAPHICS
 70
     1
  9
$MEASUREMENT
 70
     0
  0
ENDSEC
  0
SECTION
  2
CLASSES
  0
CLASS
  1
LWPOLYLINE
  2
AcDbPolyline
  3
AutoCAD 2000
 90
        0
280
     0
281
     1
  0
CLASS
  1
ACDBDICTIONARYWDFLT
  2
AcDbDictionaryWithDefault
  3
AutoCAD 2000
 90
        0
280
     0
281
     0
  0
CLASS
  1
ACDBPLACEHOLDER
  2
AcDbPlaceHolder
  3
AutoCAD 2000
 90
        0
280
     0
281
     0
  0
CLASS
  1
LAYOUT
  2
AcDbLayout
  3
AutoCAD 2000
 90
        0
280
     0
281
     0
  0
CLASS
  1
DICTIONARYVAR
  2
AcDbDictionaryVar
  3
AutoCAD 2000
 90
        0
280
     0
281
     0
  0
CLASS
  1
LONG_TRANSACTION
  2
AcDbLongTransaction
  3
AutoCAD 2000
 90
        0
280
     0
281
     0
  0
CLASS
  1
LWPOLYLINE
  2
AcDbPolyline
  3
AutoCAD 2000
 90
        0
280
     0
281
     1
  0
CLASS
  1
HATCH
  2
AcDbHatch
  3
AutoCAD 2000
 90
        0
280
     0
281
     1
  0
CLASS
  1
XRECORD
  2
AcDbXrecord
  3
AutoCAD 2000
 90
        0
280
     0
281
     0
  0
ENDSEC
  0
SECTION
  2
TABLES
  0
TABLE
  2
VPORT
  5
3B01CC07CE297ECB
330
0
100
AcDbSymbolTable
 70
     2
  0
VPORT
  5
3B01CC07CE297EFF
330
3B01CC07CE297ECB
100
AcDbSymbolTableRecord
100
AcDbViewportTableRecord
  2
*ACTIVE
 70
     0
 10
0.0
 20
0.0
 11
1.0
 21
1.0
 12
10.03109434497369
 22
2.971209342124826
 13
0.0
 23
0.0
 14
0.015625
 24
0.015625
 15
0.0
 25
0.0
 16
0.0
 26
0.0
 36
1.0
 17
0.0
 27
0.0
 37
0.0
 40
7.699792158439036
 41
4.320930232558139
 42
50.0
 43
0.0
 44
0.0
 50
0.0
 51
0.0
 71
     0
 72
  2000
 73
     1
 74
     0
 75
     0
 76
     0
 77
     0
 78
     0
  0
ENDTAB
  0
TABLE
  2
LTYPE
  5
3B01CC07CE297EC8
330
0
100
AcDbSymbolTable
 70
     1
  0
LTYPE
  5
3B01CC07CE297ED5
330
3B01CC07CE297EC8
100
AcDbSymbolTableRecord
100
AcDbLinetypeTableRecord
  2
BYBLOCK
 70
     0
  3

 72
    65
 73
     0
 40
0.0
  0
LTYPE
  5
3B01CC07CE297ED6
330
3B01CC07CE297EC8
100
AcDbSymbolTableRecord
100
AcDbLinetypeTableRecord
  2
BYLAYER
 70
     0
  3

 72
    65
 73
     0
 40
0.0
  0
LTYPE
  5
3B01CC07CE297ED7
330
3B01CC07CE297EC8
100
AcDbSymbolTableRecord
100
AcDbLinetypeTableRecord
  2
CONTINUOUS
 70
     0
  3
Solid line
 72
    65
 73
     0
 40
0.0
  0
ENDTAB
  0
TABLE
  2
LAYER
  5
3B01CC07CE297EC5
330
0
100
AcDbSymbolTable
 70
     2
  0
LAYER
  5
3B01CC07CE297ED2
330
3B01CC07CE297EC5
100
AcDbSymbolTableRecord
100
AcDbLayerTableRecord
  2
0
 70
     0
 62
     7
  6
CONTINUOUS
  0
LAYER
  5
3B01CC07CE297EE2
330
3B01CC07CE297EC5
100
AcDbSymbolTableRecord
100
AcDbLayerTableRecord
  2
TEXT
 70
     0
 62
     3
  6
CONTINUOUS
  0
ENDTAB
  0
TABLE
  2
STYLE
  5
3B01CC07CE297EC6
330
0
100
AcDbSymbolTable
 70
     3
  0
STYLE
  5
3B01CC07CE297ED3
330
3B01CC07CE297EC6
100
AcDbSymbolTableRecord
100
AcDbTextStyleTableRecord
  2
STANDARD
 70
     0
 40
0.0
 41
1.0
 50
0.0
 71
     0
 42
0.3125
  3
txt
  4

  0
STYLE
  5
3B01CC07CE297EDF
330
3B01CC07CE297EC6
100
AcDbSymbolTableRecord
100
AcDbTextStyleTableRecord
  2
ITALICC
 70
     0
 40
0.0
 41
1.0
 50
0.0
 71
     0
 42
0.125
  3
italicc
  4

  0
STYLE
  5
3B01CC07CE297EEF
330
3B01CC07CE297EC6
100
AcDbSymbolTableRecord
100
AcDbTextStyleTableRecord
  2
ROMANS
 70
     0
 40
0.0
 41
1.0
 50
0.0
 71
     0
 42
0.125
  3
romans.shx
  4

  0
ENDTAB
  0
TABLE
  2
VIEW
  5
3B01CC07CE297EC9
330
0
100
AcDbSymbolTable
 70
     0
  0
ENDTAB
  0
TABLE
  2
UCS
  5
3B01CC07CE297ECA
330
0
100
AcDbSymbolTable
 70
     0
  0
ENDTAB
  0
TABLE
  2
APPID
  5
3B01CC07CE297ECC
330
0
100
AcDbSymbolTable
 70
     1
  0
APPID
  5
3B01CC07CE297ED4
330
3B01CC07CE297ECC
100
AcDbSymbolTableRecord
100
AcDbRegAppTableRecord
  2
ACAD
 70
     0
  0
ENDTAB
  0
TABLE
  2
DIMSTYLE
  5
3B01CC07CE297ECD
330
0
100
AcDbSymbolTable
 70
     1
  0
DIMSTYLE
105
3B01CC07CE297EE7
330
3B01CC07CE297ECD
100
AcDbSymbolTableRecord
100
AcDbDimStyleTableRecord
  2
STANDARD
 70
     0
  3

  4

  5

  6

  7

 40
1.0
 41
0.125
 42
0.125
 43
0.375
 44
0.125
 45
0.0
 46
0.0
 47
0.0
 48
0.0
140
0.125
141
-0.125
142
0.0
143
25.4
144
1.0
145
0.0
146
1.0
147
0.09
 71
     0
 72
     0
 73
     1
 74
     1
 75
     0
 76
     0
 77
     0
 78
     4
170
     0
171
     2
172
     0
173
     0
174
     1
175
     0
176
     0
177
     0
178
     0
270
     2
271
     3
272
     3
273
     2
274
     2
340
3B01CC07CE297EEF
275
     0
280
     0
281
     0
282
     0
283
     1
284
     4
285
     0
286
     0
287
     3
288
     0
  0
ENDTAB
  0
TABLE
  2
BLOCK_RECORD
  5
3B01CC07CE297EC4
330
0
100
AcDbSymbolTable
 70
     0
  0
BLOCK_RECORD
  5
3B01CC07CE297EDB
102
{ACAD_XDICTIONARY
360
3B01CC07CE297F22
102
}
330
3B01CC07CE297EC4
100
AcDbSymbolTableRecord
100
AcDbBlockTableRecord
  2
*MODEL_SPACE
  0
BLOCK_RECORD
  5
3B01CC07CE297ED8
102
{ACAD_XDICTIONARY
360
3B01CC07CE297F20
102
}
330
3B01CC07CE297EC4
100
AcDbSymbolTableRecord
100
AcDbBlockTableRecord
  2
*PAPER_SPACE
  0
ENDTAB
  0
ENDSEC
  0
SECTION
  2
BLOCKS
  0
BLOCK
  5
3B01CC07CE297EE5
330
3B01CC07CE297EDB
100
AcDbEntity
  8
0
100
AcDbBlockBegin
  2
*MODEL_SPACE
 70
     0
 10
0.0
 20
0.0
 30
0.0
  3
*MODEL_SPACE
  1

  0
ENDBLK
  5
3B01CC07CE297EE6
330
3B01CC07CE297EDB
100
AcDbEntity
  8
0
100
AcDbBlockEnd
  0
BLOCK
  5
3B01CC07CE297EE3
330
3B01CC07CE297ED8
100
AcDbEntity
 67
     1
  8
0
100
AcDbBlockBegin
  2
*PAPER_SPACE
 70
     0
 10
0.0
 20
0.0
 30
0.0
  3
*PAPER_SPACE
  1

  0
ENDBLK
  5
3B01CC07CE297EE4
330
3B01CC07CE297ED8
100
AcDbEntity
 67
     1
  8
0
100
AcDbBlockEnd
  0
ENDSEC
  0
SECTION
  2
ENTITIES
  0
TEXT
  5
A07
330
3B01CC07CE297EDB
100
AcDbEntity
  8
TEXT
100
AcDbText
 10
-0.7496372155086889
 20
0.0194100917032381
 30
0.0
 40
0.125
  1
PART #110481
  7
ITALICC
 72
     1
 11
-0.0085657869372602
 21
0.0194100917032381
 31
0.0
100
AcDbText
  0
TEXT
  5
B5D
330
3B01CC07CE297EDB
100
AcDbEntity
  8
TEXT
100
AcDbText
 10
0.4047393713130614
 20
-0.3342541240028449
 30
0.0
 40
0.0522247191011236
  1
Minneapolis, MN 55432-0008
 41
1.11444212721585
 72
     5
 11
1.733671955582725
 21
-0.3342541240028449
 31
0.0
100
AcDbText
  0
TEXT
  5
B5E
330
3B01CC07CE297EDB
100
AcDbEntity
  8
TEXT
100
AcDbText
 10
0.4047393713130614
 20
-0.2409956970365528
 30
0.0
 40
0.0522247191011236
  1
6536 Main St. N.E. * P.O. Box 32008
 41
0.8388932496075366
 72
     5
 11
1.733671955582725
 21
-0.2409956970365528
 31
0.0
100
AcDbText
  0
TEXT
  5
B5F
330
3B01CC07CE297EDB
100
AcDbEntity
  8
TEXT
100
AcDbText
 10
0.4047393713130614
 20
-0.1477372700702606
 30
0.0
 40
0.0522247191011236
  1
Stylmark  Incorporated
 41
1.221428571428573
 72
     5
 11
1.733671955582725
 21
-0.1477372700702606
 31
0.0
100
AcDbText
  0
LWPOLYLINE
  5
B60
330
3B01CC07CE297EDB
100
AcDbEntity
  8
TEXT
100
AcDbPolyline
 90
        5
 70
     0
 43
0.0001332181640625
 10
-1.558047982863623
 20
-0.303876426027017
 10
-1.571369799269871
 20
-0.303876426027017
 10
-1.571369799269871
 20
-0.3405114211442033
 10
-1.608004794387061
 20
-0.3405114211442033
 10
-1.608004794387061
 20
-0.3538332375504538
  0
LWPOLYLINE
  5
B67
330
3B01CC07CE297EDB
100
AcDbEntity
  8
TEXT
100
AcDbPolyline
 90
        2
 70
     0
 43
0.0006660908203125
 10
-1.511421625441748
 20
-0.3138677883317023
 10
-1.484777992629247
 20
-0.3138677883317023
  0
LWPOLYLINE
  5
B6B
330
3B01CC07CE297EDB
100
AcDbEntity
  8
TEXT
100
AcDbPolyline
 90
        2
 70
     0
 43
0.0006660908203125
 10
-1.598013432082372
 20
-0.4004595949723289
 10
-1.598013432082372
 20
-0.4271032277848299
  0
LWPOLYLINE
  5
B6F
330
3B01CC07CE297EDB
100
AcDbEntity
  8
TEXT
100
AcDbPolyline
 90
        3
 70
     0
 43
0.0006660908203125
 10
-1.598013432082372
 20
-0.4271032277848299
 10
-1.484777992629247
 20
-0.4271032277848299
 10
-1.484777992629247
 20
-0.3138677883317023
  0
LWPOLYLINE
  5
B74
330
3B01CC07CE297EDB
100
AcDbEntity
  8
TEXT
100
AcDbPolyline
 90
        3
 70
     0
 43
0.0006660908203125
 10
-1.598013432082372
 20
-0.4004595949723289
 10
-1.511421625441748
 20
-0.4004595949723289
 10
-1.511421625441748
 20
-0.3138677883317023
  0
LWPOLYLINE
  5
B79
330
3B01CC07CE297EDB
100
AcDbEntity
  8
TEXT
100
AcDbPolyline
 90
        2
 70
     0
 43
0.0001332181640625
 10
-1.608004794387061
 20
-0.3538332375504538
 10
-1.598013432082372
 20
-0.4271032277848299
  0
LWPOLYLINE
  5
B7D
330
3B01CC07CE297EDB
100
AcDbEntity
  8
TEXT
100
AcDbPolyline
 90
        2
 70
     0
 43
0.0001332181640625
 10
-1.598013432082372
 20
-0.4004595949723289
 10
-1.608004794387061
 20
-0.3405114211442033
  0
LWPOLYLINE
  5
B81
330
3B01CC07CE297EDB
100
AcDbEntity
  8
TEXT
100
AcDbPolyline
 90
        2
 70
     0
 43
0.0001332181640625
 10
-1.511421625441748
 20
-0.4004595949723289
 10
-1.571369799269871
 20
-0.3405114211442033
  0
LWPOLYLINE
  5
B85
330
3B01CC07CE297EDB
100
AcDbEntity
  8
TEXT
100
AcDbPolyline
 90
        2
 70
     0
 43
0.0001332181640625
 10
-1.511421625441748
 20
-0.3138677883317023
 10
-1.571369799269871
 20
-0.303876426027017
  0
LWPOLYLINE
  5
B89
330
3B01CC07CE297EDB
100
AcDbEntity
  8
TEXT
100
AcDbPolyline
 90
        2
 70
     0
 43
0.0001332181640625
 10
-1.484777992629247
 20
-0.3138677883317023
 10
-1.558047982863623
 20
-0.303876426027017
  0
LWPOLYLINE
  5
B8D
330
3B01CC07CE297EDB
100
AcDbEntity
  8
TEXT
100
AcDbPolyline
 90
        2
 70
     0
 43
0.0001332181640625
 10
-1.598013432082372
 20
-0.1606668996598266
 10
-1.608004794387061
 20
-0.2339368898942062
  0
LWPOLYLINE
  5
B91
330
3B01CC07CE297EDB
100
AcDbEntity
  8
TEXT
100
AcDbPolyline
 90
        2
 70
     0
 43
0.0001332181640625
 10
-1.598013432082372
 20
-0.1873105324723276
 10
-1.608004794387061
 20
-0.2472587063004532
  0
LWPOLYLINE
  5
B95
330
3B01CC07CE297EDB
100
AcDbEntity
  8
TEXT
100
AcDbPolyline
 90
        2
 70
     0
 43
0.0001332181640625
 10
-1.511421625441748
 20
-0.1873105324723276
 10
-1.571369799269871
 20
-0.2472587063004532
  0
LWPOLYLINE
  5
B99
330
3B01CC07CE297EDB
100
AcDbEntity
  8
TEXT
100
AcDbPolyline
 90
        2
 70
     0
 43
0.0001332181640625
 10
-1.511421625441748
 20
-0.2739023391129542
 10
-1.571369799269871
 20
-0.283893701417643
  0
LWPOLYLINE
  5
B9D
330
3B01CC07CE297EDB
100
AcDbEntity
  8
TEXT
100
AcDbPolyline
 90
        2
 70
     0
 43
0.0001332181640625
 10
-1.558047982863623
 20
-0.283893701417643
 10
-1.484777992629247
 20
-0.2739023391129542
  0
LWPOLYLINE
  5
BA1
330
3B01CC07CE297EDB
100
AcDbEntity
  8
TEXT
100
AcDbPolyline
 90
        3
 70
     0
 43
0.0006660908203125
 10
-1.511421625441748
 20
-0.2739023391129542
 10
-1.511421625441748
 20
-0.1873105324723276
 10
-1.598013432082372
 20
-0.1873105324723276
  0
LWPOLYLINE
  5
BA6
330
3B01CC07CE297EDB
100
AcDbEntity
  8
TEXT
100
AcDbPolyline
 90
        3
 70
     0
 43
0.0006660908203125
 10
-1.484777992629247
 20
-0.2739023391129542
 10
-1.484777992629247
 20
-0.1606668996598266
 10
-1.598013432082372
 20
-0.1606668996598266
  0
LWPOLYLINE
  5
BAB
330
3B01CC07CE297EDB
100
AcDbEntity
  8
TEXT
100
AcDbPolyline
 90
        2
 70
     0
 43
0.0006660908203125
 10
-1.511421625441748
 20
-0.2739023391129542
 10
-1.484777992629247
 20
-0.2739023391129542
  0
LWPOLYLINE
  5
BAF
330
3B01CC07CE297EDB
100
AcDbEntity
  8
TEXT
100
AcDbPolyline
 90
        2
 70
     0
 43
0.0006660908203125
 10
-1.598013432082372
 20
-0.1873105324723276
 10
-1.598013432082372
 20
-0.1606668996598266
  0
LWPOLYLINE
  5
BB3
330
3B01CC07CE297EDB
100
AcDbEntity
  8
TEXT
100
AcDbPolyline
 90
        5
 70
     0
 43
0.0001332181640625
 10
-1.608004794387061
 20
-0.2339368898942062
 10
-1.608004794387061
 20
-0.2472587063004532
 10
-1.571369799269871
 20
-0.2472587063004532
 10
-1.571369799269871
 20
-0.283893701417643
 10
-1.558047982863623
 20
-0.283893701417643
  0
LWPOLYLINE
  5
BBA
330
3B01CC07CE297EDB
100
AcDbEntity
  8
TEXT
100
AcDbPolyline
 90
        2
 70
     0
 43
0.0001332181640625
 10
-1.751214320754246
 20
-0.2739023391129542
 10
-1.677944330519872
 20
-0.283893701417643
  0
LWPOLYLINE
  5
BBE
330
3B01CC07CE297EDB
100
AcDbEntity
  8
TEXT
100
AcDbPolyline
 90
        2
 70
     0
 43
0.0001332181640625
 10
-1.724570687941749
 20
-0.2739023391129542
 10
-1.664622514113623
 20
-0.283893701417643
  0
LWPOLYLINE
  5
BC2
330
3B01CC07CE297EDB
100
AcDbEntity
  8
TEXT
100
AcDbPolyline
 90
        2
 70
     0
 43
0.0001332181640625
 10
-1.724570687941749
 20
-0.1873105324723276
 10
-1.664622514113623
 20
-0.2472587063004532
  0
LWPOLYLINE
  5
BC6
330
3B01CC07CE297EDB
100
AcDbEntity
  8
TEXT
100
AcDbPolyline
 90
        2
 70
     0
 43
0.0001332181640625
 10
-1.637978881301124
 20
-0.1873105324723276
 10
-1.627987518996433
 20
-0.2472587063004532
  0
LWPOLYLINE
  5
BCA
330
3B01CC07CE297EDB
100
AcDbEntity
  8
TEXT
100
AcDbPolyline
 90
        2
 70
     0
 43
0.0001332181640625
 10
-1.627987518996433
 20
-0.2339368898942062
 10
-1.637978881301124
 20
-0.1606668996598266
  0
LWPOLYLINE
  5
BCE
330
3B01CC07CE297EDB
100
AcDbEntity
  8
TEXT
100
AcDbPolyline
 90
        3
 70
     0
 43
0.0006660908203125
 10
-1.637978881301124
 20
-0.1873105324723276
 10
-1.724570687941749
 20
-0.1873105324723276
 10
-1.724570687941749
 20
-0.2739023391129542
  0
LWPOLYLINE
  5
BD3
330
3B01CC07CE297EDB
100
AcDbEntity
  8
TEXT
100
AcDbPolyline
 90
        3
 70
     0
 43
0.0006660908203125
 10
-1.637978881301124
 20
-0.1606668996598266
 10
-1.751214320754246
 20
-0.1606668996598266
 10
-1.751214320754246
 20
-0.2739023391129542
  0
LWPOLYLINE
  5
BD8
330
3B01CC07CE297EDB
100
AcDbEntity
  8
TEXT
100
AcDbPolyline
 90
        2
 70
     0
 43
0.0006660908203125
 10
-1.637978881301124
 20
-0.1873105324723276
 10
-1.637978881301124
 20
-0.1606668996598266
  0
LWPOLYLINE
  5
BDC
330
3B01CC07CE297EDB
100
AcDbEntity
  8
TEXT
100
AcDbPolyline
 90
        2
 70
     0
 43
0.0006660908203125
 10
-1.724570687941749
 20
-0.2739023391129542
 10
-1.751214320754246
 20
-0.2739023391129542
  0
LWPOLYLINE
  5
BE0
330
3B01CC07CE297EDB
100
AcDbEntity
  8
TEXT
100
AcDbPolyline
 90
        5
 70
     0
 43
0.0001332181640625
 10
-1.677944330519872
 20
-0.283893701417643
 10
-1.664622514113623
 20
-0.283893701417643
 10
-1.664622514113623
 20
-0.2472587063004532
 10
-1.627987518996433
 20
-0.2472587063004532
 10
-1.627987518996433
 20
-0.2339368898942062
  0
LWPOLYLINE
  5
BE7
330
3B01CC07CE297EDB
100
AcDbEntity
  8
TEXT
100
AcDbPolyline
 90
        2
 70
     0
 43
0.0001332181640625
 10
-1.637978881301124
 20
-0.4271032277848299
 10
-1.627987518996433
 20
-0.3538332375504538
  0
LWPOLYLINE
  5
BEB
330
3B01CC07CE297EDB
100
AcDbEntity
  8
TEXT
100
AcDbPolyline
 90
        2
 70
     0
 43
0.0001332181640625
 10
-1.637978881301124
 20
-0.4004595949723289
 10
-1.627987518996433
 20
-0.3405114211442033
  0
LWPOLYLINE
  5
BEF
330
3B01CC07CE297EDB
100
AcDbEntity
  8
TEXT
100
AcDbPolyline
 90
        2
 70
     0
 43
0.0001332181640625
 10
-1.724570687941749
 20
-0.4004595949723289
 10
-1.664622514113621
 20
-0.3405114211442033
  0
LWPOLYLINE
  5
BF3
330
3B01CC07CE297EDB
100
AcDbEntity
  8
TEXT
100
AcDbPolyline
 90
        2
 70
     0
 43
0.0001332181640625
 10
-1.724570687941749
 20
-0.3138677883317023
 10
-1.664622514113621
 20
-0.303876426027017
  0
LWPOLYLINE
  5
BF7
330
3B01CC07CE297EDB
100
AcDbEntity
  8
TEXT
100
AcDbPolyline
 90
        2
 70
     0
 43
0.0001332181640625
 10
-1.677944330519872
 20
-0.303876426027017
 10
-1.751214320754246
 20
-0.3138677883317023
  0
LWPOLYLINE
  5
BFB
330
3B01CC07CE297EDB
100
AcDbEntity
  8
TEXT
100
AcDbPolyline
 90
        3
 70
     0
 43
0.0006660908203125
 10
-1.724570687941749
 20
-0.3138677883317023
 10
-1.724570687941749
 20
-0.4004595949723289
 10
-1.637978881301124
 20
-0.4004595949723289
  0
LWPOLYLINE
  5
C00
330
3B01CC07CE297EDB
100
AcDbEntity
  8
TEXT
100
AcDbPolyline
 90
        3
 70
     0
 43
0.0006660908203125
 10
-1.751214320754246
 20
-0.3138677883317023
 10
-1.751214320754246
 20
-0.4271032277848299
 10
-1.637978881301124
 20
-0.4271032277848299
  0
LWPOLYLINE
  5
C05
330
3B01CC07CE297EDB
100
AcDbEntity
  8
TEXT
100
AcDbPolyline
 90
        2
 70
     0
 43
0.0006660908203125
 10
-1.724570687941749
 20
-0.3138677883317023
 10
-1.751214320754246
 20
-0.3138677883317023
  0
LWPOLYLINE
  5
C09
330
3B01CC07CE297EDB
100
AcDbEntity
  8
TEXT
100
AcDbPolyline
 90
        2
 70
     0
 43
0.0006660908203125
 10
-1.637978881301124
 20
-0.4004595949723289
 10
-1.637978881301124
 20
-0.4271032277848299
  0
LWPOLYLINE
  5
C0D
330
3B01CC07CE297EDB
100
AcDbEntity
  8
TEXT
100
AcDbPolyline
 90
        5
 70
     0
 43
0.0001332181640625
 10
-1.627987518996433
 20
-0.3538332375504538
 10
-1.627987518996433
 20
-0.3405114211442033
 10
-1.664622514113621
 20
-0.3405114211442033
 10
-1.664622514113621
 20
-0.303876426027017
 10
-1.677944330519872
 20
-0.303876426027017
  0
LWPOLYLINE
  5
C14
330
3B01CC07CE297EDB
100
AcDbEntity
  8
TEXT
100
AcDbPolyline
 90
        6
 70
     1
 43
0.0
 10
-0.9513477906969956
 20
-0.2249435943165956
 10
-0.9816643849172038
 20
-0.2249435943165956
 10
-0.9816643849172038
 20
-0.3480545923714899
 42
0.407328721240804
 10
-0.9701207337557274
 20
-0.359873507047876
 10
-0.9094990347109966
 20
-0.359873507047876
 10
-0.8920336943036787
 20
-0.3270612780043969
  0
LWPOLYLINE
  5
C1C
330
3B01CC07CE297EDB
100
AcDbEntity
  8
TEXT
100
AcDbPolyline
 90
        2
 70
     0
 43
0.0
 10
-0.3442626604698482
 20
-0.383648987697903
 42
0.2901071551932823
 10
-0.3011867276022127
 20
-0.4271399326483412
 42
5.328517124445801
  0
LWPOLYLINE
  5
C20
330
3B01CC07CE297EDB
100
AcDbEntity
  8
TEXT
100
AcDbPolyline
 90
        2
 70
     0
 43
0.0
 10
-0.3011867276022127
 20
-0.4271399326483412
 10
-0.167169309970836
 20
-0.4271399326483412
 42
0.9999999999999998
  0
LWPOLYLINE
  5
C24
330
3B01CC07CE297EDB
100
AcDbEntity
  8
TEXT
100
AcDbPolyline
 90
        4
 70
     1
 43
0.0
 10
-0.1872917750407286
 20
-0.3241759546643159
 10
-0.275952093700587
 20
-0.3241759546643159
 42
0.9999999999999998
 10
-0.275952093700587
 20
-0.3665744951681766
 10
-0.1872917750407286
 20
-0.3665744951681766
 42
1.0
  0
LWPOLYLINE
  5
C2A
330
3B01CC07CE297EDB
100
AcDbEntity
  8
TEXT
100
AcDbPolyline
 90
        2
 70
     0
 43
0.0
 10
-0.1240933771031916
 20
-0.383648987697903
 42
-0.2901071551932486
 10
-0.167169309970836
 20
-0.4271399326483412
 42
-5.328517124445184
  0
LWPOLYLINE
  5
C2E
330
3B01CC07CE297EDB
100
AcDbEntity
  8
TEXT
100
AcDbPolyline
 90
        2
 70
     0
 43
0.0
 10
-0.1240933771031916
 20
-0.383648987697903
 10
-0.1240933771031916
 20
-0.4271399326483412
  0
LWPOLYLINE
  5
C32
330
3B01CC07CE297EDB
100
AcDbEntity
  8
TEXT
100
AcDbPolyline
 90
        2
 70
     0
 43
0.0
 10
-0.1240933771031916
 20
-0.4271399326483412
 10
-0.0657381632678575
 20
-0.4271399326483412
  0
LWPOLYLINE
  5
C36
330
3B01CC07CE297EDB
100
AcDbEntity
  8
TEXT
100
AcDbPolyline
 90
        2
 70
     0
 43
0.0
 10
-0.5490401657927233
 20
-0.2249435943165956
 42
-0.4142135623731017
 10
-0.5414863766266098
 20
-0.2324973834827055
 42
-0.9999999999999998
  0
LWPOLYLINE
  5
C3A
330
3B01CC07CE297EDB
100
AcDbEntity
  8
TEXT
100
AcDbPolyline
 90
        2
 70
     0
 43
0.0
 10
-0.7659980718806168
 20
-0.3755885904334129
 42
0.3318488747599744
 10
-0.6968787793153038
 20
-0.4271399326483412
 42
-6.868794160588311
  0
LWPOLYLINE
  5
C3E
330
3B01CC07CE297EDB
100
AcDbEntity
  8
TEXT
100
AcDbPolyline
 90
        4
 70
     0
 43
0.0
 10
-0.4127409437577061
 20
-0.2324973834827055
 10
-0.4127409437577061
 20
-0.4271399326483412
 10
-0.3442626604698482
 20
-0.4271399326483412
 10
-0.3442626604698482
 20
-0.383648987697903
 42
-1.714843617202739
  0
LWPOLYLINE
  5
C44
330
3B01CC07CE297EDB
100
AcDbEntity
  8
TEXT
100
AcDbPolyline
 90
        2
 70
     0
 43
0.0
 10
-0.4202947329238196
 20
-0.2249435943165956
 42
-0.4142135623731017
 10
-0.4127409437577061
 20
-0.2324973834827055
 42
-0.9999999999999998
  0
LWPOLYLINE
  5
C48
330
3B01CC07CE297EDB
100
AcDbEntity
  8
TEXT
100
AcDbPolyline
 90
        2
 70
     0
 43
0.0
 10
-0.531688442742702
 20
-0.1606668996598266
 42
-0.3328679258950098
 10
-0.4959067520295406
 20
-0.1878343964207225
 42
6.772930709997214
  0
LWPOLYLINE
  5
C4C
330
3B01CC07CE297EDB
100
AcDbEntity
  8
TEXT
100
AcDbPolyline
 90
        3
 70
     0
 43
0.0
 10
-0.3776065932134962
 20
-0.1606668996598266
 10
-0.4959067520295406
 20
-0.1606668996598266
 10
-0.4959067520295406
 20
-0.1878343964207225
 42
-1.960274751411753
  0
LWPOLYLINE
  5
C51
330
3B01CC07CE297EDB
100
AcDbEntity
  8
TEXT
100
AcDbPolyline
 90
        2
 70
     0
 43
0.0
 10
-0.3776065932134962
 20
-0.1606668996598266
 42
-0.3277054968067132
 10
-0.3418249025003313
 20
-0.1889894454294705
 42
6.667889725900311
  0
LINE
  5
C55
330
3B01CC07CE297EDB
100
AcDbEntity
  8
TEXT
100
AcDbLine
 10
-0.6968787793153047
 20
-0.4271399326483412
 30
0.0
 11
-0.5988754456158701
 21
-0.4271399326483412
 31
0.0
  0
LINE
  5
C56
330
3B01CC07CE297EDB
100
AcDbEntity
  8
TEXT
100
AcDbLine
 10
-0.5988754456158701
 20
-0.4271399326483412
 30
0.0
 11
-0.5988754456158701
 21
-0.2249435943165956
 31
0.0
  0
LINE
  5
C57
330
3B01CC07CE297EDB
100
AcDbEntity
  8
TEXT
100
AcDbLine
 10
-0.5988754456158701
 20
-0.2249435943165956
 30
0.0
 11
-0.5490401657927225
 21
-0.2249435943165956
 31
0.0
  0
LINE
  5
C58
330
3B01CC07CE297EDB
100
AcDbEntity
  8
TEXT
100
AcDbLine
 10
-0.541486376626609
 20
-0.2324973834827055
 30
0.0
 11
-0.541486376626609
 21
-0.4271399326483412
 31
0.0
  0
LINE
  5
C59
330
3B01CC07CE297EDB
100
AcDbEntity
  8
TEXT
100
AcDbLine
 10
-0.541486376626609
 20
-0.4271399326483412
 30
0.0
 11
-0.4744283298447689
 21
-0.4271399326483412
 31
0.0
  0
LINE
  5
C5A
330
3B01CC07CE297EDB
100
AcDbEntity
  8
TEXT
100
AcDbLine
 10
-0.4744283298447689
 20
-0.4271399326483412
 30
0.0
 11
-0.4744283298447689
 21
-0.2249435943165956
 31
0.0
  0
LINE
  5
C5B
330
3B01CC07CE297EDB
100
AcDbEntity
  8
TEXT
100
AcDbLine
 10
-0.4744283298447689
 20
-0.2249435943165956
 30
0.0
 11
-0.4202947329238187
 21
-0.2249435943165956
 31
0.0
  0
ARC
  5
C5C
330
3B01CC07CE297EDB
100
AcDbEntity
  8
TEXT
100
AcDbCircle
 10
-0.2825108061070125
 20
-0.3299041489228465
 30
0.0
 40
0.0676855811441166
100
AcDbArc
 50
90.0
 51
153.7768192527749
  0
LINE
  5
C5D
330
3B01CC07CE297EDB
100
AcDbEntity
  8
TEXT
100
AcDbLine
 10
-0.5316884427427029
 20
-0.1606668996598302
 30
0.0
 11
-0.6657064986738393
 21
-0.1606668996598302
 31
0.0
  0
LINE
  5
C5E
330
3B01CC07CE297EDB
100
AcDbEntity
  8
TEXT
100
AcDbLine
 10
-0.6657064986738393
 20
-0.1606668996598302
 30
0.0
 11
-0.6657064986738393
 21
-0.3615311063922384
 31
0.0
  0
LINE
  5
C5F
330
3B01CC07CE297EDB
100
AcDbEntity
  8
TEXT
100
AcDbLine
 10
-0.6657064986738393
 20
-0.3615311063922384
 30
0.0
 11
-0.6827001355584406
 21
-0.3615311063922384
 31
0.0
  0
ARC
  5
C60
330
3B01CC07CE297EDB
100
AcDbEntity
  8
TEXT
100
AcDbCircle
 10
-0.6827001355584415
 20
-0.3461493001488129
 30
0.0
 40
0.0153818062434269
100
AcDbArc
 50
174.7883570302258
 51
270.0
  0
LINE
  5
C61
330
3B01CC07CE297EDB
100
AcDbEntity
  8
TEXT
100
AcDbLine
 10
-0.6980183528114994
 20
-0.3447520945453419
 30
0.0
 11
-0.6980183528114994
 21
-0.0926554219210196
 31
0.0
  0
LINE
  5
C62
330
3B01CC07CE297EDB
100
AcDbEntity
  8
TEXT
100
AcDbLine
 10
-0.6980183528114994
 20
-0.0926554219210196
 30
0.0
 11
-0.7648270653778644
 21
-0.0926554219210196
 31
0.0
  0
LINE
  5
C63
330
3B01CC07CE297EDB
100
AcDbEntity
  8
TEXT
100
AcDbLine
 10
-0.7648270653778644
 20
-0.0926554219210196
 30
0.0
 11
-0.7648270653778644
 21
-0.1606668996598302
 31
0.0
  0
LINE
  5
C64
330
3B01CC07CE297EDB
100
AcDbEntity
  8
TEXT
100
AcDbLine
 10
-0.7648270653778644
 20
-0.1606668996598302
 30
0.0
 11
-0.7949489781712407
 21
-0.1606668996598302
 31
0.0
  0
LINE
  5
C65
330
3B01CC07CE297EDB
100
AcDbEntity
  8
TEXT
100
AcDbLine
 10
-0.7949489781712407
 20
-0.1606668996598302
 30
0.0
 11
-0.8536975409771061
 21
-0.2615388957729507
 31
0.0
  0
LINE
  5
C66
330
3B01CC07CE297EDB
100
AcDbEntity
  8
TEXT
100
AcDbLine
 10
-0.8536975409771061
 20
-0.2615388957729507
 30
0.0
 11
-0.912327862009044
 21
-0.1606668996598302
 31
0.0
  0
LINE
  5
C67
330
3B01CC07CE297EDB
100
AcDbEntity
  8
TEXT
100
AcDbLine
 10
-0.912327862009044
 20
-0.1606668996598302
 30
0.0
 11
-0.9841268281529513
 21
-0.1606668996598302
 31
0.0
  0
LINE
  5
C68
330
3B01CC07CE297EDB
100
AcDbEntity
  8
TEXT
100
AcDbLine
 10
-0.9841268281529513
 20
-0.1606668996598302
 30
0.0
 11
-0.9841268281529513
 21
-0.126278982065692
 31
0.0
  0
LINE
  5
C69
330
3B01CC07CE297EDB
100
AcDbEntity
  8
TEXT
100
AcDbLine
 10
-0.9841268281529513
 20
-0.126278982065692
 30
0.0
 11
-1.044169432996958
 21
-0.126278982065692
 31
0.0
  0
LINE
  5
C6A
330
3B01CC07CE297EDB
100
AcDbEntity
  8
TEXT
100
AcDbLine
 10
-1.044169432996958
 20
-0.126278982065692
 30
0.0
 11
-1.044169432996958
 21
-0.1606668996598302
 31
0.0
  0
LINE
  5
C6B
330
3B01CC07CE297EDB
100
AcDbEntity
  8
TEXT
100
AcDbLine
 10
-1.044169432996958
 20
-0.1606668996598302
 30
0.0
 11
-1.219901185895469
 21
-0.1606668996598302
 31
0.0
  0
ARC
  5
C6C
330
3B01CC07CE297EDB
100
AcDbEntity
  8
TEXT
100
AcDbCircle
 10
-1.219901185895469
 20
-0.2427543591063319
 30
0.0
 40
0.0820874594465043
100
AcDbArc
 50
90.0
 51
270.0
  0
LINE
  5
C6D
330
3B01CC07CE297EDB
100
AcDbEntity
  8
TEXT
100
AcDbLine
 10
-1.219901185895469
 20
-0.3248418185528372
 30
0.0
 11
-1.14412334563064
 21
-0.3248418185528372
 31
0.0
  0
ARC
  5
C6E
330
3B01CC07CE297EDB
100
AcDbEntity
  8
TEXT
100
AcDbCircle
 10
-1.14412334563064
 20
-0.3418123724338677
 30
0.0
 40
0.0169705538810321
100
AcDbArc
 50
270.0
 51
90.0
  0
LINE
  5
C6F
330
3B01CC07CE297EDB
100
AcDbEntity
  8
TEXT
100
AcDbLine
 10
-1.14412334563064
 20
-0.3587829263149018
 30
0.0
 11
-1.301988645341975
 21
-0.3587829263149018
 31
0.0
  0
LINE
  5
C70
330
3B01CC07CE297EDB
100
AcDbEntity
  8
TEXT
100
AcDbLine
 10
-1.301988645341975
 20
-0.3587829263149018
 30
0.0
 11
-1.301988645341973
 21
-0.4271399326483412
 31
0.0
  0
LINE
  5
C71
330
3B01CC07CE297EDB
100
AcDbEntity
  8
TEXT
100
AcDbLine
 10
-1.301988645341973
 20
-0.4271399326483412
 30
0.0
 11
-1.14906371953692
 21
-0.4271399326483412
 31
0.0
  0
ARC
  5
C72
330
3B01CC07CE297EDB
100
AcDbEntity
  8
TEXT
100
AcDbCircle
 10
-1.14906371953692
 20
-0.3439441242877841
 30
0.0
 40
0.0831958083605586
100
AcDbArc
 50
270.0
 51
90.0
  0
LINE
  5
C73
330
3B01CC07CE297EDB
100
AcDbEntity
  8
TEXT
100
AcDbLine
 10
-1.14906371953692
 20
-0.2607483159272235
 30
0.0
 11
-1.214663855781221
 21
-0.2607483159272235
 31
0.0
  0
ARC
  5
C74
330
3B01CC07CE297EDB
100
AcDbEntity
  8
TEXT
100
AcDbCircle
 10
-1.214663855781221
 20
-0.2428459551219078
 30
0.0
 40
0.017902360805315
100
AcDbArc
 50
90.0
 51
270.0
  0
LINE
  5
C75
330
3B01CC07CE297EDB
100
AcDbEntity
  8
TEXT
100
AcDbLine
 10
-1.214663855781221
 20
-0.2249435943165956
 30
0.0
 11
-1.047758201752251
 21
-0.2249435943165956
 31
0.0
  0
LINE
  5
C76
330
3B01CC07CE297EDB
100
AcDbEntity
  8
TEXT
100
AcDbLine
 10
-1.047758201752251
 20
-0.2249435943165956
 30
0.0
 11
-1.047758201752251
 21
-0.3673475413102913
 31
0.0
  0
LINE
  5
C77
330
3B01CC07CE297EDB
100
AcDbEntity
  8
TEXT
100
AcDbLine
 10
-0.0657381632678567
 20
-0.4271399326483412
 30
0.0
 11
-0.065738163267862
 21
-0.2498494272168727
 31
0.0
  0
ARC
  5
C78
330
3B01CC07CE297EDB
100
AcDbEntity
  8
TEXT
100
AcDbCircle
 10
-0.0408322879851983
 20
-0.2498494695992584
 30
0.0
 40
0.0249058752826653
100
AcDbArc
 50
89.99971217465335
 51
179.9999999999985
  0
LINE
  5
C79
330
3B01CC07CE297EDB
100
AcDbEntity
  8
TEXT
100
AcDbLine
 10
-0.0408322879851975
 20
-0.2249435943165956
 30
0.0
 11
0.0358156933073604
 21
-0.2249435943165956
 31
0.0
  0
LINE
  5
C7A
330
3B01CC07CE297EDB
100
AcDbEntity
  8
TEXT
100
AcDbLine
 10
0.0358156933073604
 20
-0.2249435943165956
 30
0.0
 11
0.0358156933073657
 21
-0.4271399326483412
 31
0.0
  0
LINE
  5
C7B
330
3B01CC07CE297EDB
100
AcDbEntity
  8
TEXT
100
AcDbLine
 10
0.0358156933073657
 20
-0.4271399326483412
 30
0.0
 11
0.1001938776259861
 21
-0.4271399326483412
 31
0.0
  0
LINE
  5
C7C
330
3B01CC07CE297EDB
100
AcDbEntity
  8
TEXT
100
AcDbLine
 10
0.1001938776259861
 20
-0.4271399326483412
 30
0.0
 11
0.1001938776259861
 21
-0.2955603641721609
 31
0.0
  0
LINE
  5
C7D
330
3B01CC07CE297EDB
100
AcDbEntity
  8
TEXT
100
AcDbLine
 10
0.1001938776259861
 20
-0.2955603641721609
 30
0.0
 11
0.1760974108374507
 21
-0.4271399326483412
 31
0.0
  0
LINE
  5
C7E
330
3B01CC07CE297EDB
100
AcDbEntity
  8
TEXT
100
AcDbLine
 10
0.1760974108374507
 20
-0.4271399326483412
 30
0.0
 11
0.2526757832136566
 21
-0.4271399326483412
 31
0.0
  0
LINE
  5
C7F
330
3B01CC07CE297EDB
100
AcDbEntity
  8
TEXT
100
AcDbLine
 10
0.2526757832136566
 20
-0.4271399326483412
 30
0.0
 11
0.1571835598500462
 21
-0.2705601426008037
 31
0.0
  0
LINE
  5
C80
330
3B01CC07CE297EDB
100
AcDbEntity
  8
TEXT
100
AcDbLine
 10
0.1571835598500462
 20
-0.2705601426008037
 30
0.0
 11
0.2217406758157514
 21
-0.1606668996598302
 31
0.0
  0
LINE
  5
C81
330
3B01CC07CE297EDB
100
AcDbEntity
  8
TEXT
100
AcDbLine
 10
0.2217406758157514
 20
-0.1606668996598302
 30
0.0
 11
0.146748843086125
 21
-0.1606668996598302
 31
0.0
  0
LINE
  5
C82
330
3B01CC07CE297EDB
100
AcDbEntity
  8
TEXT
100
AcDbLine
 10
0.1467488430861232
 20
-0.1606668996598302
 30
0.0
 11
0.0996506845301388
 21
-0.2365322260713683
 31
0.0
  0
LINE
  5
C83
330
3B01CC07CE297EDB
100
AcDbEntity
  8
TEXT
100
AcDbLine
 10
0.0996506845301388
 20
-0.2365322260713683
 30
0.0
 11
0.0996506845301388
 21
-0.0952026938922295
 31
0.0
  0
LINE
  5
C84
330
3B01CC07CE297EDB
100
AcDbEntity
  8
TEXT
100
AcDbLine
 10
0.0996506845301388
 20
-0.0952026938922295
 30
0.0
 11
0.0313358059808655
 21
-0.0952026938922295
 31
0.0
  0
LINE
  5
C85
330
3B01CC07CE297EDB
100
AcDbEntity
  8
TEXT
100
AcDbLine
 10
0.0313358059808655
 20
-0.0952026938922295
 30
0.0
 11
0.0313358059808602
 21
-0.1606668996598302
 31
0.0
  0
LINE
  5
C86
330
3B01CC07CE297EDB
100
AcDbEntity
  8
TEXT
100
AcDbLine
 10
0.0313358059808602
 20
-0.1606668996598302
 30
0.0
 11
-0.0361639116686563
 21
-0.1606668996598302
 31
0.0
  0
ARC
  5
C87
330
3B01CC07CE297EDB
100
AcDbEntity
  8
TEXT
100
AcDbCircle
 10
-0.0329433310456207
 20
-0.191912626942095
 30
0.0
 40
0.0314112657011332
100
AcDbArc
 50
95.88484768694724
 51
173.2388340632136
  0
LINE
  5
C88
330
3B01CC07CE297EDB
100
AcDbEntity
  8
TEXT
100
AcDbLine
 10
-0.0641361481087293
 20
-0.1882145495207048
 30
0.0
 11
-0.0641361481087293
 21
-0.1606668996598302
 31
0.0
  0
LINE
  5
C89
330
3B01CC07CE297EDB
100
AcDbEntity
  8
TEXT
100
AcDbLine
 10
-0.0641361481087293
 20
-0.1606668996598302
 30
0.0
 11
-0.1280330544082302
 21
-0.1606668996598302
 31
0.0
  0
LINE
  5
C8A
330
3B01CC07CE297EDB
100
AcDbEntity
  8
TEXT
100
AcDbLine
 10
-0.1280330544082302
 20
-0.1606668996598302
 30
0.0
 11
-0.1280330544082302
 21
-0.2658788782132575
 31
0.0
  0
LINE
  5
C8B
330
3B01CC07CE297EDB
100
AcDbEntity
  8
TEXT
100
AcDbLine
 10
-0.1280330544082302
 20
-0.2658788782132575
 30
0.0
 11
-0.1717838255901318
 21
-0.1836286022171123
 31
0.0
  0
ARC
  5
C8C
330
3B01CC07CE297EDB
100
AcDbEntity
  8
TEXT
100
AcDbCircle
 10
-0.2090199330603397
 20
-0.2022504667807325
 30
0.0
 40
0.0416329381542859
100
AcDbArc
 50
26.56974201007528
 51
87.20939649401342
  0
LINE
  5
C8D
330
3B01CC07CE297EDB
100
AcDbEntity
  8
TEXT
100
AcDbLine
 10
-0.2069929932832712
 20
-0.1606668996598302
 30
0.0
 11
-0.3418249025003304
 21
-0.1606668996598302
 31
0.0
  0
LINE
  5
C8E
330
3B01CC07CE297EDB
100
AcDbEntity
  8
TEXT
100
AcDbLine
 10
-0.3418249025003304
 20
-0.1606668996598302
 30
0.0
 11
-0.3418249025003304
 21
-0.188989445429474
 31
0.0
  0
ARC
  5
C8F
330
3B01CC07CE297EDB
100
AcDbEntity
  8
TEXT
100
AcDbCircle
 10
-0.9876421837784988
 20
-0.3673475413102913
 30
0.0
 40
0.0601160179737537
100
AcDbArc
 50
180.0000000000003
 51
264.0521544866073
  0
LINE
  5
C90
330
3B01CC07CE297EDB
100
AcDbEntity
  8
TEXT
100
AcDbLine
 10
-0.9938715942721456
 20
-0.4271399326483412
 30
0.0
 11
-0.8972313431971512
 21
-0.4268692935500589
 31
0.0
  0
ARC
  5
C91
330
3B01CC07CE297EDB
100
AcDbEntity
  8
TEXT
100
AcDbCircle
 10
-0.8973413378862741
 20
-0.3875922103746454
 30
0.0
 40
0.0392772371940762
100
AcDbArc
 50
270.1604552698595
 51
330.0831797321295
  0
LINE
  5
C92
330
3B01CC07CE297EDB
100
AcDbEntity
  8
TEXT
100
AcDbLine
 10
-0.8632977779740604
 20
-0.4071814265433283
 30
0.0
 11
-0.7659980718806159
 21
-0.2428312156080601
 31
0.0
  0
LINE
  5
C93
330
3B01CC07CE297EDB
100
AcDbEntity
  8
TEXT
100
AcDbLine
 10
-0.7659980718806159
 20
-0.2428312156080601
 30
0.0
 11
-0.7659980718806159
 21
-0.3755885904334164
 31
0.0
  0
LINE
  5
C94
330
3B01CC07CE297EDB
100
AcDbEntity
  8
TEXT
100
AcDbLine
 10
-0.2825108061070116
 20
-0.2622185677787279
 30
0.0
 11
-0.2002228163236284
 21
-0.2622185677787279
 31
0.0
  0
LINE
  5
C95
330
3B01CC07CE297EDB
100
AcDbEntity
  8
TEXT
100
AcDbLine
 10
-0.2002228163236284
 20
-0.2622185677787279
 30
0.0
 11
-0.2104875767371928
 21
-0.2409680282060336
 31
0.0
  0
LINE
  5
C96
330
3B01CC07CE297EDB
100
AcDbEntity
  8
TEXT
100
AcDbLine
 10
-0.2360238916277497
 20
-0.2249435943165956
 30
0.0
 11
-0.3432301650150391
 21
-0.2249435943165956
 31
0.0
  0
LINE
  5
C97
330
3B01CC07CE297EDB
100
AcDbEntity
  8
TEXT
100
AcDbLine
 10
-0.3432301650150391
 20
-0.2249435943165956
 30
0.0
 11
-0.3432301650150391
 21
-0.2999960003908022
 31
0.0
  0
ARC
  5
C98
330
3B01CC07CE297EDB
100
AcDbEntity
  8
TEXT
100
AcDbCircle
 10
-0.2360238916277506
 20
-0.2533029693165929
 30
0.0
 40
0.028359375
100
AcDbArc
 50
25.78218179591245
 51
90.0
  0
TEXT
  5
CAF
330
3B01CC07CE297EDB
100
AcDbEntity
  8
TEXT
100
AcDbText
 10
0.4047393713130614
 20
-0.4275125509691371
 30
0.0
 40
0.0522247191011236
  1
Phone  1-800-328-2495
 41
1.272321428571429
 72
     5
 11
1.733671955582725
 21
-0.4275125509691371
 31
0.0
100
AcDbText
  0
LWPOLYLINE
  5
3B01CC07CE297E75
330
3B01CC07CE297EDB
100
AcDbEntity
  8
0
100
AcDbPolyline
 90
       11
 70
     1
 43
0.0
 10
-0.8285022838828442
 20
2.156648904814685
 42
0.4142135623730951
 10
-0.766502283882844
 20
2.094648904814685
 10
-0.004752283882937
 20
2.094648904814685
 10
0.0152477161170643
 20
2.074648904814686
 10
0.0352477161170648
 20
2.094648904814685
 10
0.7969977161171005
 20
2.094648904814686
 42
0.4142135623730964
 10
0.8589977161171018
 20
2.156648904814686
 10
0.8589977161170912
 20
4.654148904814684
 42
0.4142135623730951
 10
0.7969977161170898
 20
4.716148904814684
 10
-0.766502283882844
 20
4.716148904814687
 42
0.4142135623730951
 10
-0.8285022838828432
 20
4.654148904814686
  0
LWPOLYLINE
  5
3B01CC07CE297E82
330
3B01CC07CE297EDB
100
AcDbEntity
  8
0
100
AcDbPolyline
 90
       40
 70
     1
 43
0.0
 10
-0.492752283882918
 20
6.168398904814644
 42
-1.000000000000003
 10
-0.4927522838829508
 20
6.278398904814647
 10
-0.3997522838829348
 20
6.278398904814672
 10
-0.3997522838829242
 20
6.266398904814671
 42
0.4142135623730071
 10
-0.3597522838829357
 20
6.30639890481467
 10
-0.3597522838829357
 20
6.332398904814677
 42
0.4142135623731504
 10
-0.3997522838829437
 20
6.372398904814676
 10
-0.9847522838828236
 20
6.372398904814698
 42
0.0033333333333331
 10
-0.9847522838828734
 20
0.3723989048147529
 10
-0.8285022838828432
 20
0.3723989048146854
 10
-0.8285022838828432
 20
1.876648904814686
 42
-0.4142135623730951
 10
-0.766502283882844
 20
1.938648904814686
 10
-0.004752283882937
 20
1.938648904814685
 10
0.0152477161170643
 20
1.958648904814686
 10
0.0352477161170648
 20
1.938648904814685
 10
0.7969977161171005
 20
1.938648904814685
 42
-0.414213562373093
 10
0.8589977161171018
 20
1.876648904814686
 10
0.858997716117109
 20
0.3723989048146854
 10
1.015247716117117
 20
0.3723989048148684
 42
0.0033333333333331
 10
1.015247716117059
 20
6.372398904814501
 10
0.4302477161170759
 20
6.372398904814673
 42
0.4142135623731797
 10
0.3902477161170643
 20
6.332398904814674
 10
0.3902477161170634
 20
6.30639890481467
 42
0.4142135623730105
 10
0.4302477161170529
 20
6.266398904814671
 10
0.4302477161170635
 20
6.278398904814672
 10
0.5232477161170786
 20
6.278398904814647
 42
-1.000000000000003
 10
0.5232477161170457
 20
6.168398904814644
 10
0.4302477161170635
 20
6.168398904814672
 10
0.4302477161170777
 20
6.180398904814671
 42
0.4142135623731861
 10
0.3902477161170643
 20
6.14039890481467
 10
0.3902477161170643
 20
4.903398904814684
 42
-0.4142135623730992
 10
0.3592477161170637
 20
4.872398904814684
 10
0.0352477161170639
 20
4.872398904814684
 10
0.0152477161170643
 20
4.852398904814684
 10
-0.0047522838829353
 20
4.872398904814684
 10
-0.3287522838829351
 20
4.872398904814684
 42
-0.4142135623730951
 10
-0.3597522838829357
 20
4.903398904814684
 10
-0.3597522838829366
 20
6.14039890481467
 42
0.414213562373183
 10
-0.3997522838829357
 20
6.180398904814671
 10
-0.3997522838829357
 20
6.168398904814672
  0
LWPOLYLINE
  5
3B01CC07CE297EAC
330
3B01CC07CE297EDB
100
AcDbEntity
  8
0
100
AcDbPolyline
 90
       10
 70
     1
 43
0.0
 10
-0.8299496303706831
 20
6.18658658030182
 42
0.0007136290500875
 10
-0.83615005621578
 20
4.902500945857852
 42
0.4152101532101757
 10
-0.8061502297558561
 20
4.872398904814684
 10
-0.5457522838829357
 20
4.872398904814684
 42
0.4142135623730953
 10
-0.5157522838829363
 20
4.902398904814685
 10
-0.5157522838829363
 20
5.98829892608219
 42
0.3506645594672013
 10
-0.5391547735094915
 20
6.017564483600754
 42
-0.3079481030822118
 10
-0.7012507644476372
 20
6.191004713943282
 42
0.3697556064876184
 10
-0.73089509817722
 20
6.216398904814653
 10
-0.7999502174112521
 20
6.216398904814646
 42
0.4123824392465745
  0
LWPOLYLINE
  5
3B01CC07CE297EB8
330
3B01CC07CE297EDB
100
AcDbEntity
  8
0
100
AcDbPolyline
 90
       10
 70
     1
 43
0.0
 10
0.8304456496455504
 20
6.216398904814557
 10
0.761390530411354
 20
6.216398904814576
 42
0.3697556064875864
 10
0.731746196681756
 20
6.191004713943218
 42
-0.3079481030821302
 10
0.5696502057436211
 20
6.017564483600743
 42
0.350664559467207
 10
0.5462477161170649
 20
5.98829892608218
 10
0.5462477161170641
 20
4.902398904814685
 42
0.4142135623730951
 10
0.5762477161170643
 20
4.872398904814684
 10
0.8366456619901484
 20
4.872398904814684
 42
0.4152101532102558
 10
0.8666454884500714
 20
4.902500945857859
 42
0.0007136290500875
 10
0.8604450626049169
 20
6.186586580301808
 42
0.412382439245744
  0
ENDSEC
  0
SECTION
  2
OBJECTS
  0
DICTIONARY
  5
3B01CC07CE297ECF
330
0
100
AcDbDictionary
  3
ACAD_GROUP
350
3B01CC07CE297ED0
  3
ACAD_LAYOUT
350
3B01CC07CE297EF5
  3
ACAD_MLINESTYLE
350
3B01CC07CE297ED1
  3
ACAD_PLOTSETTINGS
350
3B01CC07CE297EF6
  3
ACAD_PLOTSTYLENAME
350
3B01CC07CE297EF3
  3
ACDBHEADERROUNDTRIPXREC
350
3B01CC07CE297F00
  3
ACDBVARIABLEDICTIONARY
350
3B01CC07CE297EFD
  0
DICTIONARY
  5
3B01CC07CE297F22
330
3B01CC07CE297EDB
100
AcDbDictionary
280
     1
  3
ACAD_LAYOUTSELFREF
360
3B01CC07CE297F23
  0
DICTIONARY
  5
3B01CC07CE297F20
330
3B01CC07CE297ED8
100
AcDbDictionary
280
     1
  3
ACAD_LAYOUTSELFREF
360
3B01CC07CE297F21
  0
DICTIONARY
  5
3B01CC07CE297ED0
102
{ACAD_REACTORS
330
3B01CC07CE297ECF
102
}
330
3B01CC07CE297ECF
100
AcDbDictionary
  0
DICTIONARY
  5
3B01CC07CE297EF5
102
{ACAD_REACTORS
330
3B01CC07CE297ECF
102
}
330
3B01CC07CE297ECF
100
AcDbDictionary
  0
DICTIONARY
  5
3B01CC07CE297ED1
102
{ACAD_REACTORS
330
3B01CC07CE297ECF
102
}
330
3B01CC07CE297ECF
100
AcDbDictionary
  3
STANDARD
350
3B01CC07CE297EDE
  0
DICTIONARY
  5
3B01CC07CE297EF6
102
{ACAD_REACTORS
330
3B01CC07CE297ECF
102
}
330
3B01CC07CE297ECF
100
AcDbDictionary
  0
ACDBDICTIONARYWDFLT
  5
3B01CC07CE297EF3
102
{ACAD_REACTORS
330
3B01CC07CE297ECF
102
}
330
3B01CC07CE297ECF
100
AcDbDictionary
281
     1
  3
Normal
350
3B01CC07CE297EF4
100
AcDbDictionaryWithDefault
340
3B01CC07CE297EF4
  0
DICTIONARY
  5
3B01CC07CE297F00
102
{ACAD_REACTORS
330
3B01CC07CE297ECF
102
}
330
3B01CC07CE297ECF
100
AcDbDictionary
  3
CEPSNTYPE
350
3B01CC07CE297F0A
  3
FINGERPRINTGUID
350
3B01CC07CE297F0B
  3
HYPERLINKBASE
350
3B01CC07CE297F03
  3
INSUNITS
350
3B01CC07CE297F09
  3
LAYOUTDICT
350
3B01CC07CE297F05
  3
LWETCUNION
350
3B01CC07CE297F08
  3
PLOTSETDICT
350
3B01CC07CE297F06
  3
PLOTSTYLNAMDICT
350
3B01CC07CE297F07
  3
PSVPSCALE
350
3B01CC07CE297F0D
  3
PUCSBASE
350
3B01CC07CE297F10
  3
PUCSORGBACK
350
3B01CC07CE297F16
  3
PUCSORGBOTTOM
350
3B01CC07CE297F12
  3
PUCSORGFRONT
350
3B01CC07CE297F15
  3
PUCSORGLEFT
350
3B01CC07CE297F13
  3
PUCSORGRIGHT
350
3B01CC07CE297F14
  3
PUCSORGTOP
350
3B01CC07CE297F11
  3
PUCSORTHOREF
350
3B01CC07CE297F0E
  3
PUCSORTHOVIEW
350
3B01CC07CE297F0F
  3
STYLESHEET
350
3B01CC07CE297F04
  3
TSTACKALIGN
350
3B01CC07CE297F01
  3
TSTACKSIZE
350
3B01CC07CE297F02
  3
UCSBASE
350
3B01CC07CE297F19
  3
UCSORGBACK
350
3B01CC07CE297F1F
  3
UCSORGBOTTOM
350
3B01CC07CE297F1B
  3
UCSORGFRONT
350
3B01CC07CE297F1E
  3
UCSORGLEFT
350
3B01CC07CE297F1C
  3
UCSORGRIGHT
350
3B01CC07CE297F1D
  3
UCSORGTOP
350
3B01CC07CE297F1A
  3
UCSORTHOREF
350
3B01CC07CE297F17
  3
UCSORTHOVIEW
350
3B01CC07CE297F18
  3
VERSIONGUID
350
3B01CC07CE297F0C
  0
DICTIONARY
  5
3B01CC07CE297EFD
102
{ACAD_REACTORS
330
3B01CC07CE297ECF
102
}
330
3B01CC07CE297ECF
100
AcDbDictionary
  3
DIMASSOC
350
3B01CC07CE297EFE
  0
XRECORD
  5
3B01CC07CE297F23
102
{ACAD_REACTORS
330
3B01CC07CE297F22
102
}
330
3B01CC07CE297F22
100
AcDbXrecord
340
3B01CC07CE297EDB
  0
XRECORD
  5
3B01CC07CE297F21
102
{ACAD_REACTORS
330
3B01CC07CE297F20
102
}
330
3B01CC07CE297F20
100
AcDbXrecord
340
3B01CC07CE297ED8
  0
MLINESTYLE
  5
3B01CC07CE297EDE
102
{ACAD_REACTORS
330
3B01CC07CE297ED1
102
}
330
3B01CC07CE297ED1
100
AcDbMlineStyle
  2
STANDARD
 70
     0
  3

 62
     0
 51
90.0
 52
90.0
 71
     2
 49
0.5
 62
   256
  6
BYLAYER
 49
-0.5
 62
   256
  6
BYLAYER
  0
ACDBPLACEHOLDER
  5
3B01CC07CE297EF4
102
{ACAD_REACTORS
330
3B01CC07CE297EF3
102
}
330
3B01CC07CE297EF3
100
AcDbPlaceHolder
280
     0
  0
XRECORD
  5
3B01CC07CE297F0A
102
{ACAD_REACTORS
330
3B01CC07CE297F00
102
}
330
3B01CC07CE297F00
100
AcDbXrecord
 90
        0
  0
XRECORD
  5
3B01CC07CE297F0B
102
{ACAD_REACTORS
330
3B01CC07CE297F00
102
}
330
3B01CC07CE297F00
100
AcDbXrecord
  1
{BB23C460-8DB7-11D6-88E6-0090279574E7}
  0
XRECORD
  5
3B01CC07CE297F03
102
{ACAD_REACTORS
330
3B01CC07CE297F00
102
}
330
3B01CC07CE297F00
100
AcDbXrecord
  1

  0
XRECORD
  5
3B01CC07CE297F09
102
{ACAD_REACTORS
330
3B01CC07CE297F00
102
}
330
3B01CC07CE297F00
100
AcDbXrecord
 90
        0
  0
XRECORD
  5
3B01CC07CE297F05
102
{ACAD_REACTORS
330
3B01CC07CE297F00
102
}
330
3B01CC07CE297F00
100
AcDbXrecord
340
3B01CC07CE297EF5
  0
XRECORD
  5
3B01CC07CE297F08
102
{ACAD_REACTORS
330
3B01CC07CE297F00
102
}
330
3B01CC07CE297F00
100
AcDbXrecord
 90
    14877
  0
XRECORD
  5
3B01CC07CE297F06
102
{ACAD_REACTORS
330
3B01CC07CE297F00
102
}
330
3B01CC07CE297F00
100
AcDbXrecord
340
3B01CC07CE297EF6
  0
XRECORD
  5
3B01CC07CE297F07
102
{ACAD_REACTORS
330
3B01CC07CE297F00
102
}
330
3B01CC07CE297F00
100
AcDbXrecord
340
3B01CC07CE297EF3
  0
XRECORD
  5
3B01CC07CE297F0D
102
{ACAD_REACTORS
330
3B01CC07CE297F00
102
}
330
3B01CC07CE297F00
100
AcDbXrecord
 40
0.0
  0
XRECORD
  5
3B01CC07CE297F10
102
{ACAD_REACTORS
330
3B01CC07CE297F00
102
}
330
3B01CC07CE297F00
100
AcDbXrecord
340
0
  0
XRECORD
  5
3B01CC07CE297F16
102
{ACAD_REACTORS
330
3B01CC07CE297F00
102
}
330
3B01CC07CE297F00
100
AcDbXrecord
 10
0.0
 20
0.0
 30
0.0
  0
XRECORD
  5
3B01CC07CE297F12
102
{ACAD_REACTORS
330
3B01CC07CE297F00
102
}
330
3B01CC07CE297F00
100
AcDbXrecord
 10
0.0
 20
0.0
 30
0.0
  0
XRECORD
  5
3B01CC07CE297F15
102
{ACAD_REACTORS
330
3B01CC07CE297F00
102
}
330
3B01CC07CE297F00
100
AcDbXrecord
 10
0.0
 20
0.0
 30
0.0
  0
XRECORD
  5
3B01CC07CE297F13
102
{ACAD_REACTORS
330
3B01CC07CE297F00
102
}
330
3B01CC07CE297F00
100
AcDbXrecord
 10
0.0
 20
0.0
 30
0.0
  0
XRECORD
  5
3B01CC07CE297F14
102
{ACAD_REACTORS
330
3B01CC07CE297F00
102
}
330
3B01CC07CE297F00
100
AcDbXrecord
 10
0.0
 20
0.0
 30
0.0
  0
XRECORD
  5
3B01CC07CE297F11
102
{ACAD_REACTORS
330
3B01CC07CE297F00
102
}
330
3B01CC07CE297F00
100
AcDbXrecord
 10
0.0
 20
0.0
 30
0.0
  0
XRECORD
  5
3B01CC07CE297F0E
102
{ACAD_REACTORS
330
3B01CC07CE297F00
102
}
330
3B01CC07CE297F00
100
AcDbXrecord
340
0
  0
XRECORD
  5
3B01CC07CE297F0F
102
{ACAD_REACTORS
330
3B01CC07CE297F00
102
}
330
3B01CC07CE297F00
100
AcDbXrecord
 70
     0
  0
XRECORD
  5
3B01CC07CE297F04
102
{ACAD_REACTORS
330
3B01CC07CE297F00
102
}
330
3B01CC07CE297F00
100
AcDbXrecord
  1

  0
XRECORD
  5
3B01CC07CE297F01
102
{ACAD_REACTORS
330
3B01CC07CE297F00
102
}
330
3B01CC07CE297F00
100
AcDbXrecord
 90
        1
  0
XRECORD
  5
3B01CC07CE297F02
102
{ACAD_REACTORS
330
3B01CC07CE297F00
102
}
330
3B01CC07CE297F00
100
AcDbXrecord
 90
       70
  0
XRECORD
  5
3B01CC07CE297F19
102
{ACAD_REACTORS
330
3B01CC07CE297F00
102
}
330
3B01CC07CE297F00
100
AcDbXrecord
340
0
  0
XRECORD
  5
3B01CC07CE297F1F
102
{ACAD_REACTORS
330
3B01CC07CE297F00
102
}
330
3B01CC07CE297F00
100
AcDbXrecord
 10
0.0
 20
0.0
 30
0.0
  0
XRECORD
  5
3B01CC07CE297F1B
102
{ACAD_REACTORS
330
3B01CC07CE297F00
102
}
330
3B01CC07CE297F00
100
AcDbXrecord
 10
0.0
 20
0.0
 30
0.0
  0
XRECORD
  5
3B01CC07CE297F1E
102
{ACAD_REACTORS
330
3B01CC07CE297F00
102
}
330
3B01CC07CE297F00
100
AcDbXrecord
 10
0.0
 20
0.0
 30
0.0
  0
XRECORD
  5
3B01CC07CE297F1C
102
{ACAD_REACTORS
330
3B01CC07CE297F00
102
}
330
3B01CC07CE297F00
100
AcDbXrecord
 10
0.0
 20
0.0
 30
0.0
  0
XRECORD
  5
3B01CC07CE297F1D
102
{ACAD_REACTORS
330
3B01CC07CE297F00
102
}
330
3B01CC07CE297F00
100
AcDbXrecord
 10
0.0
 20
0.0
 30
0.0
  0
XRECORD
  5
3B01CC07CE297F1A
102
{ACAD_REACTORS
330
3B01CC07CE297F00
102
}
330
3B01CC07CE297F00
100
AcDbXrecord
 10
0.0
 20
0.0
 30
0.0
  0
XRECORD
  5
3B01CC07CE297F17
102
{ACAD_REACTORS
330
3B01CC07CE297F00
102
}
330
3B01CC07CE297F00
100
AcDbXrecord
340
0
  0
XRECORD
  5
3B01CC07CE297F18
102
{ACAD_REACTORS
330
3B01CC07CE297F00
102
}
330
3B01CC07CE297F00
100
AcDbXrecord
 70
     0
  0
XRECORD
  5
3B01CC07CE297F0C
102
{ACAD_REACTORS
330
3B01CC07CE297F00
102
}
330
3B01CC07CE297F00
100
AcDbXrecord
  1
{BB23C462-8DB7-11D6-88E6-0090279574E7}
  0
DICTIONARYVAR
  5
3B01CC07CE297EFE
102
{ACAD_REACTORS
330
3B01CC07CE297EFD
102
}
330
3B01CC07CE297EFD
100
DictionaryVariables
280
     0
  1
1
  0
ENDSEC
  0
EOF
