  0
SECTION
  2
HEADER
  9
$ACADVER
  1
AC1014
  9
$ACADMAINTVER
 70
     9
  9
$DWGCODEPAGE
  3
ANSI_1252
  9
$INSBASE
 10
0.0
 20
0.0
 30
0.0
  9
$EXTMIN
 10
-0.685279710766204
 20
-0.1820783553336482
 30
0.0
  9
$EXTMAX
 10
2.799939610980924
 20
2.230017738578901
 30
0.0
  9
$LIMMIN
 10
0.0
 20
0.0
  9
$LIMMAX
 10
18.0
 20
12.0
  9
$ORTHOMODE
 70
     0
  9
$REGENMODE
 70
     1
  9
$FILLMODE
 70
     1
  9
$QTEXTMODE
 70
     0
  9
$MIRRTEXT
 70
     0
  9
$DRAGMODE
 70
     2
  9
$LTSCALE
 40
1.0
  9
$OSMODE
 70
    39
  9
$ATTMODE
 70
     1
  9
$TEXTSIZE
 40
0.125
  9
$TRACEWID
 40
0.05
  9
$TEXTSTYLE
  7
ROMANS
  9
$CLAYER
  8
0
  9
$CELTYPE
  6
BYLAYER
  9
$CECOLOR
 62
   256
  9
$CELTSCALE
 40
1.0
  9
$DELOBJ
 70
     1
  9
$DISPSILH
 70
     1
  9
$DIMSCALE
 40
1.0
  9
$DIMASZ
 40
0.125
  9
$DIMEXO
 40
0.125
  9
$DIMDLI
 40
0.375
  9
$DIMRND
 40
0.0
  9
$DIMDLE
 40
0.0
  9
$DIMEXE
 40
0.125
  9
$DIMTP
 40
0.0
  9
$DIMTM
 40
3.0
  9
$DIMTXT
 40
0.125
  9
$DIMCEN
 40
-0.125
  9
$DIMTSZ
 40
0.0
  9
$DIMTOL
 70
     1
  9
$DIMLIM
 70
     0
  9
$DIMTIH
 70
     1
  9
$DIMTOH
 70
     1
  9
$DIMSE1
 70
     0
  9
$DIMSE2
 70
     0
  9
$DIMTAD
 70
     0
  9
$DIMZIN
 70
     4
  9
$DIMBLK
  1

  9
$DIMASO
 70
     1
  9
$DIMSHO
 70
     1
  9
$DIMPOST
  1

  9
$DIMAPOST
  1

  9
$DIMALT
 70
     0
  9
$DIMALTD
 70
     2
  9
$DIMALTF
 40
25.4
  9
$DIMLFAC
 40
0.5
  9
$DIMTOFL
 70
     0
  9
$DIMTVP
 40
0.0
  9
$DIMTIX
 70
     0
  9
$DIMSOXD
 70
     0
  9
$DIMSAH
 70
     0
  9
$DIMBLK1
  1

  9
$DIMBLK2
  1

  9
$DIMSTYLE
  2
STANDARD
  9
$DIMCLRD
 70
     0
  9
$DIMCLRE
 70
     0
  9
$DIMCLRT
 70
     0
  9
$DIMTFAC
 40
1.0
  9
$DIMGAP
 40
0.09
  9
$DIMJUST
 70
     0
  9
$DIMSD1
 70
     0
  9
$DIMSD2
 70
     0
  9
$DIMTOLJ
 70
     1
  9
$DIMTZIN
 70
     0
  9
$DIMALTZ
 70
     0
  9
$DIMALTTZ
 70
     0
  9
$DIMFIT
 70
     3
  9
$DIMUPT
 70
     0
  9
$DIMUNIT
 70
     2
  9
$DIMDEC
 70
     3
  9
$DIMTDEC
 70
     4
  9
$DIMALTU
 70
     2
  9
$DIMALTTD
 70
     2
  9
$DIMTXSTY
  7
ROMANS
  9
$DIMAUNIT
 70
     0
  9
$LUNITS
 70
     2
  9
$LUPREC
 70
     3
  9
$SKETCHINC
 40
0.1
  9
$FILLETRAD
 40
0.0
  9
$AUNITS
 70
     0
  9
$AUPREC
 70
     0
  9
$MENU
  1
acad
  9
$ELEVATION
 40
0.0
  9
$PELEVATION
 40
0.0
  9
$THICKNESS
 40
0.0
  9
$LIMCHECK
 70
     0
  9
$BLIPMODE
 70
     0
  9
$CHAMFERA
 40
0.045
  9
$CHAMFERB
 40
0.045
  9
$CHAMFERC
 40
0.0
  9
$CHAMFERD
 40
0.0
  9
$SKPOLY
 70
     0
  9
$TDCREATE
 40
2449091.564110764
  9
$TDUPDATE
 40
2452458.313961377
  9
$TDINDWG
 40
0.0035356250
  9
$TDUSRTIMER
 40
0.0035356250
  9
$USRTIMER
 70
     1
  9
$ANGBASE
 50
0.0
  9
$ANGDIR
 70
     0
  9
$PDMODE
 70
     0
  9
$PDSIZE
 40
0.0
  9
$PLINEWID
 40
0.0
  9
$COORDS
 70
     2
  9
$SPLFRAME
 70
     0
  9
$SPLINETYPE
 70
     6
  9
$SPLINESEGS
 70
     8
  9
$ATTDIA
 70
     0
  9
$ATTREQ
 70
     1
  9
$HANDLING
 70
 22529
  9
$HANDSEED
  5
38D
  9
$SURFTAB1
 70
     6
  9
$SURFTAB2
 70
     6
  9
$SURFTYPE
 70
     6
  9
$SURFU
 70
     6
  9
$SURFV
 70
     6
  9
$UCSNAME
  2

  9
$UCSORG
 10
0.0
 20
0.0
 30
0.0
  9
$UCSXDIR
 10
1.0
 20
0.0
 30
0.0
  9
$UCSYDIR
 10
0.0
 20
1.0
 30
0.0
  9
$PUCSNAME
  2

  9
$PUCSORG
 10
0.0
 20
0.0
 30
0.0
  9
$PUCSXDIR
 10
1.0
 20
0.0
 30
0.0
  9
$PUCSYDIR
 10
0.0
 20
1.0
 30
0.0
  9
$USERI1
 70
     0
  9
$USERI2
 70
     0
  9
$USERI3
 70
     0
  9
$USERI4
 70
     0
  9
$USERI5
 70
     0
  9
$USERR1
 40
0.0
  9
$USERR2
 40
0.0
  9
$USERR3
 40
0.0
  9
$USERR4
 40
0.0
  9
$USERR5
 40
0.0
  9
$WORLDVIEW
 70
     1
  9
$SHADEDGE
 70
     3
  9
$SHADEDIF
 70
    70
  9
$TILEMODE
 70
     1
  9
$MAXACTVP
 70
    16
  9
$PINSBASE
 10
0.0
 20
0.0
 30
0.0
  9
$PLIMCHECK
 70
     0
  9
$PEXTMIN
 10
1.000000000000000E+20
 20
1.000000000000000E+20
 30
1.000000000000000E+20
  9
$PEXTMAX
 10
-1.000000000000000E+20
 20
-1.000000000000000E+20
 30
-1.000000000000000E+20
  9
$PLIMMIN
 10
0.0
 20
0.0
  9
$PLIMMAX
 10
12.0
 20
9.0
  9
$UNITMODE
 70
     0
  9
$VISRETAIN
 70
     0
  9
$PLINEGEN
 70
     1
  9
$PSLTSCALE
 70
     0
  9
$TREEDEPTH
 70
  3020
  9
$PICKSTYLE
 70
     1
  9
$CMLSTYLE
  2
STANDARD
  9
$CMLJUST
 70
     0
  9
$CMLSCALE
 40
1.0
  9
$PROXYGRAPHICS
 70
     1
  9
$MEASUREMENT
 70
     0
  0
ENDSEC
  0
SECTION
  2
CLASSES
  0
CLASS
  1
LWPOLYLINE
  2
AcDbPolyline
  3
AutoCAD 2000
 90
        0
280
     0
281
     1
  0
CLASS
  1
ACDBDICTIONARYWDFLT
  2
AcDbDictionaryWithDefault
  3
AutoCAD 2000
 90
        0
280
     0
281
     0
  0
CLASS
  1
ACDBPLACEHOLDER
  2
AcDbPlaceHolder
  3
AutoCAD 2000
 90
        0
280
     0
281
     0
  0
CLASS
  1
LAYOUT
  2
AcDbLayout
  3
AutoCAD 2000
 90
        0
280
     0
281
     0
  0
CLASS
  1
DICTIONARYVAR
  2
AcDbDictionaryVar
  3
AutoCAD 2000
 90
        0
280
     0
281
     0
  0
CLASS
  1
LONG_TRANSACTION
  2
AcDbLongTransaction
  3
AutoCAD 2000
 90
        0
280
     0
281
     0
  0
CLASS
  1
LWPOLYLINE
  2
AcDbPolyline
  3
AutoCAD 2000
 90
        0
280
     0
281
     1
  0
CLASS
  1
HATCH
  2
AcDbHatch
  3
AutoCAD 2000
 90
        0
280
     0
281
     1
  0
CLASS
  1
XRECORD
  2
AcDbXrecord
  3
AutoCAD 2000
 90
        0
280
     0
281
     0
  0
ENDSEC
  0
SECTION
  2
TABLES
  0
TABLE
  2
VPORT
  5
8
330
0
100
AcDbSymbolTable
 70
     2
  0
VPORT
  5
368
330
8
100
AcDbSymbolTableRecord
100
AcDbViewportTableRecord
  2
*ACTIVE
 70
     0
 10
0.0
 20
0.0
 11
1.0
 21
1.0
 12
4.344441672396421
 22
1.024221300282331
 13
0.0
 23
0.0
 14
0.2
 24
0.2
 15
0.25
 25
0.25
 16
0.0
 26
0.0
 36
1.0
 17
0.0
 27
0.0
 37
0.0
 40
2.433774751359258
 41
4.320930232558139
 42
50.0
 43
0.0
 44
0.0
 50
0.0
 51
0.0
 71
     0
 72
  2000
 73
     1
 74
     1
 75
     0
 76
     0
 77
     0
 78
     0
  0
ENDTAB
  0
TABLE
  2
LTYPE
  5
5
330
0
100
AcDbSymbolTable
 70
     1
  0
LTYPE
  5
12
330
5
100
AcDbSymbolTableRecord
100
AcDbLinetypeTableRecord
  2
BYBLOCK
 70
     0
  3

 72
    65
 73
     0
 40
0.0
  0
LTYPE
  5
13
330
5
100
AcDbSymbolTableRecord
100
AcDbLinetypeTableRecord
  2
BYLAYER
 70
     0
  3

 72
    65
 73
     0
 40
0.0
  0
LTYPE
  5
14
330
5
100
AcDbSymbolTableRecord
100
AcDbLinetypeTableRecord
  2
CONTINUOUS
 70
     0
  3
Solid line
 72
    65
 73
     0
 40
0.0
  0
ENDTAB
  0
TABLE
  2
LAYER
  5
2
330
0
100
AcDbSymbolTable
 70
     2
  0
LAYER
  5
F
330
2
100
AcDbSymbolTableRecord
100
AcDbLayerTableRecord
  2
0
 70
     0
 62
     7
  6
CONTINUOUS
  0
LAYER
  5
23
330
2
100
AcDbSymbolTableRecord
100
AcDbLayerTableRecord
  2
TEXT
 70
     0
 62
     3
  6
CONTINUOUS
  0
ENDTAB
  0
TABLE
  2
STYLE
  5
3
330
0
100
AcDbSymbolTable
 70
     3
  0
STYLE
  5
10
330
3
100
AcDbSymbolTableRecord
100
AcDbTextStyleTableRecord
  2
STANDARD
 70
     0
 40
0.0
 41
1.0
 50
0.0
 71
     0
 42
0.125
  3
txt
  4

  0
STYLE
  5
253
330
3
100
AcDbSymbolTableRecord
100
AcDbTextStyleTableRecord
  2
ITALICC
 70
     0
 40
0.0
 41
1.0
 50
0.0
 71
     0
 42
0.125
  3
italicc
  4

  0
STYLE
  5
364
330
3
100
AcDbSymbolTableRecord
100
AcDbTextStyleTableRecord
  2
ROMANS
 70
     0
 40
0.0
 41
1.0
 50
0.0
 71
     0
 42
0.125
  3
romans.shx
  4

  0
ENDTAB
  0
TABLE
  2
VIEW
  5
6
330
0
100
AcDbSymbolTable
 70
     0
  0
ENDTAB
  0
TABLE
  2
UCS
  5
7
330
0
100
AcDbSymbolTable
 70
     0
  0
ENDTAB
  0
TABLE
  2
APPID
  5
9
330
0
100
AcDbSymbolTable
 70
     1
  0
APPID
  5
11
330
9
100
AcDbSymbolTableRecord
100
AcDbRegAppTableRecord
  2
ACAD
 70
     0
  0
ENDTAB
  0
TABLE
  2
DIMSTYLE
  5
A
330
0
100
AcDbSymbolTable
 70
     1
  0
DIMSTYLE
105
249
330
A
100
AcDbSymbolTableRecord
100
AcDbDimStyleTableRecord
  2
STANDARD
 70
     0
  3

  4

  5

  6

  7

 40
1.0
 41
0.18
 42
0.0625
 43
0.38
 44
0.18
 45
0.0
 46
0.0
 47
0.0
 48
0.0
140
0.18
141
0.09
142
0.0
143
25.4
144
1.0
145
0.0
146
1.0
147
0.09
 71
     0
 72
     0
 73
     1
 74
     1
 75
     0
 76
     0
 77
     0
 78
     0
170
     0
171
     2
172
     0
173
     0
174
     0
175
     0
176
     0
177
     0
178
     0
270
     2
271
     4
272
     4
273
     2
274
     2
340
10
275
     0
280
     0
281
     0
282
     0
283
     1
284
     0
285
     0
286
     0
287
     3
288
     0
  0
ENDTAB
  0
TABLE
  2
BLOCK_RECORD
  5
1
330
0
100
AcDbSymbolTable
 70
     0
  0
BLOCK_RECORD
  5
18
102
{ACAD_XDICTIONARY
360
38B
102
}
330
1
100
AcDbSymbolTableRecord
100
AcDbBlockTableRecord
  2
*MODEL_SPACE
  0
BLOCK_RECORD
  5
15
102
{ACAD_XDICTIONARY
360
389
102
}
330
1
100
AcDbSymbolTableRecord
100
AcDbBlockTableRecord
  2
*PAPER_SPACE
  0
ENDTAB
  0
ENDSEC
  0
SECTION
  2
BLOCKS
  0
BLOCK
  5
28
330
18
100
AcDbEntity
  8
0
100
AcDbBlockBegin
  2
*MODEL_SPACE
 70
     0
 10
0.0
 20
0.0
 30
0.0
  3
*MODEL_SPACE
  1

  0
ENDBLK
  5
29
330
18
100
AcDbEntity
  8
0
100
AcDbBlockEnd
  0
BLOCK
  5
26
330
15
100
AcDbEntity
 67
     1
  8
0
100
AcDbBlockBegin
  2
*PAPER_SPACE
 70
     0
 10
0.0
 20
0.0
 30
0.0
  3
*PAPER_SPACE
  1

  0
ENDBLK
  5
27
330
15
100
AcDbEntity
 67
     1
  8
0
100
AcDbBlockEnd
  0
ENDSEC
  0
SECTION
  2
ENTITIES
  0
LWPOLYLINE
  5
1ED
330
18
100
AcDbEntity
  8
0
100
AcDbPolyline
 90
       25
 70
     0
 43
0.0
 10
1.778056345297994
 20
2.138153207311761
 10
1.329251674503489
 20
2.138153207311767
 42
0.1990057575763174
 10
1.307323488933353
 20
2.129065639344786
 10
1.062598900484259
 20
1.884165110685959
 42
-0.668178637919292
 10
1.036988489080034
 20
1.894762510331166
 10
1.036950683945806
 20
1.999970656340499
 10
1.087306019754123
 20
1.999988750854102
 42
0.1989123673796638
 10
1.09791104207858
 20
2.004385960192286
 10
1.205997792537557
 20
2.112550417618374
 42
0.6680487039885522
 10
1.19538738016491
 20
2.13815320731177
 10
0.5491414865749565
 20
2.138153207311774
 10
0.5491414865749547
 20
2.230017738578901
 10
1.87019181403085
 20
2.230017738578901
 10
1.870191814030846
 20
0.9097229507965248
 10
1.778191814030851
 20
0.9097229507965266
 10
1.778191814030853
 20
1.555348773445818
 42
0.668048703988583
 10
1.752589024337459
 20
1.565959185818464
 10
1.644424566911367
 20
1.457872435359489
 42
0.1989123673796656
 10
1.640027357573182
 20
1.447267413035032
 10
1.640009263059579
 20
1.396912077226716
 10
1.534801117050248
 20
1.396949882360946
 42
-0.6681786379192917
 10
1.524203717405042
 20
1.422560293765171
 10
1.769104246063872
 20
1.667284882214265
 42
0.1990057575763114
 10
1.778191814030851
 20
1.689213067784401
 10
1.778191814030855
 20
2.138017738578902
  0
LINE
  5
2D9
330
18
100
AcDbEntity
  8
TEXT
100
AcDbLine
 10
1.165918339928339
 20
0.019997930974327
 30
0.0
 11
1.165918339928339
 21
0.1613274631534658
 31
0.0
  0
LINE
  5
2DA
330
18
100
AcDbEntity
  8
TEXT
100
AcDbLine
 10
1.213016498484321
 20
0.0958632573858651
 30
0.0
 11
1.165918339928339
 21
0.019997930974327
 31
0.0
  0
LINE
  5
2DB
330
18
100
AcDbEntity
  8
TEXT
100
AcDbLine
 10
1.223451215248246
 20
-0.0140299855551085
 30
0.0
 11
1.288008331213951
 21
0.0958632573858651
 31
0.0
  0
TEXT
  5
2DC
330
18
100
AcDbEntity
  8
TEXT
100
AcDbText
 10
1.47100702671126
 20
0.0155344600091425
 30
0.0
 40
0.0522247191011236
  1
6536 Main St. N.E. * P.O. Box 32008
 41
0.8388932496075355
 72
     5
 11
2.799939610980924
 21
0.0155344600091425
 31
0.0
100
AcDbText
  0
ARC
  5
2DD
330
18
100
AcDbEntity
  8
TEXT
100
AcDbCircle
 10
1.025435367413001
 20
0.0066806874464369
 30
0.0
 40
0.0249058752826653
100
AcDbArc
 50
89.99971217465335
 51
179.9999999999985
  0
LINE
  5
2DE
330
18
100
AcDbEntity
  8
TEXT
100
AcDbLine
 10
0.9382346009899684
 20
-0.0093487211675622
 30
0.0
 11
0.8944838298080668
 21
0.072901554828583
 31
0.0
  0
LINE
  5
2DF
330
18
100
AcDbEntity
  8
TEXT
100
AcDbLine
 10
0.9382346009899684
 20
0.0958632573858651
 30
0.0
 11
0.9382346009899684
 21
-0.0093487211675622
 31
0.0
  0
ARC
  5
2E0
330
18
100
AcDbEntity
  8
TEXT
100
AcDbCircle
 10
0.8302437637704489
 20
0.0032271877291024
 30
0.0
 40
0.028359375
100
AcDbArc
 50
25.78218179591245
 51
90.0
  0
LINE
  5
2E1
330
18
100
AcDbEntity
  8
TEXT
100
AcDbLine
 10
0.3682493025867011
 20
-0.0882219374996467
 30
0.0
 11
0.3682493025867011
 21
0.1638747351246756
 31
0.0
  0
LINE
  5
2E2
330
18
100
AcDbEntity
  8
TEXT
100
AcDbLine
 10
0.4005611567243613
 20
0.0958632573858651
 30
0.0
 11
0.4005611567243613
 21
-0.1050009493465431
 31
0.0
  0
LINE
  5
2E3
330
18
100
AcDbEntity
  8
TEXT
100
AcDbLine
 10
0.271318677226958
 20
0.0958632573858651
 30
0.0
 11
0.2125701144210943
 21
-0.0050087387272555
 31
0.0
  0
LINE
  5
2E4
330
18
100
AcDbEntity
  8
TEXT
100
AcDbLine
 10
0.2125701144210943
 20
-0.0050087387272555
 30
0.0
 11
0.1539397933891564
 21
0.0958632573858651
 31
0.0
  0
ARC
  5
2E5
330
18
100
AcDbEntity
  8
TEXT
100
AcDbCircle
 10
-0.1536335304972702
 20
0.0137757979393634
 30
0.0
 40
0.0820874594465043
100
AcDbArc
 50
90.0
 51
270.0
  0
LWPOLYLINE
  5
2E6
330
18
100
AcDbEntity
  8
TEXT
100
AcDbPolyline
 90
        2
 70
     0
 43
0.0001332181640625
 10
-0.5617198635982348
 20
0.022593267151489
 10
-0.5717112259029254
 20
0.0958632573858687
  0
LWPOLYLINE
  5
2E7
330
18
100
AcDbEntity
  8
TEXT
100
AcDbPolyline
 90
        2
 70
     0
 43
0.0001332181640625
 10
-0.5717112259029254
 20
0.0692196245733676
 10
-0.5617198635982348
 20
0.0092714507452421
  0
LWPOLYLINE
  5
2E8
330
18
100
AcDbEntity
  8
TEXT
100
AcDbPolyline
 90
        2
 70
     0
 43
0.0001332181640625
 10
-0.5317457766841738
 20
0.0692196245733676
 10
-0.5417371389888626
 20
0.0092714507452421
  0
LWPOLYLINE
  5
2E9
330
18
100
AcDbEntity
  8
TEXT
100
AcDbPolyline
 90
        2
 70
     0
 43
0.0001332181640625
 10
-0.5317457766841738
 20
0.0958632573858687
 10
-0.5417371389888626
 20
0.022593267151489
  0
LWPOLYLINE
  5
2EA
330
18
100
AcDbEntity
  8
TEXT
100
AcDbPolyline
 90
        3
 70
     0
 43
0.0006660908203125
 10
-0.418510337231048
 20
-0.017372182067259
 10
-0.418510337231048
 20
0.0958632573858687
 10
-0.5317457766841738
 20
0.0958632573858687
  0
LWPOLYLINE
  5
2EB
330
18
100
AcDbEntity
  8
TEXT
100
AcDbPolyline
 90
        3
 70
     0
 43
0.0006660908203125
 10
-0.445153970043549
 20
-0.017372182067259
 10
-0.445153970043549
 20
0.0692196245733676
 10
-0.5317457766841738
 20
0.0692196245733676
  0
LWPOLYLINE
  5
2EC
330
18
100
AcDbEntity
  8
TEXT
100
AcDbPolyline
 90
        2
 70
     0
 43
0.0001332181640625
 10
-0.445153970043549
 20
0.0692196245733676
 10
-0.5051021438716728
 20
0.0092714507452421
  0
LWPOLYLINE
  5
2ED
330
18
100
AcDbEntity
  8
TEXT
100
AcDbPolyline
 90
        2
 70
     0
 43
0.0001332181640625
 10
-0.6583030325435502
 20
0.0692196245733676
 10
-0.5983548587154246
 20
0.0092714507452421
  0
LWPOLYLINE
  5
2EE
330
18
100
AcDbEntity
  8
TEXT
100
AcDbPolyline
 90
        3
 70
     0
 43
0.0006660908203125
 10
-0.5717112259029254
 20
0.0958632573858687
 10
-0.6849466653560477
 20
0.0958632573858687
 10
-0.6849466653560477
 20
-0.017372182067259
  0
LWPOLYLINE
  5
2EF
330
18
100
AcDbEntity
  8
TEXT
100
AcDbPolyline
 90
        3
 70
     0
 43
0.0006660908203125
 10
-0.5717112259029254
 20
0.0692196245733676
 10
-0.6583030325435502
 20
0.0692196245733676
 10
-0.6583030325435502
 20
-0.017372182067259
  0
LINE
  5
2F0
330
18
100
AcDbEntity
  8
TEXT
100
AcDbLine
 10
-0.0827960641387211
 20
-0.0042181588815282
 30
0.0
 11
-0.1483962003830221
 21
-0.0042181588815282
 31
0.0
  0
LINE
  5
2F1
330
18
100
AcDbEntity
  8
TEXT
100
AcDbLine
 10
-0.1536335304972702
 20
-0.068311661507142
 30
0.0
 11
-0.0778556902324414
 21
-0.068311661507142
 31
0.0
  0
LINE
  5
2F2
330
18
100
AcDbEntity
  8
TEXT
100
AcDbLine
 10
-0.2357209899437738
 20
-0.1706097756026459
 30
0.0
 11
-0.0827960641387211
 21
-0.1706097756026459
 31
0.0
  0
LINE
  5
2F3
330
18
100
AcDbEntity
  8
TEXT
100
AcDbLine
 10
-0.0778556902324414
 20
-0.1022527692692066
 30
0.0
 11
-0.2357209899437755
 21
-0.1022527692692066
 31
0.0
  0
LINE
  5
2F4
330
18
100
AcDbEntity
  8
TEXT
100
AcDbLine
 10
-0.1483962003830221
 20
0.0315865627290997
 30
0.0
 11
0.0185094536459474
 21
0.0315865627290997
 31
0.0
  0
LWPOLYLINE
  5
2F5
330
18
100
AcDbEntity
  8
TEXT
100
AcDbPolyline
 90
        2
 70
     0
 43
0.0006660908203125
 10
-0.445153970043549
 20
-0.017372182067259
 10
-0.418510337231048
 20
-0.017372182067259
  0
LWPOLYLINE
  5
2F6
330
18
100
AcDbEntity
  8
TEXT
100
AcDbPolyline
 90
        2
 70
     0
 43
0.0001332181640625
 10
-0.491780327465424
 20
-0.0273635443719478
 10
-0.418510337231048
 20
-0.017372182067259
  0
LWPOLYLINE
  5
2F7
330
18
100
AcDbEntity
  8
TEXT
100
AcDbPolyline
 90
        2
 70
     0
 43
0.0006660908203125
 10
-0.445153970043549
 20
-0.057337631286007
 10
-0.418510337231048
 20
-0.057337631286007
  0
LWPOLYLINE
  5
2F8
330
18
100
AcDbEntity
  8
TEXT
100
AcDbPolyline
 90
        3
 70
     0
 43
0.0006660908203125
 10
-0.5317457766841738
 20
-0.1705730707391346
 10
-0.418510337231048
 20
-0.1705730707391346
 10
-0.418510337231048
 20
-0.057337631286007
  0
LWPOLYLINE
  5
2F9
330
18
100
AcDbEntity
  8
TEXT
100
AcDbPolyline
 90
        2
 70
     0
 43
0.0001332181640625
 10
-0.418510337231048
 20
-0.057337631286007
 10
-0.491780327465424
 20
-0.0473462689813218
  0
LWPOLYLINE
  5
2FA
330
18
100
AcDbEntity
  8
TEXT
100
AcDbPolyline
 90
        3
 70
     0
 43
0.0006660908203125
 10
-0.6849466653560477
 20
-0.057337631286007
 10
-0.6849466653560477
 20
-0.1705730707391346
 10
-0.5717112259029254
 20
-0.1705730707391346
  0
LWPOLYLINE
  5
2FB
330
18
100
AcDbEntity
  8
TEXT
100
AcDbPolyline
 90
        3
 70
     0
 43
0.0006660908203125
 10
-0.6583030325435502
 20
-0.057337631286007
 10
-0.6583030325435502
 20
-0.1439294379266336
 10
-0.5717112259029254
 20
-0.1439294379266336
  0
LWPOLYLINE
  5
2FC
330
18
100
AcDbEntity
  8
TEXT
100
AcDbPolyline
 90
        5
 70
     0
 43
0.0001332181640625
 10
-0.5617198635982348
 20
-0.0973030805047586
 10
-0.5617198635982348
 20
-0.0839812640985081
 10
-0.5983548587154229
 20
-0.0839812640985081
 10
-0.5983548587154229
 20
-0.0473462689813218
 10
-0.6116766751216734
 20
-0.0473462689813218
  0
LWPOLYLINE
  5
2FD
330
18
100
AcDbEntity
  8
TEXT
100
AcDbPolyline
 90
        5
 70
     0
 43
0.0001332181640625
 10
-0.6116766751216734
 20
-0.0273635443719478
 10
-0.5983548587154246
 20
-0.0273635443719478
 10
-0.5983548587154246
 20
0.0092714507452421
 10
-0.5617198635982348
 20
0.0092714507452421
 10
-0.5617198635982348
 20
0.022593267151489
  0
LWPOLYLINE
  5
2FE
330
18
100
AcDbEntity
  8
TEXT
100
AcDbPolyline
 90
        2
 70
     0
 43
0.0001332181640625
 10
-0.6583030325435502
 20
-0.017372182067259
 10
-0.5983548587154246
 20
-0.0273635443719478
  0
LWPOLYLINE
  5
2FF
330
18
100
AcDbEntity
  8
TEXT
100
AcDbPolyline
 90
        2
 70
     0
 43
0.0001332181640625
 10
-0.6849466653560477
 20
-0.017372182067259
 10
-0.6116766751216734
 20
-0.0273635443719478
  0
LWPOLYLINE
  5
300
330
18
100
AcDbEntity
  8
TEXT
100
AcDbPolyline
 90
        2
 70
     0
 43
0.0006660908203125
 10
-0.6583030325435502
 20
-0.017372182067259
 10
-0.6849466653560477
 20
-0.017372182067259
  0
LWPOLYLINE
  5
301
330
18
100
AcDbEntity
  8
TEXT
100
AcDbPolyline
 90
        2
 70
     0
 43
0.0001332181640625
 10
-0.6583030325435502
 20
-0.1439294379266336
 10
-0.5983548587154229
 20
-0.0839812640985081
  0
LWPOLYLINE
  5
302
330
18
100
AcDbEntity
  8
TEXT
100
AcDbPolyline
 90
        2
 70
     0
 43
0.0006660908203125
 10
-0.6583030325435502
 20
-0.057337631286007
 10
-0.6849466653560477
 20
-0.057337631286007
  0
LWPOLYLINE
  5
303
330
18
100
AcDbEntity
  8
TEXT
100
AcDbPolyline
 90
        2
 70
     0
 43
0.0001332181640625
 10
-0.6116766751216734
 20
-0.0473462689813218
 10
-0.6849466653560477
 20
-0.057337631286007
  0
LWPOLYLINE
  5
304
330
18
100
AcDbEntity
  8
TEXT
100
AcDbPolyline
 90
        2
 70
     0
 43
0.0001332181640625
 10
-0.6583030325435502
 20
-0.057337631286007
 10
-0.5983548587154229
 20
-0.0473462689813218
  0
LWPOLYLINE
  5
305
330
18
100
AcDbEntity
  8
TEXT
100
AcDbPolyline
 90
        5
 70
     0
 43
0.0001332181640625
 10
-0.5417371389888626
 20
0.022593267151489
 10
-0.5417371389888626
 20
0.0092714507452421
 10
-0.5051021438716728
 20
0.0092714507452421
 10
-0.5051021438716728
 20
-0.0273635443719478
 10
-0.491780327465424
 20
-0.0273635443719478
  0
LWPOLYLINE
  5
306
330
18
100
AcDbEntity
  8
TEXT
100
AcDbPolyline
 90
        2
 70
     0
 43
0.0001332181640625
 10
-0.445153970043549
 20
-0.017372182067259
 10
-0.5051021438716728
 20
-0.0273635443719478
  0
LWPOLYLINE
  5
307
330
18
100
AcDbEntity
  8
TEXT
100
AcDbPolyline
 90
        2
 70
     0
 43
0.0006660908203125
 10
-0.5717112259029254
 20
-0.1439294379266336
 10
-0.5717112259029254
 20
-0.1705730707391346
  0
LWPOLYLINE
  5
308
330
18
100
AcDbEntity
  8
TEXT
100
AcDbPolyline
 90
        2
 70
     0
 43
0.0001332181640625
 10
-0.5717112259029254
 20
-0.1439294379266336
 10
-0.5617198635982348
 20
-0.0839812640985081
  0
LWPOLYLINE
  5
309
330
18
100
AcDbEntity
  8
TEXT
100
AcDbPolyline
 90
        2
 70
     0
 43
0.0001332181640625
 10
-0.5717112259029254
 20
-0.1705730707391346
 10
-0.5617198635982348
 20
-0.0973030805047586
  0
LWPOLYLINE
  5
30A
330
18
100
AcDbEntity
  8
TEXT
100
AcDbPolyline
 90
        2
 70
     0
 43
0.0001332181640625
 10
-0.5317457766841738
 20
-0.1439294379266336
 10
-0.5417371389888626
 20
-0.0839812640985081
  0
LWPOLYLINE
  5
30B
330
18
100
AcDbEntity
  8
TEXT
100
AcDbPolyline
 90
        2
 70
     0
 43
0.0001332181640625
 10
-0.5417371389888626
 20
-0.0973030805047586
 10
-0.5317457766841738
 20
-0.1705730707391346
  0
LWPOLYLINE
  5
30C
330
18
100
AcDbEntity
  8
TEXT
100
AcDbPolyline
 90
        2
 70
     0
 43
0.0006660908203125
 10
-0.5317457766841738
 20
-0.1439294379266336
 10
-0.5317457766841738
 20
-0.1705730707391346
  0
LWPOLYLINE
  5
30D
330
18
100
AcDbEntity
  8
TEXT
100
AcDbPolyline
 90
        2
 70
     0
 43
0.0001332181640625
 10
-0.445153970043549
 20
-0.1439294379266336
 10
-0.5051021438716728
 20
-0.0839812640985081
  0
LWPOLYLINE
  5
30E
330
18
100
AcDbEntity
  8
TEXT
100
AcDbPolyline
 90
        3
 70
     0
 43
0.0006660908203125
 10
-0.5317457766841738
 20
-0.1439294379266336
 10
-0.445153970043549
 20
-0.1439294379266336
 10
-0.445153970043549
 20
-0.057337631286007
  0
LWPOLYLINE
  5
30F
330
18
100
AcDbEntity
  8
TEXT
100
AcDbPolyline
 90
        2
 70
     0
 43
0.0001332181640625
 10
-0.445153970043549
 20
-0.057337631286007
 10
-0.5051021438716728
 20
-0.0473462689813218
  0
LWPOLYLINE
  5
310
330
18
100
AcDbEntity
  8
TEXT
100
AcDbPolyline
 90
        5
 70
     0
 43
0.0001332181640625
 10
-0.491780327465424
 20
-0.0473462689813218
 10
-0.5051021438716728
 20
-0.0473462689813218
 10
-0.5051021438716728
 20
-0.0839812640985081
 10
-0.5417371389888626
 20
-0.0839812640985081
 10
-0.5417371389888626
 20
-0.0973030805047586
  0
ARC
  5
311
330
18
100
AcDbEntity
  8
TEXT
100
AcDbCircle
 10
-0.1483962003830221
 20
0.0136842019237875
 30
0.0
 40
0.017902360805315
100
AcDbArc
 50
90.0
 51
270.0
  0
LINE
  5
312
330
18
100
AcDbEntity
  8
TEXT
100
AcDbLine
 10
-0.2357209899437755
 20
-0.1022527692692066
 30
0.0
 11
-0.2357209899437738
 21
-0.1706097756026459
 31
0.0
  0
TEXT
  5
313
330
18
100
AcDbEntity
  8
TEXT
100
AcDbText
 10
1.47100702671126
 20
-0.1709823939234418
 30
0.0
 40
0.0522247191011236
  1
Phone  1-800-328-2495
 41
1.272321428571429
 72
     5
 11
2.799939610980924
 21
-0.1709823939234418
 31
0.0
100
AcDbText
  0
TEXT
  5
314
330
18
100
AcDbEntity
  8
TEXT
100
AcDbText
 10
1.47100702671126
 20
-0.0777239669571497
 30
0.0
 40
0.0522247191011236
  1
Minneapolis, MN 55432-0008
 41
1.11444212721585
 72
     5
 11
2.799939610980924
 21
-0.0777239669571497
 31
0.0
100
AcDbText
  0
LINE
  5
315
330
18
100
AcDbEntity
  8
TEXT
100
AcDbLine
 10
1.025435367413003
 20
0.0315865627290997
 30
0.0
 11
1.102083348705559
 21
0.0315865627290997
 31
0.0
  0
LINE
  5
316
330
18
100
AcDbEntity
  8
TEXT
100
AcDbLine
 10
0.4673922097823287
 20
0.0315865627290997
 30
0.0
 11
0.5172274896054781
 21
0.0315865627290997
 31
0.0
  0
ARC
  5
317
330
18
100
AcDbEntity
  8
TEXT
100
AcDbCircle
 10
0.1689263175119251
 20
-0.1310620533289502
 30
0.0
 40
0.0392772371940762
100
AcDbArc
 50
270.1604552698595
 51
330.0831797321295
  0
ARC
  5
318
330
18
100
AcDbEntity
  8
TEXT
100
AcDbCircle
 10
0.0786254716197004
 20
-0.1108173842645961
 30
0.0
 40
0.0601160179737537
100
AcDbArc
 50
180.0000000000003
 51
264.0521544866073
  0
LINE
  5
319
330
18
100
AcDbEntity
  8
TEXT
100
AcDbLine
 10
0.0185094536459474
 20
0.0315865627290997
 30
0.0
 11
0.0185094536459474
 21
-0.1108173842645961
 31
0.0
  0
ARC
  5
31A
330
18
100
AcDbEntity
  8
TEXT
100
AcDbCircle
 10
-0.0778556902324414
 20
-0.0852822153881725
 30
0.0
 40
0.0169705538810321
100
AcDbArc
 50
270.0
 51
90.0
  0
ARC
  5
31B
330
18
100
AcDbEntity
  8
TEXT
100
AcDbCircle
 10
-0.0827960641387211
 20
-0.0874139672420889
 30
0.0
 40
0.0831958083605586
100
AcDbArc
 50
270.0
 51
90.0
  0
LWPOLYLINE
  5
31C
330
18
100
AcDbEntity
  8
TEXT
100
AcDbPolyline
 90
        6
 70
     1
 43
0.0
 10
0.1149198647012035
 20
0.0315865627290997
 10
0.0846032704809954
 20
0.0315865627290997
 10
0.0846032704809954
 20
-0.0915244353257947
 42
0.407328721240804
 10
0.0961469216424718
 20
-0.1033433500021808
 10
0.1567686206872025
 20
-0.1033433500021808
 10
0.1742339610945205
 20
-0.0705311209587016
  0
LINE
  5
31D
330
18
100
AcDbEntity
  8
TEXT
100
AcDbLine
 10
0.072396061126053
 20
-0.1706097756026459
 30
0.0
 11
0.1690363122010474
 21
-0.1703391365043636
 31
0.0
  0
LWPOLYLINE
  5
31E
330
18
100
AcDbEntity
  8
TEXT
100
AcDbPolyline
 90
        2
 70
     0
 43
0.0
 10
0.3002695835175828
 20
-0.1190584333877176
 42
0.3318488747599744
 10
0.3693888760828958
 20
-0.1706097756026459
 42
-6.868794160588311
  0
LINE
  5
31F
330
18
100
AcDbEntity
  8
TEXT
100
AcDbLine
 10
0.3002695835175828
 20
0.0136989414376352
 30
0.0
 11
0.3002695835175828
 21
-0.1190584333877211
 31
0.0
  0
LINE
  5
320
330
18
100
AcDbEntity
  8
TEXT
100
AcDbLine
 10
0.2029698774241382
 20
-0.150651269497633
 30
0.0
 11
0.3002695835175828
 21
0.0136989414376352
 31
0.0
  0
ARC
  5
321
330
18
100
AcDbEntity
  8
TEXT
100
AcDbCircle
 10
0.3835675198397581
 20
-0.0896191431031177
 30
0.0
 40
0.0153818062434269
100
AcDbArc
 50
174.7883570302258
 51
270.0
  0
LINE
  5
322
330
18
100
AcDbEntity
  8
TEXT
100
AcDbLine
 10
0.4005611567243613
 20
-0.1050009493465431
 30
0.0
 11
0.3835675198397581
 21
-0.1050009493465431
 31
0.0
  0
LINE
  5
323
330
18
100
AcDbEntity
  8
TEXT
100
AcDbLine
 10
0.3693888760828941
 20
-0.1706097756026459
 30
0.0
 11
0.4673922097823287
 21
-0.1706097756026459
 31
0.0
  0
LINE
  5
324
330
18
100
AcDbEntity
  8
TEXT
100
AcDbLine
 10
0.4673922097823287
 20
-0.1706097756026459
 30
0.0
 11
0.4673922097823287
 21
0.0315865627290997
 31
0.0
  0
LINE
  5
325
330
18
100
AcDbEntity
  8
TEXT
100
AcDbLine
 10
0.8302437637704507
 20
0.0315865627290997
 30
0.0
 11
0.7230374903831596
 21
0.0315865627290997
 31
0.0
  0
LINE
  5
326
330
18
100
AcDbEntity
  8
TEXT
100
AcDbLine
 10
0.7837568492911871
 20
-0.0056884107330326
 30
0.0
 11
0.866044839074572
 21
-0.0056884107330326
 31
0.0
  0
LWPOLYLINE
  5
327
330
18
100
AcDbEntity
  8
TEXT
100
AcDbPolyline
 90
        4
 70
     1
 43
0.0
 10
0.8789758803574709
 20
-0.0676457976186207
 10
0.7903155616976126
 20
-0.0676457976186207
 42
0.9999999999999998
 10
0.7903155616976126
 20
-0.1100443381224814
 10
0.8789758803574709
 20
-0.1100443381224814
 42
1.0
  0
LWPOLYLINE
  5
328
330
18
100
AcDbEntity
  8
TEXT
100
AcDbPolyline
 90
        2
 70
     0
 43
0.0
 10
0.7650809277959869
 20
-0.1706097756026459
 10
0.8990983454273635
 20
-0.1706097756026459
 42
0.9999999999999998
  0
LINE
  5
329
330
18
100
AcDbEntity
  8
TEXT
100
AcDbLine
 10
0.5918393255534298
 20
0.0315865627290997
 30
0.0
 11
0.6459729224743818
 21
0.0315865627290997
 31
0.0
  0
LINE
  5
32A
330
18
100
AcDbEntity
  8
TEXT
100
AcDbLine
 10
0.5247812787715916
 20
-0.1706097756026459
 30
0.0
 11
0.5918393255534298
 21
-0.1706097756026459
 31
0.0
  0
LINE
  5
32B
330
18
100
AcDbEntity
  8
TEXT
100
AcDbLine
 10
0.5918393255534298
 20
-0.1706097756026459
 30
0.0
 11
0.5918393255534298
 21
0.0315865627290997
 31
0.0
  0
LINE
  5
32C
330
18
100
AcDbEntity
  8
TEXT
100
AcDbLine
 10
0.5247812787715916
 20
0.0240327735629897
 30
0.0
 11
0.5247812787715916
 21
-0.1706097756026459
 31
0.0
  0
LWPOLYLINE
  5
32D
330
18
100
AcDbEntity
  8
TEXT
100
AcDbPolyline
 90
        2
 70
     0
 43
0.0
 10
0.5172274896054763
 20
0.0315865627290997
 42
-0.4142135623731017
 10
0.5247812787715898
 20
0.0240327735629897
 42
-0.9999999999999998
  0
LINE
  5
32E
330
18
100
AcDbEntity
  8
TEXT
100
AcDbLine
 10
0.7230374903831596
 20
0.0315865627290997
 30
0.0
 11
0.7230374903831596
 21
-0.043465843345107
 31
0.0
  0
ARC
  5
32F
330
18
100
AcDbEntity
  8
TEXT
100
AcDbCircle
 10
0.7837568492911871
 20
-0.0733739918771512
 30
0.0
 40
0.0676855811441166
100
AcDbArc
 50
90.0
 51
153.7768192527749
  0
LWPOLYLINE
  5
330
330
18
100
AcDbEntity
  8
TEXT
100
AcDbPolyline
 90
        2
 70
     0
 43
0.0
 10
0.7220049949283514
 20
-0.1271188306522077
 42
0.2901071551932823
 10
0.7650809277959869
 20
-0.1706097756026459
 42
5.328517124445801
  0
LWPOLYLINE
  5
331
330
18
100
AcDbEntity
  8
TEXT
100
AcDbPolyline
 90
        2
 70
     0
 43
0.0
 10
0.64597292247438
 20
0.0315865627290997
 42
-0.4142135623731017
 10
0.6535267116404935
 20
0.0240327735629897
 42
-0.9999999999999998
  0
LWPOLYLINE
  5
332
330
18
100
AcDbEntity
  8
TEXT
100
AcDbPolyline
 90
        4
 70
     0
 43
0.0
 10
0.6535267116404935
 20
0.0240327735629897
 10
0.6535267116404935
 20
-0.1706097756026459
 10
0.7220049949283514
 20
-0.1706097756026459
 10
0.7220049949283514
 20
-0.1271188306522077
 42
-1.714843617202739
  0
LWPOLYLINE
  5
333
330
18
100
AcDbEntity
  8
TEXT
100
AcDbPolyline
 90
        2
 70
     0
 43
0.0
 10
0.9421742782950079
 20
-0.1271188306522077
 42
-0.2901071551932486
 10
0.8990983454273635
 20
-0.1706097756026459
 42
-5.328517124445184
  0
LWPOLYLINE
  5
334
330
18
100
AcDbEntity
  8
TEXT
100
AcDbPolyline
 90
        2
 70
     0
 43
0.0
 10
0.9421742782950079
 20
-0.1706097756026459
 10
1.000529492130342
 20
-0.1706097756026459
  0
LWPOLYLINE
  5
335
330
18
100
AcDbEntity
  8
TEXT
100
AcDbPolyline
 90
        2
 70
     0
 43
0.0
 10
0.9421742782950079
 20
-0.1271188306522077
 10
0.9421742782950079
 20
-0.1706097756026459
  0
LINE
  5
336
330
18
100
AcDbEntity
  8
TEXT
100
AcDbLine
 10
0.866044839074572
 20
-0.0056884107330326
 30
0.0
 11
0.8557800786610059
 21
0.0155621288396617
 31
0.0
  0
LINE
  5
337
330
18
100
AcDbEntity
  8
TEXT
100
AcDbLine
 10
1.000529492130343
 20
-0.1706097756026459
 30
0.0
 11
1.000529492130336
 21
0.0066807298288225
 31
0.0
  0
LINE
  5
338
330
18
100
AcDbEntity
  8
TEXT
100
AcDbLine
 10
1.318943438611857
 20
-0.1706097756026459
 30
0.0
 11
1.223451215248246
 21
-0.0140299855551085
 31
0.0
  0
LINE
  5
339
330
18
100
AcDbEntity
  8
TEXT
100
AcDbLine
 10
1.242365066235649
 20
-0.1706097756026459
 30
0.0
 11
1.318943438611857
 21
-0.1706097756026459
 31
0.0
  0
LINE
  5
33A
330
18
100
AcDbEntity
  8
TEXT
100
AcDbLine
 10
1.102083348705566
 20
-0.1706097756026459
 30
0.0
 11
1.166461533024186
 21
-0.1706097756026459
 31
0.0
  0
LINE
  5
33B
330
18
100
AcDbEntity
  8
TEXT
100
AcDbLine
 10
1.102083348705559
 20
0.0315865627290997
 30
0.0
 11
1.102083348705566
 21
-0.1706097756026459
 31
0.0
  0
LINE
  5
33C
330
18
100
AcDbEntity
  8
TEXT
100
AcDbLine
 10
1.166461533024186
 20
-0.0390302071264657
 30
0.0
 11
1.242365066235649
 21
-0.1706097756026459
 31
0.0
  0
LINE
  5
33D
330
18
100
AcDbEntity
  8
TEXT
100
AcDbLine
 10
1.166461533024186
 20
-0.1706097756026459
 30
0.0
 11
1.166461533024186
 21
-0.0390302071264657
 31
0.0
  0
LINE
  5
33E
330
18
100
AcDbEntity
  8
TEXT
100
AcDbLine
 10
0.0220982224012403
 20
0.0958632573858651
 30
0.0
 11
-0.1536335304972702
 21
0.0958632573858651
 31
0.0
  0
LWPOLYLINE
  5
33F
330
18
100
AcDbEntity
  8
TEXT
100
AcDbPolyline
 90
        2
 70
     0
 43
0.0006660908203125
 10
-0.5717112259029254
 20
0.0692196245733676
 10
-0.5717112259029254
 20
0.0958632573858687
  0
LWPOLYLINE
  5
340
330
18
100
AcDbEntity
  8
TEXT
100
AcDbPolyline
 90
        2
 70
     0
 43
0.0006660908203125
 10
-0.5317457766841738
 20
0.0692196245733676
 10
-0.5317457766841738
 20
0.0958632573858687
  0
TEXT
  5
341
330
18
100
AcDbEntity
  8
TEXT
100
AcDbText
 10
1.47100702671126
 20
0.1087928869754346
 30
0.0
 40
0.0522247191011236
  1
Stylmark  Incorporated
 41
1.221428571428571
 72
     5
 11
2.799939610980924
 21
0.1087928869754346
 31
0.0
100
AcDbText
  0
LINE
  5
342
330
18
100
AcDbEntity
  8
TEXT
100
AcDbLine
 10
1.097603461379058
 20
0.0958632573858651
 30
0.0
 11
1.030103743729544
 21
0.0958632573858651
 31
0.0
  0
TEXT
  5
343
330
18
100
AcDbEntity
  8
TEXT
100
AcDbText
 10
0.3047256779847482
 20
0.2759402487489337
 30
0.0
 40
0.125
  1
PART #110478
  7
ITALICC
 72
     1
 11
1.057701868460938
 21
0.2759402487489337
 31
0.0
100
AcDbText
  0
LINE
  5
344
330
18
100
AcDbEntity
  8
TEXT
100
AcDbLine
 10
0.5345792126554976
 20
0.0958632573858651
 30
0.0
 11
0.4005611567243613
 21
0.0958632573858651
 31
0.0
  0
LINE
  5
345
330
18
100
AcDbEntity
  8
TEXT
100
AcDbLine
 10
0.0821408272452473
 20
0.1302511749800033
 30
0.0
 11
0.0220982224012403
 21
0.1302511749800033
 31
0.0
  0
LINE
  5
346
330
18
100
AcDbEntity
  8
TEXT
100
AcDbLine
 10
0.0220982224012403
 20
0.1302511749800033
 30
0.0
 11
0.0220982224012403
 21
0.0958632573858651
 31
0.0
  0
LINE
  5
347
330
18
100
AcDbEntity
  8
TEXT
100
AcDbLine
 10
0.1539397933891564
 20
0.0958632573858651
 30
0.0
 11
0.0821408272452473
 21
0.0958632573858651
 31
0.0
  0
LINE
  5
348
330
18
100
AcDbEntity
  8
TEXT
100
AcDbLine
 10
0.0821408272452473
 20
0.0958632573858651
 30
0.0
 11
0.0821408272452473
 21
0.1302511749800033
 31
0.0
  0
LINE
  5
349
330
18
100
AcDbEntity
  8
TEXT
100
AcDbLine
 10
0.3682493025867011
 20
0.1638747351246756
 30
0.0
 11
0.3014405900203343
 21
0.1638747351246756
 31
0.0
  0
LINE
  5
34A
330
18
100
AcDbEntity
  8
TEXT
100
AcDbLine
 10
0.3014405900203343
 20
0.0958632573858651
 30
0.0
 11
0.271318677226958
 21
0.0958632573858651
 31
0.0
  0
LINE
  5
34B
330
18
100
AcDbEntity
  8
TEXT
100
AcDbLine
 10
0.3014405900203343
 20
0.1638747351246756
 30
0.0
 11
0.3014405900203343
 21
0.0958632573858651
 31
0.0
  0
LINE
  5
34C
330
18
100
AcDbEntity
  8
TEXT
100
AcDbLine
 10
0.8592746621149274
 20
0.0958632573858651
 30
0.0
 11
0.7244427528978683
 21
0.0958632573858651
 31
0.0
  0
LWPOLYLINE
  5
34D
330
18
100
AcDbEntity
  8
TEXT
100
AcDbPolyline
 90
        3
 70
     0
 43
0.0
 10
0.6886610621847034
 20
0.0958632573858687
 10
0.570360903368659
 20
0.0958632573858687
 10
0.570360903368659
 20
0.0686957606249727
 42
-1.960274751411753
  0
LWPOLYLINE
  5
34E
330
18
100
AcDbEntity
  8
TEXT
100
AcDbPolyline
 90
        2
 70
     0
 43
0.0
 10
0.5345792126554976
 20
0.0958632573858687
 42
-0.3328679258950098
 10
0.570360903368659
 20
0.0686957606249727
 42
6.772930709997214
  0
LINE
  5
34F
330
18
100
AcDbEntity
  8
TEXT
100
AcDbLine
 10
0.7244427528978683
 20
0.0958632573858651
 30
0.0
 11
0.7244427528978683
 21
0.0675407116162212
 31
0.0
  0
LWPOLYLINE
  5
350
330
18
100
AcDbEntity
  8
TEXT
100
AcDbPolyline
 90
        2
 70
     0
 43
0.0
 10
0.6886610621847034
 20
0.0958632573858687
 42
-0.3277054968067132
 10
0.7244427528978683
 20
0.0675407116162248
 42
6.667889725900311
  0
LINE
  5
351
330
18
100
AcDbEntity
  8
TEXT
100
AcDbLine
 10
1.002131507289469
 20
0.0958632573858651
 30
0.0
 11
0.9382346009899684
 21
0.0958632573858651
 31
0.0
  0
ARC
  5
352
330
18
100
AcDbEntity
  8
TEXT
100
AcDbCircle
 10
0.8572477223378598
 20
0.0542796902649627
 30
0.0
 40
0.0416329381542859
100
AcDbArc
 50
26.56974201007528
 51
87.20939649401342
  0
LINE
  5
353
330
18
100
AcDbEntity
  8
TEXT
100
AcDbLine
 10
1.002131507289469
 20
0.0683156075249905
 30
0.0
 11
1.002131507289469
 21
0.0958632573858651
 31
0.0
  0
ARC
  5
354
330
18
100
AcDbEntity
  8
TEXT
100
AcDbCircle
 10
1.033324324352578
 20
0.0646175301036003
 30
0.0
 40
0.0314112657011332
100
AcDbArc
 50
95.88484768694724
 51
173.2388340632136
  0
LINE
  5
355
330
18
100
AcDbEntity
  8
TEXT
100
AcDbLine
 10
1.288008331213951
 20
0.0958632573858651
 30
0.0
 11
1.213016498484325
 21
0.0958632573858651
 31
0.0
  0
LINE
  5
356
330
18
100
AcDbEntity
  8
TEXT
100
AcDbLine
 10
1.097603461379065
 20
0.1613274631534658
 30
0.0
 11
1.097603461379058
 21
0.0958632573858651
 31
0.0
  0
LINE
  5
357
330
18
100
AcDbEntity
  8
TEXT
100
AcDbLine
 10
1.165918339928339
 20
0.1613274631534658
 30
0.0
 11
1.097603461379065
 21
0.1613274631534658
 31
0.0
  0
ENDSEC
  0
SECTION
  2
OBJECTS
  0
DICTIONARY
  5
C
330
0
100
AcDbDictionary
  3
ACAD_GROUP
350
D
  3
ACAD_LAYOUT
350
35D
  3
ACAD_MLINESTYLE
350
E
  3
ACAD_PLOTSETTINGS
350
35E
  3
ACAD_PLOTSTYLENAME
350
35B
  3
ACDBHEADERROUNDTRIPXREC
350
369
  3
ACDBVARIABLEDICTIONARY
350
366
  0
DICTIONARY
  5
38B
330
18
100
AcDbDictionary
280
     1
  3
ACAD_LAYOUTSELFREF
360
38C
  0
DICTIONARY
  5
389
330
15
100
AcDbDictionary
280
     1
  3
ACAD_LAYOUTSELFREF
360
38A
  0
DICTIONARY
  5
D
102
{ACAD_REACTORS
330
C
102
}
330
C
100
AcDbDictionary
  0
DICTIONARY
  5
35D
102
{ACAD_REACTORS
330
C
102
}
330
C
100
AcDbDictionary
  0
DICTIONARY
  5
E
102
{ACAD_REACTORS
330
C
102
}
330
C
100
AcDbDictionary
  3
STANDARD
350
1B
  0
DICTIONARY
  5
35E
102
{ACAD_REACTORS
330
C
102
}
330
C
100
AcDbDictionary
  0
ACDBDICTIONARYWDFLT
  5
35B
102
{ACAD_REACTORS
330
C
102
}
330
C
100
AcDbDictionary
281
     1
  3
Normal
350
35C
100
AcDbDictionaryWithDefault
340
35C
  0
DICTIONARY
  5
369
102
{ACAD_REACTORS
330
C
102
}
330
C
100
AcDbDictionary
  3
CEPSNTYPE
350
373
  3
FINGERPRINTGUID
350
374
  3
HYPERLINKBASE
350
36C
  3
INSUNITS
350
372
  3
LAYOUTDICT
350
36E
  3
LWETCUNION
350
371
  3
PLOTSETDICT
350
36F
  3
PLOTSTYLNAMDICT
350
370
  3
PSVPSCALE
350
376
  3
PUCSBASE
350
379
  3
PUCSORGBACK
350
37F
  3
PUCSORGBOTTOM
350
37B
  3
PUCSORGFRONT
350
37E
  3
PUCSORGLEFT
350
37C
  3
PUCSORGRIGHT
350
37D
  3
PUCSORGTOP
350
37A
  3
PUCSORTHOREF
350
377
  3
PUCSORTHOVIEW
350
378
  3
STYLESHEET
350
36D
  3
TSTACKALIGN
350
36A
  3
TSTACKSIZE
350
36B
  3
UCSBASE
350
382
  3
UCSORGBACK
350
388
  3
UCSORGBOTTOM
350
384
  3
UCSORGFRONT
350
387
  3
UCSORGLEFT
350
385
  3
UCSORGRIGHT
350
386
  3
UCSORGTOP
350
383
  3
UCSORTHOREF
350
380
  3
UCSORTHOVIEW
350
381
  3
VERSIONGUID
350
375
  0
DICTIONARY
  5
366
102
{ACAD_REACTORS
330
C
102
}
330
C
100
AcDbDictionary
  3
DIMASSOC
350
367
  0
XRECORD
  5
38C
102
{ACAD_REACTORS
330
38B
102
}
330
38B
100
AcDbXrecord
340
18
  0
XRECORD
  5
38A
102
{ACAD_REACTORS
330
389
102
}
330
389
100
AcDbXrecord
340
15
  0
MLINESTYLE
  5
1B
102
{ACAD_REACTORS
330
E
102
}
330
E
100
AcDbMlineStyle
  2
STANDARD
 70
     0
  3

 62
     0
 51
90.0
 52
90.0
 71
     2
 49
0.5
 62
   256
  6
BYLAYER
 49
-0.5
 62
   256
  6
BYLAYER
  0
ACDBPLACEHOLDER
  5
35C
102
{ACAD_REACTORS
330
35B
102
}
330
35B
100
AcDbPlaceHolder
280
     0
  0
XRECORD
  5
373
102
{ACAD_REACTORS
330
369
102
}
330
369
100
AcDbXrecord
 90
        0
  0
XRECORD
  5
374
102
{ACAD_REACTORS
330
369
102
}
330
369
100
AcDbXrecord
  1
{B6869070-8DB7-11D6-88E6-0090279574E7}
  0
XRECORD
  5
36C
102
{ACAD_REACTORS
330
369
102
}
330
369
100
AcDbXrecord
  1

  0
XRECORD
  5
372
102
{ACAD_REACTORS
330
369
102
}
330
369
100
AcDbXrecord
 90
        0
  0
XRECORD
  5
36E
102
{ACAD_REACTORS
330
369
102
}
330
369
100
AcDbXrecord
340
35D
  0
XRECORD
  5
371
102
{ACAD_REACTORS
330
369
102
}
330
369
100
AcDbXrecord
 90
    14877
  0
XRECORD
  5
36F
102
{ACAD_REACTORS
330
369
102
}
330
369
100
AcDbXrecord
340
35E
  0
XRECORD
  5
370
102
{ACAD_REACTORS
330
369
102
}
330
369
100
AcDbXrecord
340
35B
  0
XRECORD
  5
376
102
{ACAD_REACTORS
330
369
102
}
330
369
100
AcDbXrecord
 40
0.0
  0
XRECORD
  5
379
102
{ACAD_REACTORS
330
369
102
}
330
369
100
AcDbXrecord
340
0
  0
XRECORD
  5
37F
102
{ACAD_REACTORS
330
369
102
}
330
369
100
AcDbXrecord
 10
0.0
 20
0.0
 30
0.0
  0
XRECORD
  5
37B
102
{ACAD_REACTORS
330
369
102
}
330
369
100
AcDbXrecord
 10
0.0
 20
0.0
 30
0.0
  0
XRECORD
  5
37E
102
{ACAD_REACTORS
330
369
102
}
330
369
100
AcDbXrecord
 10
0.0
 20
0.0
 30
0.0
  0
XRECORD
  5
37C
102
{ACAD_REACTORS
330
369
102
}
330
369
100
AcDbXrecord
 10
0.0
 20
0.0
 30
0.0
  0
XRECORD
  5
37D
102
{ACAD_REACTORS
330
369
102
}
330
369
100
AcDbXrecord
 10
0.0
 20
0.0
 30
0.0
  0
XRECORD
  5
37A
102
{ACAD_REACTORS
330
369
102
}
330
369
100
AcDbXrecord
 10
0.0
 20
0.0
 30
0.0
  0
XRECORD
  5
377
102
{ACAD_REACTORS
330
369
102
}
330
369
100
AcDbXrecord
340
0
  0
XRECORD
  5
378
102
{ACAD_REACTORS
330
369
102
}
330
369
100
AcDbXrecord
 70
     0
  0
XRECORD
  5
36D
102
{ACAD_REACTORS
330
369
102
}
330
369
100
AcDbXrecord
  1

  0
XRECORD
  5
36A
102
{ACAD_REACTORS
330
369
102
}
330
369
100
AcDbXrecord
 90
        1
  0
XRECORD
  5
36B
102
{ACAD_REACTORS
330
369
102
}
330
369
100
AcDbXrecord
 90
       70
  0
XRECORD
  5
382
102
{ACAD_REACTORS
330
369
102
}
330
369
100
AcDbXrecord
340
0
  0
XRECORD
  5
388
102
{ACAD_REACTORS
330
369
102
}
330
369
100
AcDbXrecord
 10
0.0
 20
0.0
 30
0.0
  0
XRECORD
  5
384
102
{ACAD_REACTORS
330
369
102
}
330
369
100
AcDbXrecord
 10
0.0
 20
0.0
 30
0.0
  0
XRECORD
  5
387
102
{ACAD_REACTORS
330
369
102
}
330
369
100
AcDbXrecord
 10
0.0
 20
0.0
 30
0.0
  0
XRECORD
  5
385
102
{ACAD_REACTORS
330
369
102
}
330
369
100
AcDbXrecord
 10
0.0
 20
0.0
 30
0.0
  0
XRECORD
  5
386
102
{ACAD_REACTORS
330
369
102
}
330
369
100
AcDbXrecord
 10
0.0
 20
0.0
 30
0.0
  0
XRECORD
  5
383
102
{ACAD_REACTORS
330
369
102
}
330
369
100
AcDbXrecord
 10
0.0
 20
0.0
 30
0.0
  0
XRECORD
  5
380
102
{ACAD_REACTORS
330
369
102
}
330
369
100
AcDbXrecord
340
0
  0
XRECORD
  5
381
102
{ACAD_REACTORS
330
369
102
}
330
369
100
AcDbXrecord
 70
     0
  0
XRECORD
  5
375
102
{ACAD_REACTORS
330
369
102
}
330
369
100
AcDbXrecord
  1
{B6869072-8DB7-11D6-88E6-0090279574E7}
  0
DICTIONARYVAR
  5
367
102
{ACAD_REACTORS
330
366
102
}
330
366
100
DictionaryVariables
280
     0
  1
1
  0
ENDSEC
  0
EOF
