  0
SECTION
  2
HEADER
  9
$ACADVER
  1
AC1014
  9
$ACADMAINTVER
 70
     9
  9
$DWGCODEPAGE
  3
ANSI_1252
  9
$INSBASE
 10
0.0
 20
0.0
 30
0.0
  9
$EXTMIN
 10
0.0190055164875662
 20
0.8946131468140727
 30
0.0
  9
$EXTMAX
 10
3.504224838234694
 20
2.970021138989376
 30
0.0
  9
$LIMMIN
 10
0.0
 20
0.0
  9
$LIMMAX
 10
18.0
 20
12.0
  9
$ORTHOMODE
 70
     0
  9
$REGENMODE
 70
     1
  9
$FILLMODE
 70
     1
  9
$QTEXTMODE
 70
     0
  9
$MIRRTEXT
 70
     0
  9
$DRAGMODE
 70
     2
  9
$LTSCALE
 40
1.0
  9
$OSMODE
 70
    39
  9
$ATTMODE
 70
     1
  9
$TEXTSIZE
 40
0.125
  9
$TRACEWID
 40
0.05
  9
$TEXTSTYLE
  7
ROMANS
  9
$CLAYER
  8
0
  9
$CELTYPE
  6
BYLAYER
  9
$CECOLOR
 62
   256
  9
$CELTSCALE
 40
1.0
  9
$DELOBJ
 70
     1
  9
$DISPSILH
 70
     1
  9
$DIMSCALE
 40
1.0
  9
$DIMASZ
 40
0.125
  9
$DIMEXO
 40
0.125
  9
$DIMDLI
 40
0.375
  9
$DIMRND
 40
0.0
  9
$DIMDLE
 40
0.0
  9
$DIMEXE
 40
0.125
  9
$DIMTP
 40
0.0
  9
$DIMTM
 40
2.0
  9
$DIMTXT
 40
0.125
  9
$DIMCEN
 40
-0.125
  9
$DIMTSZ
 40
0.0
  9
$DIMTOL
 70
     0
  9
$DIMLIM
 70
     0
  9
$DIMTIH
 70
     1
  9
$DIMTOH
 70
     1
  9
$DIMSE1
 70
     0
  9
$DIMSE2
 70
     0
  9
$DIMTAD
 70
     0
  9
$DIMZIN
 70
     4
  9
$DIMBLK
  1

  9
$DIMASO
 70
     1
  9
$DIMSHO
 70
     1
  9
$DIMPOST
  1

  9
$DIMAPOST
  1

  9
$DIMALT
 70
     0
  9
$DIMALTD
 70
     2
  9
$DIMALTF
 40
25.4
  9
$DIMLFAC
 40
0.5
  9
$DIMTOFL
 70
     0
  9
$DIMTVP
 40
0.0
  9
$DIMTIX
 70
     0
  9
$DIMSOXD
 70
     0
  9
$DIMSAH
 70
     0
  9
$DIMBLK1
  1

  9
$DIMBLK2
  1

  9
$DIMSTYLE
  2
STANDARD
  9
$DIMCLRD
 70
     0
  9
$DIMCLRE
 70
     0
  9
$DIMCLRT
 70
     0
  9
$DIMTFAC
 40
1.0
  9
$DIMGAP
 40
0.09
  9
$DIMJUST
 70
     0
  9
$DIMSD1
 70
     0
  9
$DIMSD2
 70
     0
  9
$DIMTOLJ
 70
     1
  9
$DIMTZIN
 70
     0
  9
$DIMALTZ
 70
     0
  9
$DIMALTTZ
 70
     0
  9
$DIMFIT
 70
     3
  9
$DIMUPT
 70
     0
  9
$DIMUNIT
 70
     2
  9
$DIMDEC
 70
     3
  9
$DIMTDEC
 70
     4
  9
$DIMALTU
 70
     2
  9
$DIMALTTD
 70
     2
  9
$DIMTXSTY
  7
ROMANS
  9
$DIMAUNIT
 70
     0
  9
$LUNITS
 70
     2
  9
$LUPREC
 70
     3
  9
$SKETCHINC
 40
0.1
  9
$FILLETRAD
 40
0.093
  9
$AUNITS
 70
     0
  9
$AUPREC
 70
     0
  9
$MENU
  1
acad
  9
$ELEVATION
 40
0.0
  9
$PELEVATION
 40
0.0
  9
$THICKNESS
 40
0.0
  9
$LIMCHECK
 70
     0
  9
$BLIPMODE
 70
     0
  9
$CHAMFERA
 40
0.045
  9
$CHAMFERB
 40
0.045
  9
$CHAMFERC
 40
0.0
  9
$CHAMFERD
 40
0.0
  9
$SKPOLY
 70
     0
  9
$TDCREATE
 40
2449091.563116550
  9
$TDUPDATE
 40
2452458.313872824
  9
$TDINDWG
 40
0.0016126273
  9
$TDUSRTIMER
 40
0.0016126273
  9
$USRTIMER
 70
     1
  9
$ANGBASE
 50
0.0
  9
$ANGDIR
 70
     0
  9
$PDMODE
 70
     0
  9
$PDSIZE
 40
0.0
  9
$PLINEWID
 40
0.0
  9
$COORDS
 70
     2
  9
$SPLFRAME
 70
     0
  9
$SPLINETYPE
 70
     6
  9
$SPLINESEGS
 70
     8
  9
$ATTDIA
 70
     0
  9
$ATTREQ
 70
     1
  9
$HANDLING
 70
 22529
  9
$HANDSEED
  5
3B7
  9
$SURFTAB1
 70
     6
  9
$SURFTAB2
 70
     6
  9
$SURFTYPE
 70
     6
  9
$SURFU
 70
     6
  9
$SURFV
 70
     6
  9
$UCSNAME
  2

  9
$UCSORG
 10
0.0
 20
0.0
 30
0.0
  9
$UCSXDIR
 10
1.0
 20
0.0
 30
0.0
  9
$UCSYDIR
 10
0.0
 20
1.0
 30
0.0
  9
$PUCSNAME
  2

  9
$PUCSORG
 10
0.0
 20
0.0
 30
0.0
  9
$PUCSXDIR
 10
1.0
 20
0.0
 30
0.0
  9
$PUCSYDIR
 10
0.0
 20
1.0
 30
0.0
  9
$USERI1
 70
     0
  9
$USERI2
 70
     0
  9
$USERI3
 70
     0
  9
$USERI4
 70
     0
  9
$USERI5
 70
     0
  9
$USERR1
 40
0.0
  9
$USERR2
 40
0.0
  9
$USERR3
 40
0.0
  9
$USERR4
 40
0.0
  9
$USERR5
 40
0.0
  9
$WORLDVIEW
 70
     1
  9
$SHADEDGE
 70
     3
  9
$SHADEDIF
 70
    70
  9
$TILEMODE
 70
     1
  9
$MAXACTVP
 70
    16
  9
$PINSBASE
 10
0.0
 20
0.0
 30
0.0
  9
$PLIMCHECK
 70
     0
  9
$PEXTMIN
 10
1.000000000000000E+20
 20
1.000000000000000E+20
 30
1.000000000000000E+20
  9
$PEXTMAX
 10
-1.000000000000000E+20
 20
-1.000000000000000E+20
 30
-1.000000000000000E+20
  9
$PLIMMIN
 10
0.0
 20
0.0
  9
$PLIMMAX
 10
12.0
 20
9.0
  9
$UNITMODE
 70
     0
  9
$VISRETAIN
 70
     0
  9
$PLINEGEN
 70
     1
  9
$PSLTSCALE
 70
     0
  9
$TREEDEPTH
 70
  3020
  9
$PICKSTYLE
 70
     1
  9
$CMLSTYLE
  2
STANDARD
  9
$CMLJUST
 70
     0
  9
$CMLSCALE
 40
1.0
  9
$PROXYGRAPHICS
 70
     1
  9
$MEASUREMENT
 70
     0
  0
ENDSEC
  0
SECTION
  2
CLASSES
  0
CLASS
  1
LWPOLYLINE
  2
AcDbPolyline
  3
AutoCAD 2000
 90
        0
280
     0
281
     1
  0
CLASS
  1
ACDBDICTIONARYWDFLT
  2
AcDbDictionaryWithDefault
  3
AutoCAD 2000
 90
        0
280
     0
281
     0
  0
CLASS
  1
ACDBPLACEHOLDER
  2
AcDbPlaceHolder
  3
AutoCAD 2000
 90
        0
280
     0
281
     0
  0
CLASS
  1
LAYOUT
  2
AcDbLayout
  3
AutoCAD 2000
 90
        0
280
     0
281
     0
  0
CLASS
  1
DICTIONARYVAR
  2
AcDbDictionaryVar
  3
AutoCAD 2000
 90
        0
280
     0
281
     0
  0
CLASS
  1
LONG_TRANSACTION
  2
AcDbLongTransaction
  3
AutoCAD 2000
 90
        0
280
     0
281
     0
  0
CLASS
  1
LWPOLYLINE
  2
AcDbPolyline
  3
AutoCAD 2000
 90
        0
280
     0
281
     1
  0
CLASS
  1
HATCH
  2
AcDbHatch
  3
AutoCAD 2000
 90
        0
280
     0
281
     1
  0
CLASS
  1
XRECORD
  2
AcDbXrecord
  3
AutoCAD 2000
 90
        0
280
     0
281
     0
  0
ENDSEC
  0
SECTION
  2
TABLES
  0
TABLE
  2
VPORT
  5
8
330
0
100
AcDbSymbolTable
 70
     2
  0
VPORT
  5
392
330
8
100
AcDbSymbolTableRecord
100
AcDbViewportTableRecord
  2
*ACTIVE
 70
     0
 10
0.0
 20
0.0
 11
1.0
 21
1.0
 12
4.684780311001553
 22
1.932402179489729
 13
0.0
 23
0.0
 14
0.2
 24
0.2
 15
0.25
 25
0.25
 16
0.0
 26
0.0
 36
1.0
 17
0.0
 27
0.0
 37
0.0
 40
2.164131440897961
 41
4.320930232558139
 42
50.0
 43
0.0
 44
0.0
 50
0.0
 51
0.0
 71
     0
 72
  2000
 73
     1
 74
     1
 75
     0
 76
     0
 77
     0
 78
     0
  0
ENDTAB
  0
TABLE
  2
LTYPE
  5
5
330
0
100
AcDbSymbolTable
 70
     1
  0
LTYPE
  5
12
330
5
100
AcDbSymbolTableRecord
100
AcDbLinetypeTableRecord
  2
BYBLOCK
 70
     0
  3

 72
    65
 73
     0
 40
0.0
  0
LTYPE
  5
13
330
5
100
AcDbSymbolTableRecord
100
AcDbLinetypeTableRecord
  2
BYLAYER
 70
     0
  3

 72
    65
 73
     0
 40
0.0
  0
LTYPE
  5
14
330
5
100
AcDbSymbolTableRecord
100
AcDbLinetypeTableRecord
  2
CONTINUOUS
 70
     0
  3
Solid line
 72
    65
 73
     0
 40
0.0
  0
ENDTAB
  0
TABLE
  2
LAYER
  5
2
330
0
100
AcDbSymbolTable
 70
     2
  0
LAYER
  5
F
330
2
100
AcDbSymbolTableRecord
100
AcDbLayerTableRecord
  2
0
 70
     0
 62
     7
  6
CONTINUOUS
  0
LAYER
  5
21
330
2
100
AcDbSymbolTableRecord
100
AcDbLayerTableRecord
  2
TEXT
 70
     0
 62
     3
  6
CONTINUOUS
  0
ENDTAB
  0
TABLE
  2
STYLE
  5
3
330
0
100
AcDbSymbolTable
 70
     3
  0
STYLE
  5
10
330
3
100
AcDbSymbolTableRecord
100
AcDbTextStyleTableRecord
  2
STANDARD
 70
     0
 40
0.0
 41
1.0
 50
0.0
 71
     0
 42
0.125
  3
txt
  4

  0
STYLE
  5
27E
330
3
100
AcDbSymbolTableRecord
100
AcDbTextStyleTableRecord
  2
ITALICC
 70
     0
 40
0.0
 41
1.0
 50
0.0
 71
     0
 42
0.125
  3
italicc
  4

  0
STYLE
  5
38E
330
3
100
AcDbSymbolTableRecord
100
AcDbTextStyleTableRecord
  2
ROMANS
 70
     0
 40
0.0
 41
1.0
 50
0.0
 71
     0
 42
0.125
  3
romans.shx
  4

  0
ENDTAB
  0
TABLE
  2
VIEW
  5
6
330
0
100
AcDbSymbolTable
 70
     0
  0
ENDTAB
  0
TABLE
  2
UCS
  5
7
330
0
100
AcDbSymbolTable
 70
     0
  0
ENDTAB
  0
TABLE
  2
APPID
  5
9
330
0
100
AcDbSymbolTable
 70
     1
  0
APPID
  5
11
330
9
100
AcDbSymbolTableRecord
100
AcDbRegAppTableRecord
  2
ACAD
 70
     0
  0
ENDTAB
  0
TABLE
  2
DIMSTYLE
  5
A
330
0
100
AcDbSymbolTable
 70
     1
  0
DIMSTYLE
105
274
330
A
100
AcDbSymbolTableRecord
100
AcDbDimStyleTableRecord
  2
STANDARD
 70
     0
  3

  4

  5

  6

  7

 40
1.0
 41
0.18
 42
0.0625
 43
0.38
 44
0.18
 45
0.0
 46
0.0
 47
0.0
 48
0.0
140
0.18
141
0.09
142
0.0
143
25.4
144
1.0
145
0.0
146
1.0
147
0.09
 71
     0
 72
     0
 73
     1
 74
     1
 75
     0
 76
     0
 77
     0
 78
     0
170
     0
171
     2
172
     0
173
     0
174
     0
175
     0
176
     0
177
     0
178
     0
270
     2
271
     4
272
     4
273
     2
274
     2
340
10
275
     0
280
     0
281
     0
282
     0
283
     1
284
     0
285
     0
286
     0
287
     3
288
     0
  0
ENDTAB
  0
TABLE
  2
BLOCK_RECORD
  5
1
330
0
100
AcDbSymbolTable
 70
     0
  0
BLOCK_RECORD
  5
18
102
{ACAD_XDICTIONARY
360
3B5
102
}
330
1
100
AcDbSymbolTableRecord
100
AcDbBlockTableRecord
  2
*MODEL_SPACE
  0
BLOCK_RECORD
  5
15
102
{ACAD_XDICTIONARY
360
3B3
102
}
330
1
100
AcDbSymbolTableRecord
100
AcDbBlockTableRecord
  2
*PAPER_SPACE
  0
ENDTAB
  0
ENDSEC
  0
SECTION
  2
BLOCKS
  0
BLOCK
  5
26
330
18
100
AcDbEntity
  8
0
100
AcDbBlockBegin
  2
*MODEL_SPACE
 70
     0
 10
0.0
 20
0.0
 30
0.0
  3
*MODEL_SPACE
  1

  0
ENDBLK
  5
27
330
18
100
AcDbEntity
  8
0
100
AcDbBlockEnd
  0
BLOCK
  5
24
330
15
100
AcDbEntity
 67
     1
  8
0
100
AcDbBlockBegin
  2
*PAPER_SPACE
 70
     0
 10
0.0
 20
0.0
 30
0.0
  3
*PAPER_SPACE
  1

  0
ENDBLK
  5
25
330
15
100
AcDbEntity
 67
     1
  8
0
100
AcDbBlockEnd
  0
ENDSEC
  0
SECTION
  2
ENTITIES
  0
LWPOLYLINE
  5
1B8
330
18
100
AcDbEntity
  8
0
100
AcDbPolyline
 90
       27
 70
     1
 43
0.0
 10
2.239663626044558
 20
2.525563589582218
 10
2.239663626044563
 20
1.91655731345906
 42
0.6681786379192988
 10
2.265270227762362
 20
1.90595071174126
 10
2.527228597202017
 20
2.167909081180921
 42
-0.7919029198056067
 10
2.57854638748553
 20
2.136150673296086
 10
2.540663626044563
 20
2.022952191037679
 10
2.460053452989297
 20
2.022952191037679
 10
2.285660054707096
 20
1.848558792755474
 42
0.6681786379192988
 10
2.296266656424895
 20
1.822952191037677
 10
2.450663626044564
 20
1.822952191037678
 42
-0.414213562373095
 10
2.465663626044563
 20
1.80795219103768
 10
2.465663626044564
 20
1.732952191037677
 10
2.149663626044564
 20
1.732952191037675
 10
2.149663626044561
 20
2.528563589582221
 10
1.354052227500016
 20
2.528563589582217
 10
1.354052227500016
 20
2.844563589582216
 10
1.429052227500016
 20
2.844563589582216
 42
-0.4142135623730951
 10
1.444052227500016
 20
2.829563589582216
 10
1.444052227500016
 20
2.675166619962547
 42
0.6681786379192988
 10
1.469658829217814
 20
2.664560018244749
 10
1.644052227500016
 20
2.838953416526951
 10
1.644052227500016
 20
2.919563589582217
 10
1.757250709758422
 20
2.957446351023186
 42
-0.7919029198056067
 10
1.789009117643259
 20
2.906128560739672
 10
1.527050748203601
 20
2.644170191300014
 42
0.6681786379192988
 10
1.537657349921399
 20
2.618563589582217
 10
2.146663626044558
 20
2.618563589582217
 42
-0.4142135623730925
  0
LINE
  5
304
330
18
100
AcDbEntity
  8
TEXT
100
AcDbLine
 10
1.870203567182109
 20
1.096689433122048
 30
0.0
 11
1.870203567182109
 21
1.238018965301186
 31
0.0
  0
LINE
  5
305
330
18
100
AcDbEntity
  8
TEXT
100
AcDbLine
 10
1.917301725738091
 20
1.172554759533586
 30
0.0
 11
1.870203567182109
 21
1.096689433122048
 31
0.0
  0
LINE
  5
306
330
18
100
AcDbEntity
  8
TEXT
100
AcDbLine
 10
1.927736442502016
 20
1.062661516592612
 30
0.0
 11
1.992293558467721
 21
1.172554759533586
 31
0.0
  0
TEXT
  5
307
330
18
100
AcDbEntity
  8
TEXT
100
AcDbText
 10
2.175292253965031
 20
1.092225962156863
 30
0.0
 40
0.0522247191011236
  1
6536 Main St. N.E. * P.O. Box 32008
 41
0.8388932496075355
 72
     5
 11
3.504224838234694
 21
1.092225962156863
 31
0.0
100
AcDbText
  0
ARC
  5
308
330
18
100
AcDbEntity
  8
TEXT
100
AcDbCircle
 10
1.729720594666771
 20
1.083372189594157
 30
0.0
 40
0.0249058752826653
100
AcDbArc
 50
89.99971217465335
 51
179.9999999999985
  0
LINE
  5
309
330
18
100
AcDbEntity
  8
TEXT
100
AcDbLine
 10
1.642519828243738
 20
1.067342780980158
 30
0.0
 11
1.598769057061836
 21
1.149593056976303
 31
0.0
  0
LINE
  5
30A
330
18
100
AcDbEntity
  8
TEXT
100
AcDbLine
 10
1.642519828243738
 20
1.172554759533586
 30
0.0
 11
1.642519828243738
 21
1.067342780980158
 31
0.0
  0
ARC
  5
30B
330
18
100
AcDbEntity
  8
TEXT
100
AcDbCircle
 10
1.534528991024219
 20
1.079918689876823
 30
0.0
 40
0.028359375
100
AcDbArc
 50
25.78218179591245
 51
90.0
  0
LINE
  5
30C
330
18
100
AcDbEntity
  8
TEXT
100
AcDbLine
 10
1.072534529840471
 20
0.9884695646480743
 30
0.0
 11
1.072534529840471
 21
1.240566237272396
 31
0.0
  0
LINE
  5
30D
330
18
100
AcDbEntity
  8
TEXT
100
AcDbLine
 10
1.104846383978131
 20
1.172554759533586
 30
0.0
 11
1.104846383978131
 21
0.9716905528011778
 31
0.0
  0
LINE
  5
30E
330
18
100
AcDbEntity
  8
TEXT
100
AcDbLine
 10
0.975603904480728
 20
1.172554759533586
 30
0.0
 11
0.9168553416748643
 21
1.071682763420465
 31
0.0
  0
LINE
  5
30F
330
18
100
AcDbEntity
  8
TEXT
100
AcDbLine
 10
0.9168553416748643
 20
1.071682763420465
 30
0.0
 11
0.8582250206429264
 21
1.172554759533586
 31
0.0
  0
ARC
  5
310
330
18
100
AcDbEntity
  8
TEXT
100
AcDbCircle
 10
0.5506516967564999
 20
1.090467300087084
 30
0.0
 40
0.0820874594465043
100
AcDbArc
 50
90.0
 51
270.0
  0
LWPOLYLINE
  5
311
330
18
100
AcDbEntity
  8
TEXT
100
AcDbPolyline
 90
        2
 70
     0
 43
0.0001332181640625
 10
0.1425653636555353
 20
1.09928476929921
 10
0.1325740013508447
 20
1.172554759533589
  0
LWPOLYLINE
  5
312
330
18
100
AcDbEntity
  8
TEXT
100
AcDbPolyline
 90
        2
 70
     0
 43
0.0001332181640625
 10
0.1325740013508447
 20
1.145911126721088
 10
0.1425653636555353
 20
1.085962952892963
  0
LWPOLYLINE
  5
313
330
18
100
AcDbEntity
  8
TEXT
100
AcDbPolyline
 90
        2
 70
     0
 43
0.0001332181640625
 10
0.1725394505695963
 20
1.145911126721088
 10
0.1625480882649075
 20
1.085962952892963
  0
LWPOLYLINE
  5
314
330
18
100
AcDbEntity
  8
TEXT
100
AcDbPolyline
 90
        2
 70
     0
 43
0.0001332181640625
 10
0.1725394505695963
 20
1.172554759533589
 10
0.1625480882649075
 20
1.09928476929921
  0
LWPOLYLINE
  5
315
330
18
100
AcDbEntity
  8
TEXT
100
AcDbPolyline
 90
        3
 70
     0
 43
0.0006660908203125
 10
0.2857748900227221
 20
1.059319320080462
 10
0.2857748900227221
 20
1.172554759533589
 10
0.1725394505695963
 20
1.172554759533589
  0
LWPOLYLINE
  5
316
330
18
100
AcDbEntity
  8
TEXT
100
AcDbPolyline
 90
        3
 70
     0
 43
0.0006660908203125
 10
0.2591312572102211
 20
1.059319320080462
 10
0.2591312572102211
 20
1.145911126721088
 10
0.1725394505695963
 20
1.145911126721088
  0
LWPOLYLINE
  5
317
330
18
100
AcDbEntity
  8
TEXT
100
AcDbPolyline
 90
        2
 70
     0
 43
0.0001332181640625
 10
0.2591312572102211
 20
1.145911126721088
 10
0.1991830833820973
 20
1.085962952892963
  0
LWPOLYLINE
  5
318
330
18
100
AcDbEntity
  8
TEXT
100
AcDbPolyline
 90
        2
 70
     0
 43
0.0001332181640625
 10
0.0459821947102199
 20
1.145911126721088
 10
0.1059303685383455
 20
1.085962952892963
  0
LWPOLYLINE
  5
319
330
18
100
AcDbEntity
  8
TEXT
100
AcDbPolyline
 90
        3
 70
     0
 43
0.0006660908203125
 10
0.1325740013508447
 20
1.172554759533589
 10
0.0193385618977224
 20
1.172554759533589
 10
0.0193385618977224
 20
1.059319320080462
  0
LWPOLYLINE
  5
31A
330
18
100
AcDbEntity
  8
TEXT
100
AcDbPolyline
 90
        3
 70
     0
 43
0.0006660908203125
 10
0.1325740013508447
 20
1.145911126721088
 10
0.0459821947102199
 20
1.145911126721088
 10
0.0459821947102199
 20
1.059319320080462
  0
LINE
  5
31B
330
18
100
AcDbEntity
  8
TEXT
100
AcDbLine
 10
0.621489163115049
 20
1.072473343266192
 30
0.0
 11
0.555889026870748
 21
1.072473343266192
 31
0.0
  0
LINE
  5
31C
330
18
100
AcDbEntity
  8
TEXT
100
AcDbLine
 10
0.5506516967564999
 20
1.008379840640579
 30
0.0
 11
0.6264295370213287
 21
1.008379840640579
 31
0.0
  0
LINE
  5
31D
330
18
100
AcDbEntity
  8
TEXT
100
AcDbLine
 10
0.4685642373099963
 20
0.9060817265450751
 30
0.0
 11
0.621489163115049
 21
0.9060817265450751
 31
0.0
  0
LINE
  5
31E
330
18
100
AcDbEntity
  8
TEXT
100
AcDbLine
 10
0.6264295370213287
 20
0.9744387328785144
 30
0.0
 11
0.4685642373099946
 21
0.9744387328785144
 31
0.0
  0
LINE
  5
31F
330
18
100
AcDbEntity
  8
TEXT
100
AcDbLine
 10
0.555889026870748
 20
1.10827806487682
 30
0.0
 11
0.7227946808997175
 21
1.10827806487682
 31
0.0
  0
LWPOLYLINE
  5
320
330
18
100
AcDbEntity
  8
TEXT
100
AcDbPolyline
 90
        2
 70
     0
 43
0.0006660908203125
 10
0.2591312572102211
 20
1.059319320080462
 10
0.2857748900227221
 20
1.059319320080462
  0
LWPOLYLINE
  5
321
330
18
100
AcDbEntity
  8
TEXT
100
AcDbPolyline
 90
        2
 70
     0
 43
0.0001332181640625
 10
0.2125048997883461
 20
1.049327957775773
 10
0.2857748900227221
 20
1.059319320080462
  0
LWPOLYLINE
  5
322
330
18
100
AcDbEntity
  8
TEXT
100
AcDbPolyline
 90
        2
 70
     0
 43
0.0006660908203125
 10
0.2591312572102211
 20
1.019353870861714
 10
0.2857748900227221
 20
1.019353870861714
  0
LWPOLYLINE
  5
323
330
18
100
AcDbEntity
  8
TEXT
100
AcDbPolyline
 90
        3
 70
     0
 43
0.0006660908203125
 10
0.1725394505695963
 20
0.9061184314085863
 10
0.2857748900227221
 20
0.9061184314085863
 10
0.2857748900227221
 20
1.019353870861714
  0
LWPOLYLINE
  5
324
330
18
100
AcDbEntity
  8
TEXT
100
AcDbPolyline
 90
        2
 70
     0
 43
0.0001332181640625
 10
0.2857748900227221
 20
1.019353870861714
 10
0.2125048997883461
 20
1.029345233166399
  0
LWPOLYLINE
  5
325
330
18
100
AcDbEntity
  8
TEXT
100
AcDbPolyline
 90
        3
 70
     0
 43
0.0006660908203125
 10
0.0193385618977224
 20
1.019353870861714
 10
0.0193385618977224
 20
0.9061184314085863
 10
0.1325740013508447
 20
0.9061184314085863
  0
LWPOLYLINE
  5
326
330
18
100
AcDbEntity
  8
TEXT
100
AcDbPolyline
 90
        3
 70
     0
 43
0.0006660908203125
 10
0.0459821947102199
 20
1.019353870861714
 10
0.0459821947102199
 20
0.9327620642210874
 10
0.1325740013508447
 20
0.9327620642210874
  0
LWPOLYLINE
  5
327
330
18
100
AcDbEntity
  8
TEXT
100
AcDbPolyline
 90
        5
 70
     0
 43
0.0001332181640625
 10
0.1425653636555353
 20
0.9793884216429624
 10
0.1425653636555353
 20
0.9927102380492129
 10
0.1059303685383472
 20
0.9927102380492129
 10
0.1059303685383472
 20
1.029345233166399
 10
0.0926085521320968
 20
1.029345233166399
  0
LWPOLYLINE
  5
328
330
18
100
AcDbEntity
  8
TEXT
100
AcDbPolyline
 90
        5
 70
     0
 43
0.0001332181640625
 10
0.0926085521320968
 20
1.049327957775773
 10
0.1059303685383455
 20
1.049327957775773
 10
0.1059303685383455
 20
1.085962952892963
 10
0.1425653636555353
 20
1.085962952892963
 10
0.1425653636555353
 20
1.09928476929921
  0
LWPOLYLINE
  5
329
330
18
100
AcDbEntity
  8
TEXT
100
AcDbPolyline
 90
        2
 70
     0
 43
0.0001332181640625
 10
0.0459821947102199
 20
1.059319320080462
 10
0.1059303685383455
 20
1.049327957775773
  0
LWPOLYLINE
  5
32A
330
18
100
AcDbEntity
  8
TEXT
100
AcDbPolyline
 90
        2
 70
     0
 43
0.0001332181640625
 10
0.0193385618977224
 20
1.059319320080462
 10
0.0926085521320968
 20
1.049327957775773
  0
LWPOLYLINE
  5
32B
330
18
100
AcDbEntity
  8
TEXT
100
AcDbPolyline
 90
        2
 70
     0
 43
0.0006660908203125
 10
0.0459821947102199
 20
1.059319320080462
 10
0.0193385618977224
 20
1.059319320080462
  0
LWPOLYLINE
  5
32C
330
18
100
AcDbEntity
  8
TEXT
100
AcDbPolyline
 90
        2
 70
     0
 43
0.0001332181640625
 10
0.0459821947102199
 20
0.9327620642210874
 10
0.1059303685383472
 20
0.9927102380492129
  0
LWPOLYLINE
  5
32D
330
18
100
AcDbEntity
  8
TEXT
100
AcDbPolyline
 90
        2
 70
     0
 43
0.0006660908203125
 10
0.0459821947102199
 20
1.019353870861714
 10
0.0193385618977224
 20
1.019353870861714
  0
LWPOLYLINE
  5
32E
330
18
100
AcDbEntity
  8
TEXT
100
AcDbPolyline
 90
        2
 70
     0
 43
0.0001332181640625
 10
0.0926085521320968
 20
1.029345233166399
 10
0.0193385618977224
 20
1.019353870861714
  0
LWPOLYLINE
  5
32F
330
18
100
AcDbEntity
  8
TEXT
100
AcDbPolyline
 90
        2
 70
     0
 43
0.0001332181640625
 10
0.0459821947102199
 20
1.019353870861714
 10
0.1059303685383472
 20
1.029345233166399
  0
LWPOLYLINE
  5
330
330
18
100
AcDbEntity
  8
TEXT
100
AcDbPolyline
 90
        5
 70
     0
 43
0.0001332181640625
 10
0.1625480882649075
 20
1.09928476929921
 10
0.1625480882649075
 20
1.085962952892963
 10
0.1991830833820973
 20
1.085962952892963
 10
0.1991830833820973
 20
1.049327957775773
 10
0.2125048997883461
 20
1.049327957775773
  0
LWPOLYLINE
  5
331
330
18
100
AcDbEntity
  8
TEXT
100
AcDbPolyline
 90
        2
 70
     0
 43
0.0001332181640625
 10
0.2591312572102211
 20
1.059319320080462
 10
0.1991830833820973
 20
1.049327957775773
  0
LWPOLYLINE
  5
332
330
18
100
AcDbEntity
  8
TEXT
100
AcDbPolyline
 90
        2
 70
     0
 43
0.0006660908203125
 10
0.1325740013508447
 20
0.9327620642210874
 10
0.1325740013508447
 20
0.9061184314085863
  0
LWPOLYLINE
  5
333
330
18
100
AcDbEntity
  8
TEXT
100
AcDbPolyline
 90
        2
 70
     0
 43
0.0001332181640625
 10
0.1325740013508447
 20
0.9327620642210874
 10
0.1425653636555353
 20
0.9927102380492129
  0
LWPOLYLINE
  5
334
330
18
100
AcDbEntity
  8
TEXT
100
AcDbPolyline
 90
        2
 70
     0
 43
0.0001332181640625
 10
0.1325740013508447
 20
0.9061184314085863
 10
0.1425653636555353
 20
0.9793884216429624
  0
LWPOLYLINE
  5
335
330
18
100
AcDbEntity
  8
TEXT
100
AcDbPolyline
 90
        2
 70
     0
 43
0.0001332181640625
 10
0.1725394505695963
 20
0.9327620642210874
 10
0.1625480882649075
 20
0.9927102380492129
  0
LWPOLYLINE
  5
336
330
18
100
AcDbEntity
  8
TEXT
100
AcDbPolyline
 90
        2
 70
     0
 43
0.0001332181640625
 10
0.1625480882649075
 20
0.9793884216429624
 10
0.1725394505695963
 20
0.9061184314085863
  0
LWPOLYLINE
  5
337
330
18
100
AcDbEntity
  8
TEXT
100
AcDbPolyline
 90
        2
 70
     0
 43
0.0006660908203125
 10
0.1725394505695963
 20
0.9327620642210874
 10
0.1725394505695963
 20
0.9061184314085863
  0
LWPOLYLINE
  5
338
330
18
100
AcDbEntity
  8
TEXT
100
AcDbPolyline
 90
        2
 70
     0
 43
0.0001332181640625
 10
0.2591312572102211
 20
0.9327620642210874
 10
0.1991830833820973
 20
0.9927102380492129
  0
LWPOLYLINE
  5
339
330
18
100
AcDbEntity
  8
TEXT
100
AcDbPolyline
 90
        3
 70
     0
 43
0.0006660908203125
 10
0.1725394505695963
 20
0.9327620642210874
 10
0.2591312572102211
 20
0.9327620642210874
 10
0.2591312572102211
 20
1.019353870861714
  0
LWPOLYLINE
  5
33A
330
18
100
AcDbEntity
  8
TEXT
100
AcDbPolyline
 90
        2
 70
     0
 43
0.0001332181640625
 10
0.2591312572102211
 20
1.019353870861714
 10
0.1991830833820973
 20
1.029345233166399
  0
LWPOLYLINE
  5
33B
330
18
100
AcDbEntity
  8
TEXT
100
AcDbPolyline
 90
        5
 70
     0
 43
0.0001332181640625
 10
0.2125048997883461
 20
1.029345233166399
 10
0.1991830833820973
 20
1.029345233166399
 10
0.1991830833820973
 20
0.9927102380492129
 10
0.1625480882649075
 20
0.9927102380492129
 10
0.1625480882649075
 20
0.9793884216429624
  0
ARC
  5
33C
330
18
100
AcDbEntity
  8
TEXT
100
AcDbCircle
 10
0.555889026870748
 20
1.090375704071508
 30
0.0
 40
0.017902360805315
100
AcDbArc
 50
90.0
 51
270.0
  0
LINE
  5
33D
330
18
100
AcDbEntity
  8
TEXT
100
AcDbLine
 10
0.4685642373099946
 20
0.9744387328785144
 30
0.0
 11
0.4685642373099963
 21
0.9060817265450751
 31
0.0
  0
TEXT
  5
33E
330
18
100
AcDbEntity
  8
TEXT
100
AcDbText
 10
2.175292253965031
 20
0.9057091082242791
 30
0.0
 40
0.0522247191011236
  1
Phone  1-800-328-2495
 41
1.272321428571429
 72
     5
 11
3.504224838234694
 21
0.9057091082242791
 31
0.0
100
AcDbText
  0
TEXT
  5
33F
330
18
100
AcDbEntity
  8
TEXT
100
AcDbText
 10
2.175292253965031
 20
0.9989675351905713
 30
0.0
 40
0.0522247191011236
  1
Minneapolis, MN 55432-0008
 41
1.11444212721585
 72
     5
 11
3.504224838234694
 21
0.9989675351905713
 31
0.0
100
AcDbText
  0
LINE
  5
340
330
18
100
AcDbEntity
  8
TEXT
100
AcDbLine
 10
1.729720594666773
 20
1.10827806487682
 30
0.0
 11
1.806368575959329
 21
1.10827806487682
 31
0.0
  0
LINE
  5
341
330
18
100
AcDbEntity
  8
TEXT
100
AcDbLine
 10
1.171677437036098
 20
1.10827806487682
 30
0.0
 11
1.221512716859248
 21
1.10827806487682
 31
0.0
  0
ARC
  5
342
330
18
100
AcDbEntity
  8
TEXT
100
AcDbCircle
 10
0.8732115447656951
 20
0.9456294488187708
 30
0.0
 40
0.0392772371940762
100
AcDbArc
 50
270.1604552698595
 51
330.0831797321295
  0
ARC
  5
343
330
18
100
AcDbEntity
  8
TEXT
100
AcDbCircle
 10
0.7829106988734705
 20
0.9658741178831249
 30
0.0
 40
0.0601160179737537
100
AcDbArc
 50
180.0000000000003
 51
264.0521544866073
  0
LINE
  5
344
330
18
100
AcDbEntity
  8
TEXT
100
AcDbLine
 10
0.7227946808997175
 20
1.10827806487682
 30
0.0
 11
0.7227946808997175
 21
0.9658741178831249
 31
0.0
  0
ARC
  5
345
330
18
100
AcDbEntity
  8
TEXT
100
AcDbCircle
 10
0.6264295370213287
 20
0.9914092867595485
 30
0.0
 40
0.0169705538810321
100
AcDbArc
 50
270.0
 51
90.0
  0
ARC
  5
346
330
18
100
AcDbEntity
  8
TEXT
100
AcDbCircle
 10
0.621489163115049
 20
0.9892775349056321
 30
0.0
 40
0.0831958083605586
100
AcDbArc
 50
270.0
 51
90.0
  0
LWPOLYLINE
  5
347
330
18
100
AcDbEntity
  8
TEXT
100
AcDbPolyline
 90
        6
 70
     1
 43
0.0
 10
0.8192050919549735
 20
1.10827806487682
 10
0.7888884977347655
 20
1.10827806487682
 10
0.7888884977347655
 20
0.9851670668219263
 42
0.407328721240804
 10
0.8004321488962418
 20
0.9733481521455402
 10
0.8610538479409726
 20
0.9733481521455402
 10
0.8785191883482905
 20
1.006160381189019
  0
LINE
  5
348
330
18
100
AcDbEntity
  8
TEXT
100
AcDbLine
 10
0.7766812883798231
 20
0.9060817265450751
 30
0.0
 11
0.8733215394548174
 21
0.9063523656433574
 31
0.0
  0
LWPOLYLINE
  5
349
330
18
100
AcDbEntity
  8
TEXT
100
AcDbPolyline
 90
        2
 70
     0
 43
0.0
 10
1.004554810771352
 20
0.9576330687600034
 42
0.3318488747599744
 10
1.073674103336665
 20
0.9060817265450751
 42
-6.868794160588311
  0
LINE
  5
34A
330
18
100
AcDbEntity
  8
TEXT
100
AcDbLine
 10
1.004554810771352
 20
1.090390443585356
 30
0.0
 11
1.004554810771352
 21
0.9576330687599998
 31
0.0
  0
LINE
  5
34B
330
18
100
AcDbEntity
  8
TEXT
100
AcDbLine
 10
0.9072551046779082
 20
0.926040232650088
 30
0.0
 11
1.004554810771352
 21
1.090390443585356
 31
0.0
  0
ARC
  5
34C
330
18
100
AcDbEntity
  8
TEXT
100
AcDbCircle
 10
1.087852747093528
 20
0.9870723590446033
 30
0.0
 40
0.0153818062434269
100
AcDbArc
 50
174.7883570302258
 51
270.0
  0
LINE
  5
34D
330
18
100
AcDbEntity
  8
TEXT
100
AcDbLine
 10
1.104846383978131
 20
0.9716905528011778
 30
0.0
 11
1.087852747093528
 21
0.9716905528011778
 31
0.0
  0
LINE
  5
34E
330
18
100
AcDbEntity
  8
TEXT
100
AcDbLine
 10
1.073674103336664
 20
0.9060817265450751
 30
0.0
 11
1.171677437036098
 21
0.9060817265450751
 31
0.0
  0
LINE
  5
34F
330
18
100
AcDbEntity
  8
TEXT
100
AcDbLine
 10
1.171677437036098
 20
0.9060817265450751
 30
0.0
 11
1.171677437036098
 21
1.10827806487682
 31
0.0
  0
LINE
  5
350
330
18
100
AcDbEntity
  8
TEXT
100
AcDbLine
 10
1.53452899102422
 20
1.10827806487682
 30
0.0
 11
1.427322717636929
 21
1.10827806487682
 31
0.0
  0
LINE
  5
351
330
18
100
AcDbEntity
  8
TEXT
100
AcDbLine
 10
1.488042076544957
 20
1.071003091414688
 30
0.0
 11
1.570330066328342
 21
1.071003091414688
 31
0.0
  0
LWPOLYLINE
  5
352
330
18
100
AcDbEntity
  8
TEXT
100
AcDbPolyline
 90
        4
 70
     1
 43
0.0
 10
1.583261107611241
 20
1.0090457045291
 10
1.494600788951382
 20
1.0090457045291
 42
0.9999999999999998
 10
1.494600788951382
 20
0.9666471640252396
 10
1.583261107611241
 20
0.9666471640252396
 42
1.0
  0
LWPOLYLINE
  5
353
330
18
100
AcDbEntity
  8
TEXT
100
AcDbPolyline
 90
        2
 70
     0
 43
0.0
 10
1.469366155049756
 20
0.9060817265450751
 10
1.603383572681133
 20
0.9060817265450751
 42
0.9999999999999998
  0
LINE
  5
354
330
18
100
AcDbEntity
  8
TEXT
100
AcDbLine
 10
1.296124552807199
 20
1.10827806487682
 30
0.0
 11
1.350258149728151
 21
1.10827806487682
 31
0.0
  0
LINE
  5
355
330
18
100
AcDbEntity
  8
TEXT
100
AcDbLine
 10
1.229066506025361
 20
0.9060817265450751
 30
0.0
 11
1.296124552807199
 21
0.9060817265450751
 31
0.0
  0
LINE
  5
356
330
18
100
AcDbEntity
  8
TEXT
100
AcDbLine
 10
1.296124552807199
 20
0.9060817265450751
 30
0.0
 11
1.296124552807199
 21
1.10827806487682
 31
0.0
  0
LINE
  5
357
330
18
100
AcDbEntity
  8
TEXT
100
AcDbLine
 10
1.229066506025361
 20
1.10072427571071
 30
0.0
 11
1.229066506025361
 21
0.9060817265450751
 31
0.0
  0
LWPOLYLINE
  5
358
330
18
100
AcDbEntity
  8
TEXT
100
AcDbPolyline
 90
        2
 70
     0
 43
0.0
 10
1.221512716859246
 20
1.10827806487682
 42
-0.4142135623731017
 10
1.229066506025359
 20
1.10072427571071
 42
-0.9999999999999998
  0
LINE
  5
359
330
18
100
AcDbEntity
  8
TEXT
100
AcDbLine
 10
1.427322717636929
 20
1.10827806487682
 30
0.0
 11
1.427322717636929
 21
1.033225658802614
 31
0.0
  0
ARC
  5
35A
330
18
100
AcDbEntity
  8
TEXT
100
AcDbCircle
 10
1.488042076544957
 20
1.003317510270569
 30
0.0
 40
0.0676855811441166
100
AcDbArc
 50
90.0
 51
153.7768192527749
  0
LWPOLYLINE
  5
35B
330
18
100
AcDbEntity
  8
TEXT
100
AcDbPolyline
 90
        2
 70
     0
 43
0.0
 10
1.426290222182121
 20
0.9495726714955132
 42
0.2901071551932823
 10
1.469366155049756
 20
0.9060817265450751
 42
5.328517124445801
  0
LWPOLYLINE
  5
35C
330
18
100
AcDbEntity
  8
TEXT
100
AcDbPolyline
 90
        2
 70
     0
 43
0.0
 10
1.35025814972815
 20
1.10827806487682
 42
-0.4142135623731017
 10
1.357811938894263
 20
1.10072427571071
 42
-0.9999999999999998
  0
LWPOLYLINE
  5
35D
330
18
100
AcDbEntity
  8
TEXT
100
AcDbPolyline
 90
        4
 70
     0
 43
0.0
 10
1.357811938894263
 20
1.10072427571071
 10
1.357811938894263
 20
0.9060817265450751
 10
1.426290222182121
 20
0.9060817265450751
 10
1.426290222182121
 20
0.9495726714955132
 42
-1.714843617202739
  0
LWPOLYLINE
  5
35E
330
18
100
AcDbEntity
  8
TEXT
100
AcDbPolyline
 90
        2
 70
     0
 43
0.0
 10
1.646459505548778
 20
0.9495726714955132
 42
-0.2901071551932486
 10
1.603383572681133
 20
0.9060817265450751
 42
-5.328517124445184
  0
LWPOLYLINE
  5
35F
330
18
100
AcDbEntity
  8
TEXT
100
AcDbPolyline
 90
        2
 70
     0
 43
0.0
 10
1.646459505548778
 20
0.9060817265450751
 10
1.704814719384112
 20
0.9060817265450751
  0
LWPOLYLINE
  5
360
330
18
100
AcDbEntity
  8
TEXT
100
AcDbPolyline
 90
        2
 70
     0
 43
0.0
 10
1.646459505548778
 20
0.9495726714955132
 10
1.646459505548778
 20
0.9060817265450751
  0
LINE
  5
361
330
18
100
AcDbEntity
  8
TEXT
100
AcDbLine
 10
1.570330066328342
 20
1.071003091414688
 30
0.0
 11
1.560065305914775
 21
1.092253630987382
 31
0.0
  0
LINE
  5
362
330
18
100
AcDbEntity
  8
TEXT
100
AcDbLine
 10
1.704814719384113
 20
0.9060817265450751
 30
0.0
 11
1.704814719384106
 21
1.083372231976543
 31
0.0
  0
LINE
  5
363
330
18
100
AcDbEntity
  8
TEXT
100
AcDbLine
 10
2.023228665865627
 20
0.9060817265450751
 30
0.0
 11
1.927736442502016
 21
1.062661516592612
 31
0.0
  0
LINE
  5
364
330
18
100
AcDbEntity
  8
TEXT
100
AcDbLine
 10
1.946650293489419
 20
0.9060817265450751
 30
0.0
 11
2.023228665865627
 21
0.9060817265450751
 31
0.0
  0
LINE
  5
365
330
18
100
AcDbEntity
  8
TEXT
100
AcDbLine
 10
1.806368575959336
 20
0.9060817265450751
 30
0.0
 11
1.870746760277956
 21
0.9060817265450751
 31
0.0
  0
LINE
  5
366
330
18
100
AcDbEntity
  8
TEXT
100
AcDbLine
 10
1.806368575959329
 20
1.10827806487682
 30
0.0
 11
1.806368575959336
 21
0.9060817265450751
 31
0.0
  0
LINE
  5
367
330
18
100
AcDbEntity
  8
TEXT
100
AcDbLine
 10
1.870746760277956
 20
1.037661295021255
 30
0.0
 11
1.946650293489419
 21
0.9060817265450751
 31
0.0
  0
LINE
  5
368
330
18
100
AcDbEntity
  8
TEXT
100
AcDbLine
 10
1.870746760277956
 20
0.9060817265450751
 30
0.0
 11
1.870746760277956
 21
1.037661295021255
 31
0.0
  0
LINE
  5
369
330
18
100
AcDbEntity
  8
TEXT
100
AcDbLine
 10
0.7263834496550104
 20
1.172554759533586
 30
0.0
 11
0.5506516967564999
 21
1.172554759533586
 31
0.0
  0
LWPOLYLINE
  5
36A
330
18
100
AcDbEntity
  8
TEXT
100
AcDbPolyline
 90
        2
 70
     0
 43
0.0006660908203125
 10
0.1325740013508447
 20
1.145911126721088
 10
0.1325740013508447
 20
1.172554759533589
  0
LWPOLYLINE
  5
36B
330
18
100
AcDbEntity
  8
TEXT
100
AcDbPolyline
 90
        2
 70
     0
 43
0.0006660908203125
 10
0.1725394505695963
 20
1.145911126721088
 10
0.1725394505695963
 20
1.172554759533589
  0
TEXT
  5
36C
330
18
100
AcDbEntity
  8
TEXT
100
AcDbText
 10
2.175292253965031
 20
1.185484389123155
 30
0.0
 40
0.0522247191011236
  1
Stylmark  Incorporated
 41
1.221428571428571
 72
     5
 11
3.504224838234694
 21
1.185484389123155
 31
0.0
100
AcDbText
  0
LINE
  5
36D
330
18
100
AcDbEntity
  8
TEXT
100
AcDbLine
 10
1.801888688632828
 20
1.172554759533586
 30
0.0
 11
1.734388970983314
 21
1.172554759533586
 31
0.0
  0
TEXT
  5
36E
330
18
100
AcDbEntity
  8
TEXT
100
AcDbText
 10
1.006034714762327
 20
1.352631750896654
 30
0.0
 40
0.125
  1
PART #110477
  7
ITALICC
 72
     1
 11
1.761987095714708
 21
1.352631750896654
 31
0.0
100
AcDbText
  0
LINE
  5
36F
330
18
100
AcDbEntity
  8
TEXT
100
AcDbLine
 10
1.238864439909267
 20
1.172554759533586
 30
0.0
 11
1.104846383978131
 21
1.172554759533586
 31
0.0
  0
LINE
  5
370
330
18
100
AcDbEntity
  8
TEXT
100
AcDbLine
 10
0.7864260544990174
 20
1.206942677127724
 30
0.0
 11
0.7263834496550104
 21
1.206942677127724
 31
0.0
  0
LINE
  5
371
330
18
100
AcDbEntity
  8
TEXT
100
AcDbLine
 10
0.7263834496550104
 20
1.206942677127724
 30
0.0
 11
0.7263834496550104
 21
1.172554759533586
 31
0.0
  0
LINE
  5
372
330
18
100
AcDbEntity
  8
TEXT
100
AcDbLine
 10
0.8582250206429264
 20
1.172554759533586
 30
0.0
 11
0.7864260544990174
 21
1.172554759533586
 31
0.0
  0
LINE
  5
373
330
18
100
AcDbEntity
  8
TEXT
100
AcDbLine
 10
0.7864260544990174
 20
1.172554759533586
 30
0.0
 11
0.7864260544990174
 21
1.206942677127724
 31
0.0
  0
LINE
  5
374
330
18
100
AcDbEntity
  8
TEXT
100
AcDbLine
 10
1.072534529840471
 20
1.240566237272396
 30
0.0
 11
1.005725817274104
 21
1.240566237272396
 31
0.0
  0
LINE
  5
375
330
18
100
AcDbEntity
  8
TEXT
100
AcDbLine
 10
1.005725817274104
 20
1.172554759533586
 30
0.0
 11
0.975603904480728
 21
1.172554759533586
 31
0.0
  0
LINE
  5
376
330
18
100
AcDbEntity
  8
TEXT
100
AcDbLine
 10
1.005725817274104
 20
1.240566237272396
 30
0.0
 11
1.005725817274104
 21
1.172554759533586
 31
0.0
  0
LINE
  5
377
330
18
100
AcDbEntity
  8
TEXT
100
AcDbLine
 10
1.563559889368697
 20
1.172554759533586
 30
0.0
 11
1.428727980151638
 21
1.172554759533586
 31
0.0
  0
LWPOLYLINE
  5
378
330
18
100
AcDbEntity
  8
TEXT
100
AcDbPolyline
 90
        3
 70
     0
 43
0.0
 10
1.392946289438473
 20
1.172554759533589
 10
1.274646130622429
 20
1.172554759533589
 10
1.274646130622429
 20
1.145387262772693
 42
-1.960274751411753
  0
LWPOLYLINE
  5
379
330
18
100
AcDbEntity
  8
TEXT
100
AcDbPolyline
 90
        2
 70
     0
 43
0.0
 10
1.238864439909267
 20
1.172554759533589
 42
-0.3328679258950098
 10
1.274646130622429
 20
1.145387262772693
 42
6.772930709997214
  0
LINE
  5
37A
330
18
100
AcDbEntity
  8
TEXT
100
AcDbLine
 10
1.428727980151638
 20
1.172554759533586
 30
0.0
 11
1.428727980151638
 21
1.144232213763942
 31
0.0
  0
LWPOLYLINE
  5
37B
330
18
100
AcDbEntity
  8
TEXT
100
AcDbPolyline
 90
        2
 70
     0
 43
0.0
 10
1.392946289438473
 20
1.172554759533589
 42
-0.3277054968067132
 10
1.428727980151638
 20
1.144232213763945
 42
6.667889725900311
  0
LINE
  5
37C
330
18
100
AcDbEntity
  8
TEXT
100
AcDbLine
 10
1.706416734543239
 20
1.172554759533586
 30
0.0
 11
1.642519828243738
 21
1.172554759533586
 31
0.0
  0
ARC
  5
37D
330
18
100
AcDbEntity
  8
TEXT
100
AcDbCircle
 10
1.561532949591629
 20
1.130971192412683
 30
0.0
 40
0.0416329381542859
100
AcDbArc
 50
26.56974201007528
 51
87.20939649401342
  0
LINE
  5
37E
330
18
100
AcDbEntity
  8
TEXT
100
AcDbLine
 10
1.706416734543239
 20
1.145007109672711
 30
0.0
 11
1.706416734543239
 21
1.172554759533586
 31
0.0
  0
ARC
  5
37F
330
18
100
AcDbEntity
  8
TEXT
100
AcDbCircle
 10
1.737609551606349
 20
1.141309032251321
 30
0.0
 40
0.0314112657011332
100
AcDbArc
 50
95.88484768694724
 51
173.2388340632136
  0
LINE
  5
380
330
18
100
AcDbEntity
  8
TEXT
100
AcDbLine
 10
1.992293558467721
 20
1.172554759533586
 30
0.0
 11
1.917301725738095
 21
1.172554759533586
 31
0.0
  0
LINE
  5
381
330
18
100
AcDbEntity
  8
TEXT
100
AcDbLine
 10
1.801888688632836
 20
1.238018965301186
 30
0.0
 11
1.801888688632828
 21
1.172554759533586
 31
0.0
  0
LINE
  5
382
330
18
100
AcDbEntity
  8
TEXT
100
AcDbLine
 10
1.870203567182109
 20
1.238018965301186
 30
0.0
 11
1.801888688632836
 21
1.238018965301186
 31
0.0
  0
ENDSEC
  0
SECTION
  2
OBJECTS
  0
DICTIONARY
  5
C
330
0
100
AcDbDictionary
  3
ACAD_GROUP
350
D
  3
ACAD_LAYOUT
350
387
  3
ACAD_MLINESTYLE
350
E
  3
ACAD_PLOTSETTINGS
350
388
  3
ACAD_PLOTSTYLENAME
350
385
  3
ACDBHEADERROUNDTRIPXREC
350
393
  3
ACDBVARIABLEDICTIONARY
350
390
  0
DICTIONARY
  5
3B5
330
18
100
AcDbDictionary
280
     1
  3
ACAD_LAYOUTSELFREF
360
3B6
  0
DICTIONARY
  5
3B3
330
15
100
AcDbDictionary
280
     1
  3
ACAD_LAYOUTSELFREF
360
3B4
  0
DICTIONARY
  5
D
102
{ACAD_REACTORS
330
C
102
}
330
C
100
AcDbDictionary
  0
DICTIONARY
  5
387
102
{ACAD_REACTORS
330
C
102
}
330
C
100
AcDbDictionary
  0
DICTIONARY
  5
E
102
{ACAD_REACTORS
330
C
102
}
330
C
100
AcDbDictionary
  3
STANDARD
350
1B
  0
DICTIONARY
  5
388
102
{ACAD_REACTORS
330
C
102
}
330
C
100
AcDbDictionary
  0
ACDBDICTIONARYWDFLT
  5
385
102
{ACAD_REACTORS
330
C
102
}
330
C
100
AcDbDictionary
281
     1
  3
Normal
350
386
100
AcDbDictionaryWithDefault
340
386
  0
DICTIONARY
  5
393
102
{ACAD_REACTORS
330
C
102
}
330
C
100
AcDbDictionary
  3
CEPSNTYPE
350
39D
  3
FINGERPRINTGUID
350
39E
  3
HYPERLINKBASE
350
396
  3
INSUNITS
350
39C
  3
LAYOUTDICT
350
398
  3
LWETCUNION
350
39B
  3
PLOTSETDICT
350
399
  3
PLOTSTYLNAMDICT
350
39A
  3
PSVPSCALE
350
3A0
  3
PUCSBASE
350
3A3
  3
PUCSORGBACK
350
3A9
  3
PUCSORGBOTTOM
350
3A5
  3
PUCSORGFRONT
350
3A8
  3
PUCSORGLEFT
350
3A6
  3
PUCSORGRIGHT
350
3A7
  3
PUCSORGTOP
350
3A4
  3
PUCSORTHOREF
350
3A1
  3
PUCSORTHOVIEW
350
3A2
  3
STYLESHEET
350
397
  3
TSTACKALIGN
350
394
  3
TSTACKSIZE
350
395
  3
UCSBASE
350
3AC
  3
UCSORGBACK
350
3B2
  3
UCSORGBOTTOM
350
3AE
  3
UCSORGFRONT
350
3B1
  3
UCSORGLEFT
350
3AF
  3
UCSORGRIGHT
350
3B0
  3
UCSORGTOP
350
3AD
  3
UCSORTHOREF
350
3AA
  3
UCSORTHOVIEW
350
3AB
  3
VERSIONGUID
350
39F
  0
DICTIONARY
  5
390
102
{ACAD_REACTORS
330
C
102
}
330
C
100
AcDbDictionary
  3
DIMASSOC
350
391
  0
XRECORD
  5
3B6
102
{ACAD_REACTORS
330
3B5
102
}
330
3B5
100
AcDbXrecord
340
18
  0
XRECORD
  5
3B4
102
{ACAD_REACTORS
330
3B3
102
}
330
3B3
100
AcDbXrecord
340
15
  0
MLINESTYLE
  5
1B
102
{ACAD_REACTORS
330
E
102
}
330
E
100
AcDbMlineStyle
  2
STANDARD
 70
     0
  3

 62
     0
 51
90.0
 52
90.0
 71
     2
 49
0.5
 62
   256
  6
BYLAYER
 49
-0.5
 62
   256
  6
BYLAYER
  0
ACDBPLACEHOLDER
  5
386
102
{ACAD_REACTORS
330
385
102
}
330
385
100
AcDbPlaceHolder
280
     0
  0
XRECORD
  5
39D
102
{ACAD_REACTORS
330
393
102
}
330
393
100
AcDbXrecord
 90
        0
  0
XRECORD
  5
39E
102
{ACAD_REACTORS
330
393
102
}
330
393
100
AcDbXrecord
  1
{B108BBF0-8DB7-11D6-88E6-0090279574E7}
  0
XRECORD
  5
396
102
{ACAD_REACTORS
330
393
102
}
330
393
100
AcDbXrecord
  1

  0
XRECORD
  5
39C
102
{ACAD_REACTORS
330
393
102
}
330
393
100
AcDbXrecord
 90
        0
  0
XRECORD
  5
398
102
{ACAD_REACTORS
330
393
102
}
330
393
100
AcDbXrecord
340
387
  0
XRECORD
  5
39B
102
{ACAD_REACTORS
330
393
102
}
330
393
100
AcDbXrecord
 90
    14877
  0
XRECORD
  5
399
102
{ACAD_REACTORS
330
393
102
}
330
393
100
AcDbXrecord
340
388
  0
XRECORD
  5
39A
102
{ACAD_REACTORS
330
393
102
}
330
393
100
AcDbXrecord
340
385
  0
XRECORD
  5
3A0
102
{ACAD_REACTORS
330
393
102
}
330
393
100
AcDbXrecord
 40
0.0
  0
XRECORD
  5
3A3
102
{ACAD_REACTORS
330
393
102
}
330
393
100
AcDbXrecord
340
0
  0
XRECORD
  5
3A9
102
{ACAD_REACTORS
330
393
102
}
330
393
100
AcDbXrecord
 10
0.0
 20
0.0
 30
0.0
  0
XRECORD
  5
3A5
102
{ACAD_REACTORS
330
393
102
}
330
393
100
AcDbXrecord
 10
0.0
 20
0.0
 30
0.0
  0
XRECORD
  5
3A8
102
{ACAD_REACTORS
330
393
102
}
330
393
100
AcDbXrecord
 10
0.0
 20
0.0
 30
0.0
  0
XRECORD
  5
3A6
102
{ACAD_REACTORS
330
393
102
}
330
393
100
AcDbXrecord
 10
0.0
 20
0.0
 30
0.0
  0
XRECORD
  5
3A7
102
{ACAD_REACTORS
330
393
102
}
330
393
100
AcDbXrecord
 10
0.0
 20
0.0
 30
0.0
  0
XRECORD
  5
3A4
102
{ACAD_REACTORS
330
393
102
}
330
393
100
AcDbXrecord
 10
0.0
 20
0.0
 30
0.0
  0
XRECORD
  5
3A1
102
{ACAD_REACTORS
330
393
102
}
330
393
100
AcDbXrecord
340
0
  0
XRECORD
  5
3A2
102
{ACAD_REACTORS
330
393
102
}
330
393
100
AcDbXrecord
 70
     0
  0
XRECORD
  5
397
102
{ACAD_REACTORS
330
393
102
}
330
393
100
AcDbXrecord
  1

  0
XRECORD
  5
394
102
{ACAD_REACTORS
330
393
102
}
330
393
100
AcDbXrecord
 90
        1
  0
XRECORD
  5
395
102
{ACAD_REACTORS
330
393
102
}
330
393
100
AcDbXrecord
 90
       70
  0
XRECORD
  5
3AC
102
{ACAD_REACTORS
330
393
102
}
330
393
100
AcDbXrecord
340
0
  0
XRECORD
  5
3B2
102
{ACAD_REACTORS
330
393
102
}
330
393
100
AcDbXrecord
 10
0.0
 20
0.0
 30
0.0
  0
XRECORD
  5
3AE
102
{ACAD_REACTORS
330
393
102
}
330
393
100
AcDbXrecord
 10
0.0
 20
0.0
 30
0.0
  0
XRECORD
  5
3B1
102
{ACAD_REACTORS
330
393
102
}
330
393
100
AcDbXrecord
 10
0.0
 20
0.0
 30
0.0
  0
XRECORD
  5
3AF
102
{ACAD_REACTORS
330
393
102
}
330
393
100
AcDbXrecord
 10
0.0
 20
0.0
 30
0.0
  0
XRECORD
  5
3B0
102
{ACAD_REACTORS
330
393
102
}
330
393
100
AcDbXrecord
 10
0.0
 20
0.0
 30
0.0
  0
XRECORD
  5
3AD
102
{ACAD_REACTORS
330
393
102
}
330
393
100
AcDbXrecord
 10
0.0
 20
0.0
 30
0.0
  0
XRECORD
  5
3AA
102
{ACAD_REACTORS
330
393
102
}
330
393
100
AcDbXrecord
340
0
  0
XRECORD
  5
3AB
102
{ACAD_REACTORS
330
393
102
}
330
393
100
AcDbXrecord
 70
     0
  0
XRECORD
  5
39F
102
{ACAD_REACTORS
330
393
102
}
330
393
100
AcDbXrecord
  1
{B108BBF2-8DB7-11D6-88E6-0090279574E7}
  0
DICTIONARYVAR
  5
391
102
{ACAD_REACTORS
330
390
102
}
330
390
100
DictionaryVariables
280
     0
  1
1
  0
ENDSEC
  0
EOF
