  0
SECTION
  2
HEADER
  9
$ACADVER
  1
AC1014
  9
$ACADMAINTVER
 70
     9
  9
$DWGCODEPAGE
  3
ANSI_1252
  9
$INSBASE
 10
0.0
 20
0.0
 30
0.0
  9
$EXTMIN
 10
-0.0075156503982801
 20
-0.5074703220444804
 30
0.0
  9
$EXTMAX
 10
3.477703671348848
 20
3.173807515872947
 30
0.0
  9
$LIMMIN
 10
0.0
 20
0.0
  9
$LIMMAX
 10
18.0
 20
12.0
  9
$ORTHOMODE
 70
     0
  9
$REGENMODE
 70
     1
  9
$FILLMODE
 70
     1
  9
$QTEXTMODE
 70
     0
  9
$MIRRTEXT
 70
     0
  9
$DRAGMODE
 70
     2
  9
$LTSCALE
 40
1.0
  9
$OSMODE
 70
    39
  9
$ATTMODE
 70
     1
  9
$TEXTSIZE
 40
0.125
  9
$TRACEWID
 40
0.05
  9
$TEXTSTYLE
  7
ROMANS
  9
$CLAYER
  8
0
  9
$CELTYPE
  6
BYLAYER
  9
$CECOLOR
 62
   256
  9
$CELTSCALE
 40
1.0
  9
$DELOBJ
 70
     1
  9
$DISPSILH
 70
     1
  9
$DIMSCALE
 40
1.0
  9
$DIMASZ
 40
0.125
  9
$DIMEXO
 40
0.125
  9
$DIMDLI
 40
0.375
  9
$DIMRND
 40
0.0
  9
$DIMDLE
 40
0.0
  9
$DIMEXE
 40
0.125
  9
$DIMTP
 40
0.007
  9
$DIMTM
 40
0.007
  9
$DIMTXT
 40
0.125
  9
$DIMCEN
 40
-0.125
  9
$DIMTSZ
 40
0.0
  9
$DIMTOL
 70
     0
  9
$DIMLIM
 70
     1
  9
$DIMTIH
 70
     1
  9
$DIMTOH
 70
     1
  9
$DIMSE1
 70
     1
  9
$DIMSE2
 70
     0
  9
$DIMTAD
 70
     0
  9
$DIMZIN
 70
     4
  9
$DIMBLK
  1

  9
$DIMASO
 70
     1
  9
$DIMSHO
 70
     1
  9
$DIMPOST
  1

  9
$DIMAPOST
  1

  9
$DIMALT
 70
     0
  9
$DIMALTD
 70
     2
  9
$DIMALTF
 40
25.4
  9
$DIMLFAC
 40
0.5
  9
$DIMTOFL
 70
     0
  9
$DIMTVP
 40
0.0
  9
$DIMTIX
 70
     0
  9
$DIMSOXD
 70
     0
  9
$DIMSAH
 70
     0
  9
$DIMBLK1
  1

  9
$DIMBLK2
  1

  9
$DIMSTYLE
  2
STANDARD
  9
$DIMCLRD
 70
     0
  9
$DIMCLRE
 70
     0
  9
$DIMCLRT
 70
     0
  9
$DIMTFAC
 40
1.0
  9
$DIMGAP
 40
0.09
  9
$DIMJUST
 70
     0
  9
$DIMSD1
 70
     0
  9
$DIMSD2
 70
     0
  9
$DIMTOLJ
 70
     1
  9
$DIMTZIN
 70
     0
  9
$DIMALTZ
 70
     0
  9
$DIMALTTZ
 70
     0
  9
$DIMFIT
 70
     3
  9
$DIMUPT
 70
     0
  9
$DIMUNIT
 70
     2
  9
$DIMDEC
 70
     3
  9
$DIMTDEC
 70
     4
  9
$DIMALTU
 70
     2
  9
$DIMALTTD
 70
     2
  9
$DIMTXSTY
  7
ROMANS
  9
$DIMAUNIT
 70
     0
  9
$LUNITS
 70
     2
  9
$LUPREC
 70
     3
  9
$SKETCHINC
 40
0.1
  9
$FILLETRAD
 40
0.0
  9
$AUNITS
 70
     0
  9
$AUPREC
 70
     0
  9
$MENU
  1
acad
  9
$ELEVATION
 40
0.0
  9
$PELEVATION
 40
0.0
  9
$THICKNESS
 40
0.0
  9
$LIMCHECK
 70
     0
  9
$BLIPMODE
 70
     0
  9
$CHAMFERA
 40
0.045
  9
$CHAMFERB
 40
0.045
  9
$CHAMFERC
 40
0.0
  9
$CHAMFERD
 40
0.0
  9
$SKPOLY
 70
     0
  9
$TDCREATE
 40
2449091.562225347
  9
$TDUPDATE
 40
2452458.313784849
  9
$TDINDWG
 40
0.0019070833
  9
$TDUSRTIMER
 40
0.0019070833
  9
$USRTIMER
 70
     1
  9
$ANGBASE
 50
0.0
  9
$ANGDIR
 70
     0
  9
$PDMODE
 70
     0
  9
$PDSIZE
 40
0.0
  9
$PLINEWID
 40
0.0
  9
$COORDS
 70
     2
  9
$SPLFRAME
 70
     0
  9
$SPLINETYPE
 70
     6
  9
$SPLINESEGS
 70
     8
  9
$ATTDIA
 70
     0
  9
$ATTREQ
 70
     1
  9
$HANDLING
 70
 22529
  9
$HANDSEED
  5
4F7
  9
$SURFTAB1
 70
     6
  9
$SURFTAB2
 70
     6
  9
$SURFTYPE
 70
     6
  9
$SURFU
 70
     6
  9
$SURFV
 70
     6
  9
$UCSNAME
  2

  9
$UCSORG
 10
0.0
 20
0.0
 30
0.0
  9
$UCSXDIR
 10
1.0
 20
0.0
 30
0.0
  9
$UCSYDIR
 10
0.0
 20
1.0
 30
0.0
  9
$PUCSNAME
  2

  9
$PUCSORG
 10
0.0
 20
0.0
 30
0.0
  9
$PUCSXDIR
 10
1.0
 20
0.0
 30
0.0
  9
$PUCSYDIR
 10
0.0
 20
1.0
 30
0.0
  9
$USERI1
 70
     0
  9
$USERI2
 70
     0
  9
$USERI3
 70
     0
  9
$USERI4
 70
     0
  9
$USERI5
 70
     0
  9
$USERR1
 40
0.0
  9
$USERR2
 40
0.0
  9
$USERR3
 40
0.0
  9
$USERR4
 40
0.0
  9
$USERR5
 40
0.0
  9
$WORLDVIEW
 70
     1
  9
$SHADEDGE
 70
     3
  9
$SHADEDIF
 70
    70
  9
$TILEMODE
 70
     1
  9
$MAXACTVP
 70
    16
  9
$PINSBASE
 10
0.0
 20
0.0
 30
0.0
  9
$PLIMCHECK
 70
     0
  9
$PEXTMIN
 10
1.000000000000000E+20
 20
1.000000000000000E+20
 30
1.000000000000000E+20
  9
$PEXTMAX
 10
-1.000000000000000E+20
 20
-1.000000000000000E+20
 30
-1.000000000000000E+20
  9
$PLIMMIN
 10
0.0
 20
0.0
  9
$PLIMMAX
 10
12.0
 20
9.0
  9
$UNITMODE
 70
     0
  9
$VISRETAIN
 70
     0
  9
$PLINEGEN
 70
     1
  9
$PSLTSCALE
 70
     0
  9
$TREEDEPTH
 70
  3020
  9
$PICKSTYLE
 70
     1
  9
$CMLSTYLE
  2
STANDARD
  9
$CMLJUST
 70
     0
  9
$CMLSCALE
 40
1.0
  9
$PROXYGRAPHICS
 70
     1
  9
$MEASUREMENT
 70
     0
  0
ENDSEC
  0
SECTION
  2
CLASSES
  0
CLASS
  1
LWPOLYLINE
  2
AcDbPolyline
  3
AutoCAD 2000
 90
        0
280
     0
281
     1
  0
CLASS
  1
ACDBDICTIONARYWDFLT
  2
AcDbDictionaryWithDefault
  3
AutoCAD 2000
 90
        0
280
     0
281
     0
  0
CLASS
  1
ACDBPLACEHOLDER
  2
AcDbPlaceHolder
  3
AutoCAD 2000
 90
        0
280
     0
281
     0
  0
CLASS
  1
LAYOUT
  2
AcDbLayout
  3
AutoCAD 2000
 90
        0
280
     0
281
     0
  0
CLASS
  1
DICTIONARYVAR
  2
AcDbDictionaryVar
  3
AutoCAD 2000
 90
        0
280
     0
281
     0
  0
CLASS
  1
LONG_TRANSACTION
  2
AcDbLongTransaction
  3
AutoCAD 2000
 90
        0
280
     0
281
     0
  0
CLASS
  1
LWPOLYLINE
  2
AcDbPolyline
  3
AutoCAD 2000
 90
        0
280
     0
281
     1
  0
CLASS
  1
HATCH
  2
AcDbHatch
  3
AutoCAD 2000
 90
        0
280
     0
281
     1
  0
CLASS
  1
XRECORD
  2
AcDbXrecord
  3
AutoCAD 2000
 90
        0
280
     0
281
     0
  0
ENDSEC
  0
SECTION
  2
TABLES
  0
TABLE
  2
VPORT
  5
8
330
0
100
AcDbSymbolTable
 70
     2
  0
VPORT
  5
4D2
330
8
100
AcDbSymbolTableRecord
100
AcDbViewportTableRecord
  2
*ACTIVE
 70
     0
 10
0.0
 20
0.0
 11
1.0
 21
1.0
 12
6.751142745703484
 22
1.333369740982222
 13
0.0
 23
0.0
 14
0.1
 24
0.1
 15
0.25
 25
0.25
 16
0.0
 26
0.0
 36
1.0
 17
0.0
 27
0.0
 37
0.0
 40
3.714514019581217
 41
4.320930232558139
 42
50.0
 43
0.0
 44
0.0
 50
0.0
 51
0.0
 71
     0
 72
  2000
 73
     1
 74
     1
 75
     0
 76
     0
 77
     0
 78
     0
  0
ENDTAB
  0
TABLE
  2
LTYPE
  5
5
330
0
100
AcDbSymbolTable
 70
     1
  0
LTYPE
  5
12
330
5
100
AcDbSymbolTableRecord
100
AcDbLinetypeTableRecord
  2
BYBLOCK
 70
     0
  3

 72
    65
 73
     0
 40
0.0
  0
LTYPE
  5
13
330
5
100
AcDbSymbolTableRecord
100
AcDbLinetypeTableRecord
  2
BYLAYER
 70
     0
  3

 72
    65
 73
     0
 40
0.0
  0
LTYPE
  5
14
330
5
100
AcDbSymbolTableRecord
100
AcDbLinetypeTableRecord
  2
CONTINUOUS
 70
     0
  3
Solid line
 72
    65
 73
     0
 40
0.0
  0
ENDTAB
  0
TABLE
  2
LAYER
  5
2
330
0
100
AcDbSymbolTable
 70
     2
  0
LAYER
  5
F
330
2
100
AcDbSymbolTableRecord
100
AcDbLayerTableRecord
  2
0
 70
     0
 62
     7
  6
CONTINUOUS
  0
LAYER
  5
21
330
2
100
AcDbSymbolTableRecord
100
AcDbLayerTableRecord
  2
TEXT
 70
     0
 62
     3
  6
CONTINUOUS
  0
ENDTAB
  0
TABLE
  2
STYLE
  5
3
330
0
100
AcDbSymbolTable
 70
     3
  0
STYLE
  5
10
330
3
100
AcDbSymbolTableRecord
100
AcDbTextStyleTableRecord
  2
STANDARD
 70
     0
 40
0.0
 41
1.0
 50
0.0
 71
     0
 42
0.125
  3
txt
  4

  0
STYLE
  5
3BE
330
3
100
AcDbSymbolTableRecord
100
AcDbTextStyleTableRecord
  2
ITALICC
 70
     0
 40
0.0
 41
1.0
 50
0.0
 71
     0
 42
0.125
  3
italicc
  4

  0
STYLE
  5
4CE
330
3
100
AcDbSymbolTableRecord
100
AcDbTextStyleTableRecord
  2
ROMANS
 70
     0
 40
0.0
 41
1.0
 50
0.0
 71
     0
 42
0.125
  3
romans.shx
  4

  0
ENDTAB
  0
TABLE
  2
VIEW
  5
6
330
0
100
AcDbSymbolTable
 70
     0
  0
ENDTAB
  0
TABLE
  2
UCS
  5
7
330
0
100
AcDbSymbolTable
 70
     0
  0
ENDTAB
  0
TABLE
  2
APPID
  5
9
330
0
100
AcDbSymbolTable
 70
     1
  0
APPID
  5
11
330
9
100
AcDbSymbolTableRecord
100
AcDbRegAppTableRecord
  2
ACAD
 70
     0
  0
ENDTAB
  0
TABLE
  2
DIMSTYLE
  5
A
330
0
100
AcDbSymbolTable
 70
     1
  0
DIMSTYLE
105
3B4
330
A
100
AcDbSymbolTableRecord
100
AcDbDimStyleTableRecord
  2
STANDARD
 70
     0
  3

  4

  5

  6

  7

 40
1.0
 41
0.18
 42
0.0625
 43
0.38
 44
0.18
 45
0.0
 46
0.0
 47
0.0
 48
0.0
140
0.18
141
0.09
142
0.0
143
25.4
144
1.0
145
0.0
146
1.0
147
0.09
 71
     0
 72
     0
 73
     1
 74
     1
 75
     0
 76
     0
 77
     0
 78
     0
170
     0
171
     2
172
     0
173
     0
174
     0
175
     0
176
     0
177
     0
178
     0
270
     2
271
     4
272
     4
273
     2
274
     2
340
10
275
     0
280
     0
281
     0
282
     0
283
     1
284
     0
285
     0
286
     0
287
     3
288
     0
  0
ENDTAB
  0
TABLE
  2
BLOCK_RECORD
  5
1
330
0
100
AcDbSymbolTable
 70
     0
  0
BLOCK_RECORD
  5
18
102
{ACAD_XDICTIONARY
360
4F5
102
}
330
1
100
AcDbSymbolTableRecord
100
AcDbBlockTableRecord
  2
*MODEL_SPACE
  0
BLOCK_RECORD
  5
15
102
{ACAD_XDICTIONARY
360
4F3
102
}
330
1
100
AcDbSymbolTableRecord
100
AcDbBlockTableRecord
  2
*PAPER_SPACE
  0
ENDTAB
  0
ENDSEC
  0
SECTION
  2
BLOCKS
  0
BLOCK
  5
26
330
18
100
AcDbEntity
  8
0
100
AcDbBlockBegin
  2
*MODEL_SPACE
 70
     0
 10
0.0
 20
0.0
 30
0.0
  3
*MODEL_SPACE
  1

  0
ENDBLK
  5
27
330
18
100
AcDbEntity
  8
0
100
AcDbBlockEnd
  0
BLOCK
  5
24
330
15
100
AcDbEntity
 67
     1
  8
0
100
AcDbBlockBegin
  2
*PAPER_SPACE
 70
     0
 10
0.0
 20
0.0
 30
0.0
  3
*PAPER_SPACE
  1

  0
ENDBLK
  5
25
330
15
100
AcDbEntity
 67
     1
  8
0
100
AcDbBlockEnd
  0
ENDSEC
  0
SECTION
  2
ENTITIES
  0
LWPOLYLINE
  5
332
330
18
100
AcDbEntity
  8
0
100
AcDbPolyline
 90
       59
 70
     1
 43
0.0
 10
2.425400634058467
 20
2.640807515872992
 10
1.330157993371359
 20
2.640807515873007
 10
1.23815799337136
 20
2.548807515873008
 10
0.6716159295351179
 20
2.548807515873008
 10
0.6706159295351167
 20
2.548807515873008
 42
-0.4142135623730887
 10
0.6306159295351175
 20
2.588807515873009
 10
0.6426159295351162
 20
2.588807515873011
 10
0.6426159295351162
 20
2.681807515873014
 42
0.9999999999999998
 10
0.5326159295351168
 20
2.681807515873011
 10
0.5326159295351168
 20
2.588807515873011
 10
0.5446159295351154
 20
2.588807515872971
 42
-0.4142135623721846
 10
0.5046159295352406
 20
2.548807515873029
 10
0.4786159295352355
 20
2.548807515872947
 42
-0.4142135623740055
 10
0.438615929535112
 20
2.588807515872947
 10
0.438615929535112
 20
3.173807515872947
 10
1.873751748438163
 20
3.173807515872946
 10
1.873751748438164
 20
3.081942984605818
 10
2.088751748438161
 20
3.081942984605818
 10
2.088751748438159
 20
2.820833341368599
 42
0.6683085874496026
 10
2.141679934008295
 20
2.79892090933558
 10
2.374849095121753
 20
3.032257703098336
 42
-0.6681786379193035
 10
2.427777278690486
 20
3.010356410498239
 10
2.427801203582113
 20
2.943775678993041
 10
2.377445867773797
 20
2.943757584479437
 42
0.1989123673796643
 10
2.366840845449338
 20
2.939360375141254
 10
2.261276311880095
 20
2.833719947906015
 42
0.6680487039885643
 10
2.28320449745023
 20
2.780807515872995
 10
2.483390532790702
 20
2.780807515872991
 10
2.640361095539176
 20
2.623836953124515
 10
2.640361095539179
 20
2.595552681877052
 10
2.66864536678664
 20
2.595552681877052
 10
2.825615929535116
 20
2.438582119128575
 10
2.825615929535116
 20
2.238666923931058
 42
0.6680487039885682
 10
2.878528361568134
 20
2.216738738360921
 10
2.984033320070513
 20
2.322167900520071
 42
0.1989123673796642
 10
2.988430529408697
 20
2.332772922844528
 10
2.988448623922302
 20
2.383128258652845
 10
3.0550293554275
 20
2.383104333761215
 42
-0.6681786379192908
 10
3.076930648027594
 20
2.330176150192481
 10
2.843593854264839
 20
2.097006989079028
 42
0.668308587449602
 10
2.865506286297857
 20
2.044078803508892
 10
3.126615929535074
 20
2.044078803508892
 10
3.126615929535073
 20
1.829078803508894
 10
3.21861592953507
 20
1.829078803508892
 10
3.218615929535066
 20
0.3938075158729859
 10
2.633615929535066
 20
0.3938075158729877
 42
-0.4142135623740121
 10
2.593615929535067
 20
0.433807515873113
 10
2.593615929535148
 20
0.4598075158731163
 42
-0.4142135623721781
 10
2.633615929535149
 20
0.4998075158729903
 10
2.633615929535087
 20
0.4878075158729907
 10
2.726615929535133
 20
0.4878075158729907
 42
1.0
 10
2.726615929535133
 20
0.5978075158729901
 10
2.63361592953513
 20
0.5978075158729901
 10
2.633615929535122
 20
0.5858075158729932
 42
-0.4142135623730951
 10
2.59361592953513
 20
0.6258075158729924
 10
2.59361592953513
 20
0.6268075158729936
 10
2.593615929535127
 20
1.193349579709234
 10
2.685615929535111
 20
1.285349579709222
 10
2.685615929535115
 20
2.380592220396341
  0
LWPOLYLINE
  5
36F
330
18
100
AcDbEntity
  8
0
100
AcDbPolyline
 90
       18
 70
     1
 43
0.0
 10
0.7326159295351081
 20
2.670307515873016
 10
0.7326159295351089
 20
2.701807515873007
 42
0.4142135623731096
 10
0.6076159295351089
 20
2.826807515873014
 10
0.5596159295351124
 20
2.826807515873014
 42
-0.4142135623731035
 10
0.5286159295351119
 20
2.857807515873012
 10
0.528615929535111
 20
3.083807515872949
 10
1.767751748438163
 20
3.083807515872948
 42
-0.4142135623730984
 10
1.798751748438163
 20
3.052807515872947
 10
1.798751748438163
 20
3.022942984605819
 42
0.4142135623731008
 10
1.829751748438163
 20
2.991942984605819
 10
1.967751748438157
 20
2.991942984605818
 42
-0.4142135623730974
 10
1.998751748438156
 20
2.960942984605818
 10
1.998751748438156
 20
2.763807515872995
 42
-0.4142135623730974
 10
1.967751748438156
 20
2.732807515872995
 10
1.292050345633036
 20
2.732807515873005
 10
1.200050345633035
 20
2.640807515873007
 10
0.7651159295351078
 20
2.638807515873015
 10
0.7641159295351084
 20
2.638807515873015
 42
-0.4142135623731117
  0
LWPOLYLINE
  5
383
330
18
100
AcDbEntity
  8
0
100
AcDbPolyline
 90
       20
 70
     1
 43
0.0
 10
2.683615929535134
 20
0.7193075158729841
 10
2.683615929535134
 20
0.7203075158729835
 10
2.685615929535127
 20
1.155241931970909
 10
2.777615929535128
 20
1.247241931970911
 10
2.777615929535118
 20
1.923078803508891
 42
-0.414213562373102
 10
2.808615929535118
 20
1.954078803508892
 10
3.005615929535072
 20
1.95407880350889
 42
-0.4142135623730956
 10
3.036615929535072
 20
1.923078803508889
 10
3.03661592953507
 20
1.785078803508895
 42
0.4142135623730966
 10
3.06761592953507
 20
1.754078803508895
 10
3.095615929535074
 20
1.754078803508894
 42
-0.4142135623730964
 10
3.126615929535074
 20
1.723078803508894
 10
3.126615929535068
 20
0.5158075158729858
 10
3.126615929535068
 20
0.5148075158729846
 42
-0.4142135623730951
 10
3.095615929535067
 20
0.483807515872984
 10
2.902615929535132
 20
0.4838075158729858
 42
-0.4142135623730951
 10
2.871615929535131
 20
0.5148075158729864
 10
2.871615929535133
 20
0.5628075158729846
 42
0.4142135623731076
 10
2.746615929535127
 20
0.6878075158729846
 10
2.715115929535135
 20
0.6878075158729829
 42
-0.4142135623731035
  0
LINE
  5
444
330
18
100
AcDbEntity
  8
TEXT
100
AcDbLine
 10
1.843682400296263
 20
-0.305394035736505
 30
0.0
 11
1.843682400296263
 21
-0.1640645035573662
 31
0.0
  0
LINE
  5
445
330
18
100
AcDbEntity
  8
TEXT
100
AcDbLine
 10
1.890780558852245
 20
-0.2295287093249669
 30
0.0
 11
1.843682400296263
 21
-0.305394035736505
 31
0.0
  0
LINE
  5
446
330
18
100
AcDbEntity
  8
TEXT
100
AcDbLine
 10
1.90121527561617
 20
-0.3394219522659405
 30
0.0
 11
1.965772391581875
 21
-0.2295287093249669
 31
0.0
  0
TEXT
  5
447
330
18
100
AcDbEntity
  8
TEXT
100
AcDbText
 10
2.148771087079184
 20
-0.3098575067016895
 30
0.0
 40
0.0522247191011236
  1
6536 Main St. N.E. * P.O. Box 32008
 41
0.8388932496075369
 72
     5
 11
3.477703671348848
 21
-0.3098575067016895
 31
0.0
100
AcDbText
  0
ARC
  5
448
330
18
100
AcDbEntity
  8
TEXT
100
AcDbCircle
 10
1.703199427780925
 20
-0.3187112792643951
 30
0.0
 40
0.0249058752826653
100
AcDbArc
 50
89.99971217465335
 51
179.9999999999985
  0
LINE
  5
449
330
18
100
AcDbEntity
  8
TEXT
100
AcDbLine
 10
1.615998661357892
 20
-0.3347406878783943
 30
0.0
 11
1.57224789017599
 21
-0.2524904118822491
 31
0.0
  0
LINE
  5
44A
330
18
100
AcDbEntity
  8
TEXT
100
AcDbLine
 10
1.615998661357892
 20
-0.2295287093249669
 30
0.0
 11
1.615998661357892
 21
-0.3347406878783943
 31
0.0
  0
ARC
  5
44B
330
18
100
AcDbEntity
  8
TEXT
100
AcDbCircle
 10
1.508007824138372
 20
-0.3221647789817297
 30
0.0
 40
0.028359375
100
AcDbArc
 50
25.78218179591245
 51
90.0
  0
LINE
  5
44C
330
18
100
AcDbEntity
  8
TEXT
100
AcDbLine
 10
1.046013362954624
 20
-0.4136139042104788
 30
0.0
 11
1.046013362954624
 21
-0.1615172315861564
 31
0.0
  0
LINE
  5
44D
330
18
100
AcDbEntity
  8
TEXT
100
AcDbLine
 10
1.078325217092285
 20
-0.2295287093249669
 30
0.0
 11
1.078325217092285
 21
-0.4303929160573752
 31
0.0
  0
LINE
  5
44E
330
18
100
AcDbEntity
  8
TEXT
100
AcDbLine
 10
0.9490827375948818
 20
-0.2295287093249669
 30
0.0
 11
0.8903341747890181
 21
-0.3304007054380875
 31
0.0
  0
LINE
  5
44F
330
18
100
AcDbEntity
  8
TEXT
100
AcDbLine
 10
0.8903341747890181
 20
-0.3304007054380875
 30
0.0
 11
0.8317038537570802
 21
-0.2295287093249669
 31
0.0
  0
ARC
  5
450
330
18
100
AcDbEntity
  8
TEXT
100
AcDbCircle
 10
0.5241305298706536
 20
-0.3116161687714687
 30
0.0
 40
0.0820874594465043
100
AcDbArc
 50
90.0
 51
270.0
  0
LWPOLYLINE
  5
451
330
18
100
AcDbEntity
  8
TEXT
100
AcDbPolyline
 90
        2
 70
     0
 43
0.0001332181640625
 10
0.116044196769689
 20
-0.302798699559343
 10
0.1060528344649985
 20
-0.2295287093249634
  0
LWPOLYLINE
  5
452
330
18
100
AcDbEntity
  8
TEXT
100
AcDbPolyline
 90
        2
 70
     0
 43
0.0001332181640625
 10
0.1060528344649985
 20
-0.2561723421374644
 10
0.116044196769689
 20
-0.31612051596559
  0
LWPOLYLINE
  5
453
330
18
100
AcDbEntity
  8
TEXT
100
AcDbPolyline
 90
        2
 70
     0
 43
0.0001332181640625
 10
0.14601828368375
 20
-0.2561723421374644
 10
0.1360269213790612
 20
-0.31612051596559
  0
LWPOLYLINE
  5
454
330
18
100
AcDbEntity
  8
TEXT
100
AcDbPolyline
 90
        2
 70
     0
 43
0.0001332181640625
 10
0.14601828368375
 20
-0.2295287093249634
 10
0.1360269213790612
 20
-0.302798699559343
  0
LWPOLYLINE
  5
455
330
18
100
AcDbEntity
  8
TEXT
100
AcDbPolyline
 90
        3
 70
     0
 43
0.0006660908203125
 10
0.2592537231368759
 20
-0.342764148778091
 10
0.2592537231368759
 20
-0.2295287093249634
 10
0.14601828368375
 20
-0.2295287093249634
  0
LWPOLYLINE
  5
456
330
18
100
AcDbEntity
  8
TEXT
100
AcDbPolyline
 90
        3
 70
     0
 43
0.0006660908203125
 10
0.2326100903243748
 20
-0.342764148778091
 10
0.2326100903243748
 20
-0.2561723421374644
 10
0.14601828368375
 20
-0.2561723421374644
  0
LWPOLYLINE
  5
457
330
18
100
AcDbEntity
  8
TEXT
100
AcDbPolyline
 90
        2
 70
     0
 43
0.0001332181640625
 10
0.2326100903243748
 20
-0.2561723421374644
 10
0.1726619164962511
 20
-0.31612051596559
  0
LWPOLYLINE
  5
458
330
18
100
AcDbEntity
  8
TEXT
100
AcDbPolyline
 90
        2
 70
     0
 43
0.0001332181640625
 10
0.0194610278243737
 20
-0.2561723421374644
 10
0.0794092016524992
 20
-0.31612051596559
  0
LWPOLYLINE
  5
459
330
18
100
AcDbEntity
  8
TEXT
100
AcDbPolyline
 90
        3
 70
     0
 43
0.0006660908203125
 10
0.1060528344649985
 20
-0.2295287093249634
 10
-0.0071826049881238
 20
-0.2295287093249634
 10
-0.0071826049881238
 20
-0.342764148778091
  0
LWPOLYLINE
  5
45A
330
18
100
AcDbEntity
  8
TEXT
100
AcDbPolyline
 90
        3
 70
     0
 43
0.0006660908203125
 10
0.1060528344649985
 20
-0.2561723421374644
 10
0.0194610278243737
 20
-0.2561723421374644
 10
0.0194610278243737
 20
-0.342764148778091
  0
LINE
  5
45B
330
18
100
AcDbEntity
  8
TEXT
100
AcDbLine
 10
0.5949679962292028
 20
-0.3296101255923602
 30
0.0
 11
0.5293678599849017
 21
-0.3296101255923602
 31
0.0
  0
LINE
  5
45C
330
18
100
AcDbEntity
  8
TEXT
100
AcDbLine
 10
0.5241305298706536
 20
-0.393703628217974
 30
0.0
 11
0.5999083701354824
 21
-0.393703628217974
 31
0.0
  0
LINE
  5
45D
330
18
100
AcDbEntity
  8
TEXT
100
AcDbLine
 10
0.4420430704241501
 20
-0.496001742313478
 30
0.0
 11
0.5949679962292028
 21
-0.496001742313478
 31
0.0
  0
LINE
  5
45E
330
18
100
AcDbEntity
  8
TEXT
100
AcDbLine
 10
0.5999083701354824
 20
-0.4276447359800386
 30
0.0
 11
0.4420430704241483
 21
-0.4276447359800386
 31
0.0
  0
LINE
  5
45F
330
18
100
AcDbEntity
  8
TEXT
100
AcDbLine
 10
0.5293678599849017
 20
-0.2938054039817324
 30
0.0
 11
0.6962735140138712
 21
-0.2938054039817324
 31
0.0
  0
LWPOLYLINE
  5
460
330
18
100
AcDbEntity
  8
TEXT
100
AcDbPolyline
 90
        2
 70
     0
 43
0.0006660908203125
 10
0.2326100903243748
 20
-0.342764148778091
 10
0.2592537231368759
 20
-0.342764148778091
  0
LWPOLYLINE
  5
461
330
18
100
AcDbEntity
  8
TEXT
100
AcDbPolyline
 90
        2
 70
     0
 43
0.0001332181640625
 10
0.1859837329024998
 20
-0.3527555110827798
 10
0.2592537231368759
 20
-0.342764148778091
  0
LWPOLYLINE
  5
462
330
18
100
AcDbEntity
  8
TEXT
100
AcDbPolyline
 90
        2
 70
     0
 43
0.0006660908203125
 10
0.2326100903243748
 20
-0.382729597996839
 10
0.2592537231368759
 20
-0.382729597996839
  0
LWPOLYLINE
  5
463
330
18
100
AcDbEntity
  8
TEXT
100
AcDbPolyline
 90
        3
 70
     0
 43
0.0006660908203125
 10
0.14601828368375
 20
-0.4959650374499667
 10
0.2592537231368759
 20
-0.4959650374499667
 10
0.2592537231368759
 20
-0.382729597996839
  0
LWPOLYLINE
  5
464
330
18
100
AcDbEntity
  8
TEXT
100
AcDbPolyline
 90
        2
 70
     0
 43
0.0001332181640625
 10
0.2592537231368759
 20
-0.382729597996839
 10
0.1859837329024998
 20
-0.3727382356921538
  0
LWPOLYLINE
  5
465
330
18
100
AcDbEntity
  8
TEXT
100
AcDbPolyline
 90
        3
 70
     0
 43
0.0006660908203125
 10
-0.0071826049881238
 20
-0.382729597996839
 10
-0.0071826049881238
 20
-0.4959650374499667
 10
0.1060528344649985
 20
-0.4959650374499667
  0
LWPOLYLINE
  5
466
330
18
100
AcDbEntity
  8
TEXT
100
AcDbPolyline
 90
        3
 70
     0
 43
0.0006660908203125
 10
0.0194610278243737
 20
-0.382729597996839
 10
0.0194610278243737
 20
-0.4693214046374657
 10
0.1060528344649985
 20
-0.4693214046374657
  0
LWPOLYLINE
  5
467
330
18
100
AcDbEntity
  8
TEXT
100
AcDbPolyline
 90
        5
 70
     0
 43
0.0001332181640625
 10
0.116044196769689
 20
-0.4226950472155906
 10
0.116044196769689
 20
-0.4093732308093401
 10
0.079409201652501
 20
-0.4093732308093401
 10
0.079409201652501
 20
-0.3727382356921538
 10
0.0660873852462505
 20
-0.3727382356921538
  0
LWPOLYLINE
  5
468
330
18
100
AcDbEntity
  8
TEXT
100
AcDbPolyline
 90
        5
 70
     0
 43
0.0001332181640625
 10
0.0660873852462505
 20
-0.3527555110827798
 10
0.0794092016524992
 20
-0.3527555110827798
 10
0.0794092016524992
 20
-0.31612051596559
 10
0.116044196769689
 20
-0.31612051596559
 10
0.116044196769689
 20
-0.302798699559343
  0
LWPOLYLINE
  5
469
330
18
100
AcDbEntity
  8
TEXT
100
AcDbPolyline
 90
        2
 70
     0
 43
0.0001332181640625
 10
0.0194610278243737
 20
-0.342764148778091
 10
0.0794092016524992
 20
-0.3527555110827798
  0
LWPOLYLINE
  5
46A
330
18
100
AcDbEntity
  8
TEXT
100
AcDbPolyline
 90
        2
 70
     0
 43
0.0001332181640625
 10
-0.0071826049881238
 20
-0.342764148778091
 10
0.0660873852462505
 20
-0.3527555110827798
  0
LWPOLYLINE
  5
46B
330
18
100
AcDbEntity
  8
TEXT
100
AcDbPolyline
 90
        2
 70
     0
 43
0.0006660908203125
 10
0.0194610278243737
 20
-0.342764148778091
 10
-0.0071826049881238
 20
-0.342764148778091
  0
LWPOLYLINE
  5
46C
330
18
100
AcDbEntity
  8
TEXT
100
AcDbPolyline
 90
        2
 70
     0
 43
0.0001332181640625
 10
0.0194610278243737
 20
-0.4693214046374657
 10
0.079409201652501
 20
-0.4093732308093401
  0
LWPOLYLINE
  5
46D
330
18
100
AcDbEntity
  8
TEXT
100
AcDbPolyline
 90
        2
 70
     0
 43
0.0006660908203125
 10
0.0194610278243737
 20
-0.382729597996839
 10
-0.0071826049881238
 20
-0.382729597996839
  0
LWPOLYLINE
  5
46E
330
18
100
AcDbEntity
  8
TEXT
100
AcDbPolyline
 90
        2
 70
     0
 43
0.0001332181640625
 10
0.0660873852462505
 20
-0.3727382356921538
 10
-0.0071826049881238
 20
-0.382729597996839
  0
LWPOLYLINE
  5
46F
330
18
100
AcDbEntity
  8
TEXT
100
AcDbPolyline
 90
        2
 70
     0
 43
0.0001332181640625
 10
0.0194610278243737
 20
-0.382729597996839
 10
0.079409201652501
 20
-0.3727382356921538
  0
LWPOLYLINE
  5
470
330
18
100
AcDbEntity
  8
TEXT
100
AcDbPolyline
 90
        5
 70
     0
 43
0.0001332181640625
 10
0.1360269213790612
 20
-0.302798699559343
 10
0.1360269213790612
 20
-0.31612051596559
 10
0.1726619164962511
 20
-0.31612051596559
 10
0.1726619164962511
 20
-0.3527555110827798
 10
0.1859837329024998
 20
-0.3527555110827798
  0
LWPOLYLINE
  5
471
330
18
100
AcDbEntity
  8
TEXT
100
AcDbPolyline
 90
        2
 70
     0
 43
0.0001332181640625
 10
0.2326100903243748
 20
-0.342764148778091
 10
0.1726619164962511
 20
-0.3527555110827798
  0
LWPOLYLINE
  5
472
330
18
100
AcDbEntity
  8
TEXT
100
AcDbPolyline
 90
        2
 70
     0
 43
0.0006660908203125
 10
0.1060528344649985
 20
-0.4693214046374657
 10
0.1060528344649985
 20
-0.4959650374499667
  0
LWPOLYLINE
  5
473
330
18
100
AcDbEntity
  8
TEXT
100
AcDbPolyline
 90
        2
 70
     0
 43
0.0001332181640625
 10
0.1060528344649985
 20
-0.4693214046374657
 10
0.116044196769689
 20
-0.4093732308093401
  0
LWPOLYLINE
  5
474
330
18
100
AcDbEntity
  8
TEXT
100
AcDbPolyline
 90
        2
 70
     0
 43
0.0001332181640625
 10
0.1060528344649985
 20
-0.4959650374499667
 10
0.116044196769689
 20
-0.4226950472155906
  0
LWPOLYLINE
  5
475
330
18
100
AcDbEntity
  8
TEXT
100
AcDbPolyline
 90
        2
 70
     0
 43
0.0001332181640625
 10
0.14601828368375
 20
-0.4693214046374657
 10
0.1360269213790612
 20
-0.4093732308093401
  0
LWPOLYLINE
  5
476
330
18
100
AcDbEntity
  8
TEXT
100
AcDbPolyline
 90
        2
 70
     0
 43
0.0001332181640625
 10
0.1360269213790612
 20
-0.4226950472155906
 10
0.14601828368375
 20
-0.4959650374499667
  0
LWPOLYLINE
  5
477
330
18
100
AcDbEntity
  8
TEXT
100
AcDbPolyline
 90
        2
 70
     0
 43
0.0006660908203125
 10
0.14601828368375
 20
-0.4693214046374657
 10
0.14601828368375
 20
-0.4959650374499667
  0
LWPOLYLINE
  5
478
330
18
100
AcDbEntity
  8
TEXT
100
AcDbPolyline
 90
        2
 70
     0
 43
0.0001332181640625
 10
0.2326100903243748
 20
-0.4693214046374657
 10
0.1726619164962511
 20
-0.4093732308093401
  0
LWPOLYLINE
  5
479
330
18
100
AcDbEntity
  8
TEXT
100
AcDbPolyline
 90
        3
 70
     0
 43
0.0006660908203125
 10
0.14601828368375
 20
-0.4693214046374657
 10
0.2326100903243748
 20
-0.4693214046374657
 10
0.2326100903243748
 20
-0.382729597996839
  0
LWPOLYLINE
  5
47A
330
18
100
AcDbEntity
  8
TEXT
100
AcDbPolyline
 90
        2
 70
     0
 43
0.0001332181640625
 10
0.2326100903243748
 20
-0.382729597996839
 10
0.1726619164962511
 20
-0.3727382356921538
  0
LWPOLYLINE
  5
47B
330
18
100
AcDbEntity
  8
TEXT
100
AcDbPolyline
 90
        5
 70
     0
 43
0.0001332181640625
 10
0.1859837329024998
 20
-0.3727382356921538
 10
0.1726619164962511
 20
-0.3727382356921538
 10
0.1726619164962511
 20
-0.4093732308093401
 10
0.1360269213790612
 20
-0.4093732308093401
 10
0.1360269213790612
 20
-0.4226950472155906
  0
ARC
  5
47C
330
18
100
AcDbEntity
  8
TEXT
100
AcDbCircle
 10
0.5293678599849017
 20
-0.3117077647870445
 30
0.0
 40
0.017902360805315
100
AcDbArc
 50
90.0
 51
270.0
  0
LINE
  5
47D
330
18
100
AcDbEntity
  8
TEXT
100
AcDbLine
 10
0.4420430704241483
 20
-0.4276447359800386
 30
0.0
 11
0.4420430704241501
 21
-0.496001742313478
 31
0.0
  0
TEXT
  5
47E
330
18
100
AcDbEntity
  8
TEXT
100
AcDbText
 10
2.148771087079184
 20
-0.4963743606342739
 30
0.0
 40
0.0522247191011236
  1
Phone  1-800-328-2495
 41
1.272321428571429
 72
     5
 11
3.477703671348848
 21
-0.4963743606342739
 31
0.0
100
AcDbText
  0
TEXT
  5
47F
330
18
100
AcDbEntity
  8
TEXT
100
AcDbText
 10
2.148771087079184
 20
-0.4031159336679817
 30
0.0
 40
0.0522247191011236
  1
Minneapolis, MN 55432-0008
 41
1.11444212721585
 72
     5
 11
3.477703671348848
 21
-0.4031159336679817
 31
0.0
100
AcDbText
  0
LINE
  5
480
330
18
100
AcDbEntity
  8
TEXT
100
AcDbLine
 10
1.703199427780926
 20
-0.2938054039817324
 30
0.0
 11
1.779847409073482
 21
-0.2938054039817324
 31
0.0
  0
LINE
  5
481
330
18
100
AcDbEntity
  8
TEXT
100
AcDbLine
 10
1.145156270150252
 20
-0.2938054039817324
 30
0.0
 11
1.194991549973401
 21
-0.2938054039817324
 31
0.0
  0
ARC
  5
482
330
18
100
AcDbEntity
  8
TEXT
100
AcDbCircle
 10
0.8466903778798489
 20
-0.4564540200397822
 30
0.0
 40
0.0392772371940762
100
AcDbArc
 50
270.1604552698595
 51
330.0831797321295
  0
ARC
  5
483
330
18
100
AcDbEntity
  8
TEXT
100
AcDbCircle
 10
0.7563895319876242
 20
-0.4362093509754282
 30
0.0
 40
0.0601160179737537
100
AcDbArc
 50
180.0000000000003
 51
264.0521544866073
  0
LINE
  5
484
330
18
100
AcDbEntity
  8
TEXT
100
AcDbLine
 10
0.6962735140138712
 20
-0.2938054039817324
 30
0.0
 11
0.6962735140138712
 21
-0.4362093509754282
 31
0.0
  0
ARC
  5
485
330
18
100
AcDbEntity
  8
TEXT
100
AcDbCircle
 10
0.5999083701354824
 20
-0.4106741820990046
 30
0.0
 40
0.0169705538810321
100
AcDbArc
 50
270.0
 51
90.0
  0
ARC
  5
486
330
18
100
AcDbEntity
  8
TEXT
100
AcDbCircle
 10
0.5949679962292028
 20
-0.4128059339529209
 30
0.0
 40
0.0831958083605586
100
AcDbArc
 50
270.0
 51
90.0
  0
LWPOLYLINE
  5
487
330
18
100
AcDbEntity
  8
TEXT
100
AcDbPolyline
 90
        6
 70
     1
 43
0.0
 10
0.7926839250691274
 20
-0.2938054039817324
 10
0.7623673308489192
 20
-0.2938054039817324
 10
0.7623673308489192
 20
-0.4169164020366268
 42
0.407328721240804
 10
0.7739109820103956
 20
-0.4287353167130128
 10
0.8345326810551263
 20
-0.4287353167130128
 10
0.8519980214624442
 20
-0.3959230876695336
  0
LINE
  5
488
330
18
100
AcDbEntity
  8
TEXT
100
AcDbLine
 10
0.7501601214939769
 20
-0.496001742313478
 30
0.0
 11
0.8468003725689712
 21
-0.4957311032151957
 31
0.0
  0
LWPOLYLINE
  5
489
330
18
100
AcDbEntity
  8
TEXT
100
AcDbPolyline
 90
        2
 70
     0
 43
0.0
 10
0.9780336438855066
 20
-0.4444504000985497
 42
0.3318488747599744
 10
1.047152936450819
 20
-0.496001742313478
 42
-6.868794160588311
  0
LINE
  5
48A
330
18
100
AcDbEntity
  8
TEXT
100
AcDbLine
 10
0.9780336438855066
 20
-0.3116930252731969
 30
0.0
 11
0.9780336438855066
 21
-0.4444504000985532
 31
0.0
  0
LINE
  5
48B
330
18
100
AcDbEntity
  8
TEXT
100
AcDbLine
 10
0.8807339377920619
 20
-0.476043236208465
 30
0.0
 11
0.9780336438855066
 21
-0.3116930252731969
 31
0.0
  0
ARC
  5
48C
330
18
100
AcDbEntity
  8
TEXT
100
AcDbCircle
 10
1.061331580207681
 20
-0.4150111098139498
 30
0.0
 40
0.0153818062434269
100
AcDbArc
 50
174.7883570302258
 51
270.0
  0
LINE
  5
48D
330
18
100
AcDbEntity
  8
TEXT
100
AcDbLine
 10
1.078325217092285
 20
-0.4303929160573752
 30
0.0
 11
1.061331580207681
 21
-0.4303929160573752
 31
0.0
  0
LINE
  5
48E
330
18
100
AcDbEntity
  8
TEXT
100
AcDbLine
 10
1.047152936450817
 20
-0.496001742313478
 30
0.0
 11
1.145156270150252
 21
-0.496001742313478
 31
0.0
  0
LINE
  5
48F
330
18
100
AcDbEntity
  8
TEXT
100
AcDbLine
 10
1.145156270150252
 20
-0.496001742313478
 30
0.0
 11
1.145156270150252
 21
-0.2938054039817324
 31
0.0
  0
LINE
  5
490
330
18
100
AcDbEntity
  8
TEXT
100
AcDbLine
 10
1.508007824138374
 20
-0.2938054039817324
 30
0.0
 11
1.400801550751083
 21
-0.2938054039817324
 31
0.0
  0
LINE
  5
491
330
18
100
AcDbEntity
  8
TEXT
100
AcDbLine
 10
1.46152090965911
 20
-0.3310803774438646
 30
0.0
 11
1.543808899442495
 21
-0.3310803774438646
 31
0.0
  0
LWPOLYLINE
  5
492
330
18
100
AcDbEntity
  8
TEXT
100
AcDbPolyline
 90
        4
 70
     1
 43
0.0
 10
1.556739940725394
 20
-0.3930377643294527
 10
1.468079622065536
 20
-0.3930377643294527
 42
0.9999999999999998
 10
1.468079622065536
 20
-0.4354363048333135
 10
1.556739940725394
 20
-0.4354363048333135
 42
1.0
  0
LWPOLYLINE
  5
493
330
18
100
AcDbEntity
  8
TEXT
100
AcDbPolyline
 90
        2
 70
     0
 43
0.0
 10
1.44284498816391
 20
-0.496001742313478
 10
1.576862405795287
 20
-0.496001742313478
 42
0.9999999999999998
  0
LINE
  5
494
330
18
100
AcDbEntity
  8
TEXT
100
AcDbLine
 10
1.269603385921353
 20
-0.2938054039817324
 30
0.0
 11
1.323736982842305
 21
-0.2938054039817324
 31
0.0
  0
LINE
  5
495
330
18
100
AcDbEntity
  8
TEXT
100
AcDbLine
 10
1.202545339139515
 20
-0.496001742313478
 30
0.0
 11
1.269603385921353
 21
-0.496001742313478
 31
0.0
  0
LINE
  5
496
330
18
100
AcDbEntity
  8
TEXT
100
AcDbLine
 10
1.269603385921353
 20
-0.496001742313478
 30
0.0
 11
1.269603385921353
 21
-0.2938054039817324
 31
0.0
  0
LINE
  5
497
330
18
100
AcDbEntity
  8
TEXT
100
AcDbLine
 10
1.202545339139515
 20
-0.3013591931478423
 30
0.0
 11
1.202545339139515
 21
-0.496001742313478
 31
0.0
  0
LWPOLYLINE
  5
498
330
18
100
AcDbEntity
  8
TEXT
100
AcDbPolyline
 90
        2
 70
     0
 43
0.0
 10
1.1949915499734
 20
-0.2938054039817324
 42
-0.4142135623731017
 10
1.202545339139513
 20
-0.3013591931478423
 42
-0.9999999999999998
  0
LINE
  5
499
330
18
100
AcDbEntity
  8
TEXT
100
AcDbLine
 10
1.400801550751083
 20
-0.2938054039817324
 30
0.0
 11
1.400801550751083
 21
-0.368857810055939
 31
0.0
  0
ARC
  5
49A
330
18
100
AcDbEntity
  8
TEXT
100
AcDbCircle
 10
1.46152090965911
 20
-0.3987659585879832
 30
0.0
 40
0.0676855811441166
100
AcDbArc
 50
90.0
 51
153.7768192527749
  0
LWPOLYLINE
  5
49B
330
18
100
AcDbEntity
  8
TEXT
100
AcDbPolyline
 90
        2
 70
     0
 43
0.0
 10
1.399769055296275
 20
-0.4525107973630398
 42
0.2901071551932823
 10
1.44284498816391
 20
-0.496001742313478
 42
5.328517124445801
  0
LWPOLYLINE
  5
49C
330
18
100
AcDbEntity
  8
TEXT
100
AcDbPolyline
 90
        2
 70
     0
 43
0.0
 10
1.323736982842303
 20
-0.2938054039817324
 42
-0.4142135623731017
 10
1.331290772008417
 20
-0.3013591931478423
 42
-0.9999999999999998
  0
LWPOLYLINE
  5
49D
330
18
100
AcDbEntity
  8
TEXT
100
AcDbPolyline
 90
        4
 70
     0
 43
0.0
 10
1.331290772008417
 20
-0.3013591931478423
 10
1.331290772008417
 20
-0.496001742313478
 10
1.399769055296275
 20
-0.496001742313478
 10
1.399769055296275
 20
-0.4525107973630398
 42
-1.714843617202739
  0
LWPOLYLINE
  5
49E
330
18
100
AcDbEntity
  8
TEXT
100
AcDbPolyline
 90
        2
 70
     0
 43
0.0
 10
1.619938338662931
 20
-0.4525107973630398
 42
-0.2901071551932486
 10
1.576862405795287
 20
-0.496001742313478
 42
-5.328517124445184
  0
LWPOLYLINE
  5
49F
330
18
100
AcDbEntity
  8
TEXT
100
AcDbPolyline
 90
        2
 70
     0
 43
0.0
 10
1.619938338662931
 20
-0.496001742313478
 10
1.678293552498265
 20
-0.496001742313478
  0
LWPOLYLINE
  5
4A0
330
18
100
AcDbEntity
  8
TEXT
100
AcDbPolyline
 90
        2
 70
     0
 43
0.0
 10
1.619938338662931
 20
-0.4525107973630398
 10
1.619938338662931
 20
-0.496001742313478
  0
LINE
  5
4A1
330
18
100
AcDbEntity
  8
TEXT
100
AcDbLine
 10
1.543808899442495
 20
-0.3310803774438646
 30
0.0
 11
1.533544139028929
 21
-0.3098298378711703
 31
0.0
  0
LINE
  5
4A2
330
18
100
AcDbEntity
  8
TEXT
100
AcDbLine
 10
1.678293552498267
 20
-0.496001742313478
 30
0.0
 11
1.67829355249826
 21
-0.3187112368820095
 31
0.0
  0
LINE
  5
4A3
330
18
100
AcDbEntity
  8
TEXT
100
AcDbLine
 10
1.99670749897978
 20
-0.496001742313478
 30
0.0
 11
1.90121527561617
 21
-0.3394219522659405
 31
0.0
  0
LINE
  5
4A4
330
18
100
AcDbEntity
  8
TEXT
100
AcDbLine
 10
1.920129126603573
 20
-0.496001742313478
 30
0.0
 11
1.99670749897978
 21
-0.496001742313478
 31
0.0
  0
LINE
  5
4A5
330
18
100
AcDbEntity
  8
TEXT
100
AcDbLine
 10
1.779847409073489
 20
-0.496001742313478
 30
0.0
 11
1.84422559339211
 21
-0.496001742313478
 31
0.0
  0
LINE
  5
4A6
330
18
100
AcDbEntity
  8
TEXT
100
AcDbLine
 10
1.779847409073482
 20
-0.2938054039817324
 30
0.0
 11
1.779847409073489
 21
-0.496001742313478
 31
0.0
  0
LINE
  5
4A7
330
18
100
AcDbEntity
  8
TEXT
100
AcDbLine
 10
1.84422559339211
 20
-0.3644221738372977
 30
0.0
 11
1.920129126603573
 21
-0.496001742313478
 31
0.0
  0
LINE
  5
4A8
330
18
100
AcDbEntity
  8
TEXT
100
AcDbLine
 10
1.84422559339211
 20
-0.496001742313478
 30
0.0
 11
1.84422559339211
 21
-0.3644221738372977
 31
0.0
  0
LINE
  5
4A9
330
18
100
AcDbEntity
  8
TEXT
100
AcDbLine
 10
0.6998622827691641
 20
-0.2295287093249669
 30
0.0
 11
0.5241305298706536
 21
-0.2295287093249669
 31
0.0
  0
LWPOLYLINE
  5
4AA
330
18
100
AcDbEntity
  8
TEXT
100
AcDbPolyline
 90
        2
 70
     0
 43
0.0006660908203125
 10
0.1060528344649985
 20
-0.2561723421374644
 10
0.1060528344649985
 20
-0.2295287093249634
  0
LWPOLYLINE
  5
4AB
330
18
100
AcDbEntity
  8
TEXT
100
AcDbPolyline
 90
        2
 70
     0
 43
0.0006660908203125
 10
0.14601828368375
 20
-0.2561723421374644
 10
0.14601828368375
 20
-0.2295287093249634
  0
TEXT
  5
4AC
330
18
100
AcDbEntity
  8
TEXT
100
AcDbText
 10
2.148771087079184
 20
-0.2165990797353974
 30
0.0
 40
0.0522247191011236
  1
Stylmark  Incorporated
 41
1.221428571428571
 72
     5
 11
3.477703671348848
 21
-0.2165990797353974
 31
0.0
100
AcDbText
  0
LINE
  5
4AD
330
18
100
AcDbEntity
  8
TEXT
100
AcDbLine
 10
1.775367521746982
 20
-0.2295287093249669
 30
0.0
 11
1.707867804097467
 21
-0.2295287093249669
 31
0.0
  0
TEXT
  5
4AE
330
18
100
AcDbEntity
  8
TEXT
100
AcDbText
 10
0.9824897383526719
 20
-0.0494517179618983
 30
0.0
 40
0.125
  1
PART #110476
  7
ITALICC
 72
     1
 11
1.735465928828862
 21
-0.0494517179618983
 31
0.0
100
AcDbText
  0
LINE
  5
4AF
330
18
100
AcDbEntity
  8
TEXT
100
AcDbLine
 10
1.212343273023421
 20
-0.2295287093249669
 30
0.0
 11
1.078325217092285
 21
-0.2295287093249669
 31
0.0
  0
LINE
  5
4B0
330
18
100
AcDbEntity
  8
TEXT
100
AcDbLine
 10
0.7599048876131711
 20
-0.1951407917308288
 30
0.0
 11
0.6998622827691641
 21
-0.1951407917308288
 31
0.0
  0
LINE
  5
4B1
330
18
100
AcDbEntity
  8
TEXT
100
AcDbLine
 10
0.6998622827691641
 20
-0.1951407917308288
 30
0.0
 11
0.6998622827691641
 21
-0.2295287093249669
 31
0.0
  0
LINE
  5
4B2
330
18
100
AcDbEntity
  8
TEXT
100
AcDbLine
 10
0.8317038537570802
 20
-0.2295287093249669
 30
0.0
 11
0.7599048876131711
 21
-0.2295287093249669
 31
0.0
  0
LINE
  5
4B3
330
18
100
AcDbEntity
  8
TEXT
100
AcDbLine
 10
0.7599048876131711
 20
-0.2295287093249669
 30
0.0
 11
0.7599048876131711
 21
-0.1951407917308288
 31
0.0
  0
LINE
  5
4B4
330
18
100
AcDbEntity
  8
TEXT
100
AcDbLine
 10
1.046013362954624
 20
-0.1615172315861564
 30
0.0
 11
0.9792046503882581
 21
-0.1615172315861564
 31
0.0
  0
LINE
  5
4B5
330
18
100
AcDbEntity
  8
TEXT
100
AcDbLine
 10
0.9792046503882581
 20
-0.2295287093249669
 30
0.0
 11
0.9490827375948818
 21
-0.2295287093249669
 31
0.0
  0
LINE
  5
4B6
330
18
100
AcDbEntity
  8
TEXT
100
AcDbLine
 10
0.9792046503882581
 20
-0.1615172315861564
 30
0.0
 11
0.9792046503882581
 21
-0.2295287093249669
 31
0.0
  0
LINE
  5
4B7
330
18
100
AcDbEntity
  8
TEXT
100
AcDbLine
 10
1.537038722482851
 20
-0.2295287093249669
 30
0.0
 11
1.402206813265792
 21
-0.2295287093249669
 31
0.0
  0
LWPOLYLINE
  5
4B8
330
18
100
AcDbEntity
  8
TEXT
100
AcDbPolyline
 90
        3
 70
     0
 43
0.0
 10
1.366425122552627
 20
-0.2295287093249634
 10
1.248124963736582
 20
-0.2295287093249634
 10
1.248124963736582
 20
-0.2566962060858593
 42
-1.960274751411753
  0
LWPOLYLINE
  5
4B9
330
18
100
AcDbEntity
  8
TEXT
100
AcDbPolyline
 90
        2
 70
     0
 43
0.0
 10
1.212343273023421
 20
-0.2295287093249634
 42
-0.3328679258950098
 10
1.248124963736582
 20
-0.2566962060858593
 42
6.772930709997214
  0
LINE
  5
4BA
330
18
100
AcDbEntity
  8
TEXT
100
AcDbLine
 10
1.402206813265792
 20
-0.2295287093249669
 30
0.0
 11
1.402206813265792
 21
-0.2578512550946108
 31
0.0
  0
LWPOLYLINE
  5
4BB
330
18
100
AcDbEntity
  8
TEXT
100
AcDbPolyline
 90
        2
 70
     0
 43
0.0
 10
1.366425122552627
 20
-0.2295287093249634
 42
-0.3277054968067132
 10
1.402206813265792
 20
-0.2578512550946073
 42
6.667889725900311
  0
LINE
  5
4BC
330
18
100
AcDbEntity
  8
TEXT
100
AcDbLine
 10
1.679895567657393
 20
-0.2295287093249669
 30
0.0
 11
1.615998661357892
 21
-0.2295287093249669
 31
0.0
  0
ARC
  5
4BD
330
18
100
AcDbEntity
  8
TEXT
100
AcDbCircle
 10
1.535011782705783
 20
-0.2711122764458693
 30
0.0
 40
0.0416329381542859
100
AcDbArc
 50
26.56974201007528
 51
87.20939649401342
  0
LINE
  5
4BE
330
18
100
AcDbEntity
  8
TEXT
100
AcDbLine
 10
1.679895567657393
 20
-0.2570763591858416
 30
0.0
 11
1.679895567657393
 21
-0.2295287093249669
 31
0.0
  0
ARC
  5
4BF
330
18
100
AcDbEntity
  8
TEXT
100
AcDbCircle
 10
1.711088384720502
 20
-0.2607744366072318
 30
0.0
 40
0.0314112657011332
100
AcDbArc
 50
95.88484768694724
 51
173.2388340632136
  0
LINE
  5
4C0
330
18
100
AcDbEntity
  8
TEXT
100
AcDbLine
 10
1.965772391581875
 20
-0.2295287093249669
 30
0.0
 11
1.890780558852249
 21
-0.2295287093249669
 31
0.0
  0
LINE
  5
4C1
330
18
100
AcDbEntity
  8
TEXT
100
AcDbLine
 10
1.775367521746989
 20
-0.1640645035573662
 30
0.0
 11
1.775367521746982
 21
-0.2295287093249669
 31
0.0
  0
LINE
  5
4C2
330
18
100
AcDbEntity
  8
TEXT
100
AcDbLine
 10
1.843682400296263
 20
-0.1640645035573662
 30
0.0
 11
1.775367521746989
 21
-0.1640645035573662
 31
0.0
  0
ENDSEC
  0
SECTION
  2
OBJECTS
  0
DICTIONARY
  5
C
330
0
100
AcDbDictionary
  3
ACAD_GROUP
350
D
  3
ACAD_LAYOUT
350
4C7
  3
ACAD_MLINESTYLE
350
E
  3
ACAD_PLOTSETTINGS
350
4C8
  3
ACAD_PLOTSTYLENAME
350
4C5
  3
ACDBHEADERROUNDTRIPXREC
350
4D3
  3
ACDBVARIABLEDICTIONARY
350
4D0
  0
DICTIONARY
  5
4F5
330
18
100
AcDbDictionary
280
     1
  3
ACAD_LAYOUTSELFREF
360
4F6
  0
DICTIONARY
  5
4F3
330
15
100
AcDbDictionary
280
     1
  3
ACAD_LAYOUTSELFREF
360
4F4
  0
DICTIONARY
  5
D
102
{ACAD_REACTORS
330
C
102
}
330
C
100
AcDbDictionary
  0
DICTIONARY
  5
4C7
102
{ACAD_REACTORS
330
C
102
}
330
C
100
AcDbDictionary
  0
DICTIONARY
  5
E
102
{ACAD_REACTORS
330
C
102
}
330
C
100
AcDbDictionary
  3
STANDARD
350
1B
  0
DICTIONARY
  5
4C8
102
{ACAD_REACTORS
330
C
102
}
330
C
100
AcDbDictionary
  0
ACDBDICTIONARYWDFLT
  5
4C5
102
{ACAD_REACTORS
330
C
102
}
330
C
100
AcDbDictionary
281
     1
  3
Normal
350
4C6
100
AcDbDictionaryWithDefault
340
4C6
  0
DICTIONARY
  5
4D3
102
{ACAD_REACTORS
330
C
102
}
330
C
100
AcDbDictionary
  3
CEPSNTYPE
350
4DD
  3
FINGERPRINTGUID
350
4DE
  3
HYPERLINKBASE
350
4D6
  3
INSUNITS
350
4DC
  3
LAYOUTDICT
350
4D8
  3
LWETCUNION
350
4DB
  3
PLOTSETDICT
350
4D9
  3
PLOTSTYLNAMDICT
350
4DA
  3
PSVPSCALE
350
4E0
  3
PUCSBASE
350
4E3
  3
PUCSORGBACK
350
4E9
  3
PUCSORGBOTTOM
350
4E5
  3
PUCSORGFRONT
350
4E8
  3
PUCSORGLEFT
350
4E6
  3
PUCSORGRIGHT
350
4E7
  3
PUCSORGTOP
350
4E4
  3
PUCSORTHOREF
350
4E1
  3
PUCSORTHOVIEW
350
4E2
  3
STYLESHEET
350
4D7
  3
TSTACKALIGN
350
4D4
  3
TSTACKSIZE
350
4D5
  3
UCSBASE
350
4EC
  3
UCSORGBACK
350
4F2
  3
UCSORGBOTTOM
350
4EE
  3
UCSORGFRONT
350
4F1
  3
UCSORGLEFT
350
4EF
  3
UCSORGRIGHT
350
4F0
  3
UCSORGTOP
350
4ED
  3
UCSORTHOREF
350
4EA
  3
UCSORTHOVIEW
350
4EB
  3
VERSIONGUID
350
4DF
  0
DICTIONARY
  5
4D0
102
{ACAD_REACTORS
330
C
102
}
330
C
100
AcDbDictionary
  3
DIMASSOC
350
4D1
  0
XRECORD
  5
4F6
102
{ACAD_REACTORS
330
4F5
102
}
330
4F5
100
AcDbXrecord
340
18
  0
XRECORD
  5
4F4
102
{ACAD_REACTORS
330
4F3
102
}
330
4F3
100
AcDbXrecord
340
15
  0
MLINESTYLE
  5
1B
102
{ACAD_REACTORS
330
E
102
}
330
E
100
AcDbMlineStyle
  2
STANDARD
 70
     0
  3

 62
     0
 51
90.0
 52
90.0
 71
     2
 49
0.5
 62
   256
  6
BYLAYER
 49
-0.5
 62
   256
  6
BYLAYER
  0
ACDBPLACEHOLDER
  5
4C6
102
{ACAD_REACTORS
330
4C5
102
}
330
4C5
100
AcDbPlaceHolder
280
     0
  0
XRECORD
  5
4DD
102
{ACAD_REACTORS
330
4D3
102
}
330
4D3
100
AcDbXrecord
 90
        0
  0
XRECORD
  5
4DE
102
{ACAD_REACTORS
330
4D3
102
}
330
4D3
100
AcDbXrecord
  1
{AC7C5710-8DB7-11D6-88E6-0090279574E7}
  0
XRECORD
  5
4D6
102
{ACAD_REACTORS
330
4D3
102
}
330
4D3
100
AcDbXrecord
  1

  0
XRECORD
  5
4DC
102
{ACAD_REACTORS
330
4D3
102
}
330
4D3
100
AcDbXrecord
 90
        0
  0
XRECORD
  5
4D8
102
{ACAD_REACTORS
330
4D3
102
}
330
4D3
100
AcDbXrecord
340
4C7
  0
XRECORD
  5
4DB
102
{ACAD_REACTORS
330
4D3
102
}
330
4D3
100
AcDbXrecord
 90
    14877
  0
XRECORD
  5
4D9
102
{ACAD_REACTORS
330
4D3
102
}
330
4D3
100
AcDbXrecord
340
4C8
  0
XRECORD
  5
4DA
102
{ACAD_REACTORS
330
4D3
102
}
330
4D3
100
AcDbXrecord
340
4C5
  0
XRECORD
  5
4E0
102
{ACAD_REACTORS
330
4D3
102
}
330
4D3
100
AcDbXrecord
 40
0.0
  0
XRECORD
  5
4E3
102
{ACAD_REACTORS
330
4D3
102
}
330
4D3
100
AcDbXrecord
340
0
  0
XRECORD
  5
4E9
102
{ACAD_REACTORS
330
4D3
102
}
330
4D3
100
AcDbXrecord
 10
0.0
 20
0.0
 30
0.0
  0
XRECORD
  5
4E5
102
{ACAD_REACTORS
330
4D3
102
}
330
4D3
100
AcDbXrecord
 10
0.0
 20
0.0
 30
0.0
  0
XRECORD
  5
4E8
102
{ACAD_REACTORS
330
4D3
102
}
330
4D3
100
AcDbXrecord
 10
0.0
 20
0.0
 30
0.0
  0
XRECORD
  5
4E6
102
{ACAD_REACTORS
330
4D3
102
}
330
4D3
100
AcDbXrecord
 10
0.0
 20
0.0
 30
0.0
  0
XRECORD
  5
4E7
102
{ACAD_REACTORS
330
4D3
102
}
330
4D3
100
AcDbXrecord
 10
0.0
 20
0.0
 30
0.0
  0
XRECORD
  5
4E4
102
{ACAD_REACTORS
330
4D3
102
}
330
4D3
100
AcDbXrecord
 10
0.0
 20
0.0
 30
0.0
  0
XRECORD
  5
4E1
102
{ACAD_REACTORS
330
4D3
102
}
330
4D3
100
AcDbXrecord
340
0
  0
XRECORD
  5
4E2
102
{ACAD_REACTORS
330
4D3
102
}
330
4D3
100
AcDbXrecord
 70
     0
  0
XRECORD
  5
4D7
102
{ACAD_REACTORS
330
4D3
102
}
330
4D3
100
AcDbXrecord
  1

  0
XRECORD
  5
4D4
102
{ACAD_REACTORS
330
4D3
102
}
330
4D3
100
AcDbXrecord
 90
        1
  0
XRECORD
  5
4D5
102
{ACAD_REACTORS
330
4D3
102
}
330
4D3
100
AcDbXrecord
 90
       70
  0
XRECORD
  5
4EC
102
{ACAD_REACTORS
330
4D3
102
}
330
4D3
100
AcDbXrecord
340
0
  0
XRECORD
  5
4F2
102
{ACAD_REACTORS
330
4D3
102
}
330
4D3
100
AcDbXrecord
 10
0.0
 20
0.0
 30
0.0
  0
XRECORD
  5
4EE
102
{ACAD_REACTORS
330
4D3
102
}
330
4D3
100
AcDbXrecord
 10
0.0
 20
0.0
 30
0.0
  0
XRECORD
  5
4F1
102
{ACAD_REACTORS
330
4D3
102
}
330
4D3
100
AcDbXrecord
 10
0.0
 20
0.0
 30
0.0
  0
XRECORD
  5
4EF
102
{ACAD_REACTORS
330
4D3
102
}
330
4D3
100
AcDbXrecord
 10
0.0
 20
0.0
 30
0.0
  0
XRECORD
  5
4F0
102
{ACAD_REACTORS
330
4D3
102
}
330
4D3
100
AcDbXrecord
 10
0.0
 20
0.0
 30
0.0
  0
XRECORD
  5
4ED
102
{ACAD_REACTORS
330
4D3
102
}
330
4D3
100
AcDbXrecord
 10
0.0
 20
0.0
 30
0.0
  0
XRECORD
  5
4EA
102
{ACAD_REACTORS
330
4D3
102
}
330
4D3
100
AcDbXrecord
340
0
  0
XRECORD
  5
4EB
102
{ACAD_REACTORS
330
4D3
102
}
330
4D3
100
AcDbXrecord
 70
     0
  0
XRECORD
  5
4DF
102
{ACAD_REACTORS
330
4D3
102
}
330
4D3
100
AcDbXrecord
  1
{AC7C5712-8DB7-11D6-88E6-0090279574E7}
  0
DICTIONARYVAR
  5
4D1
102
{ACAD_REACTORS
330
4D0
102
}
330
4D0
100
DictionaryVariables
280
     0
  1
1
  0
ENDSEC
  0
EOF
