  0
SECTION
  2
HEADER
  9
$ACADVER
  1
AC1014
  9
$ACADMAINTVER
 70
     9
  9
$DWGCODEPAGE
  3
ANSI_1252
  9
$INSBASE
 10
0.0
 20
0.0
 30
0.0
  9
$EXTMIN
 10
-0.7267082879937674
 20
-0.0317193348229956
 30
0.0
  9
$EXTMAX
 10
2.758511033753361
 20
2.276100236356402
 30
0.0
  9
$LIMMIN
 10
0.0
 20
0.0
  9
$LIMMAX
 10
18.0
 20
12.0
  9
$ORTHOMODE
 70
     0
  9
$REGENMODE
 70
     1
  9
$FILLMODE
 70
     1
  9
$QTEXTMODE
 70
     0
  9
$MIRRTEXT
 70
     0
  9
$DRAGMODE
 70
     2
  9
$LTSCALE
 40
1.0
  9
$OSMODE
 70
    39
  9
$ATTMODE
 70
     1
  9
$TEXTSIZE
 40
0.125
  9
$TRACEWID
 40
0.05
  9
$TEXTSTYLE
  7
ROMANS
  9
$CLAYER
  8
0
  9
$CELTYPE
  6
BYLAYER
  9
$CECOLOR
 62
   256
  9
$CELTSCALE
 40
1.0
  9
$DELOBJ
 70
     1
  9
$DISPSILH
 70
     1
  9
$DIMSCALE
 40
1.0
  9
$DIMASZ
 40
0.125
  9
$DIMEXO
 40
0.125
  9
$DIMDLI
 40
0.375
  9
$DIMRND
 40
0.0
  9
$DIMDLE
 40
0.0
  9
$DIMEXE
 40
0.125
  9
$DIMTP
 40
0.01
  9
$DIMTM
 40
0.01
  9
$DIMTXT
 40
0.125
  9
$DIMCEN
 40
-0.125
  9
$DIMTSZ
 40
0.0
  9
$DIMTOL
 70
     0
  9
$DIMLIM
 70
     1
  9
$DIMTIH
 70
     1
  9
$DIMTOH
 70
     1
  9
$DIMSE1
 70
     0
  9
$DIMSE2
 70
     0
  9
$DIMTAD
 70
     0
  9
$DIMZIN
 70
     4
  9
$DIMBLK
  1

  9
$DIMASO
 70
     1
  9
$DIMSHO
 70
     1
  9
$DIMPOST
  1

  9
$DIMAPOST
  1

  9
$DIMALT
 70
     0
  9
$DIMALTD
 70
     2
  9
$DIMALTF
 40
25.4
  9
$DIMLFAC
 40
0.5
  9
$DIMTOFL
 70
     0
  9
$DIMTVP
 40
0.0
  9
$DIMTIX
 70
     0
  9
$DIMSOXD
 70
     0
  9
$DIMSAH
 70
     0
  9
$DIMBLK1
  1

  9
$DIMBLK2
  1

  9
$DIMSTYLE
  2
STANDARD
  9
$DIMCLRD
 70
     0
  9
$DIMCLRE
 70
     0
  9
$DIMCLRT
 70
     0
  9
$DIMTFAC
 40
1.0
  9
$DIMGAP
 40
0.09
  9
$DIMJUST
 70
     0
  9
$DIMSD1
 70
     0
  9
$DIMSD2
 70
     0
  9
$DIMTOLJ
 70
     1
  9
$DIMTZIN
 70
     0
  9
$DIMALTZ
 70
     0
  9
$DIMALTTZ
 70
     0
  9
$DIMFIT
 70
     3
  9
$DIMUPT
 70
     0
  9
$DIMUNIT
 70
     2
  9
$DIMDEC
 70
     3
  9
$DIMTDEC
 70
     4
  9
$DIMALTU
 70
     2
  9
$DIMALTTD
 70
     2
  9
$DIMTXSTY
  7
ROMANS
  9
$DIMAUNIT
 70
     0
  9
$LUNITS
 70
     2
  9
$LUPREC
 70
     3
  9
$SKETCHINC
 40
0.1
  9
$FILLETRAD
 40
0.0
  9
$AUNITS
 70
     0
  9
$AUPREC
 70
     0
  9
$MENU
  1
acad
  9
$ELEVATION
 40
0.0
  9
$PELEVATION
 40
0.0
  9
$THICKNESS
 40
0.0
  9
$LIMCHECK
 70
     0
  9
$BLIPMODE
 70
     0
  9
$CHAMFERA
 40
0.045
  9
$CHAMFERB
 40
0.045
  9
$CHAMFERC
 40
0.0
  9
$CHAMFERD
 40
0.0
  9
$SKPOLY
 70
     0
  9
$TDCREATE
 40
2449091.559674768
  9
$TDUPDATE
 40
2452458.313674513
  9
$TDINDWG
 40
0.0027198264
  9
$TDUSRTIMER
 40
0.0027198264
  9
$USRTIMER
 70
     1
  9
$ANGBASE
 50
0.0
  9
$ANGDIR
 70
     0
  9
$PDMODE
 70
     0
  9
$PDSIZE
 40
0.0
  9
$PLINEWID
 40
0.0
  9
$COORDS
 70
     2
  9
$SPLFRAME
 70
     0
  9
$SPLINETYPE
 70
     6
  9
$SPLINESEGS
 70
     8
  9
$ATTDIA
 70
     0
  9
$ATTREQ
 70
     1
  9
$HANDLING
 70
 22529
  9
$HANDSEED
  5
455
  9
$SURFTAB1
 70
     6
  9
$SURFTAB2
 70
     6
  9
$SURFTYPE
 70
     6
  9
$SURFU
 70
     6
  9
$SURFV
 70
     6
  9
$UCSNAME
  2

  9
$UCSORG
 10
0.0
 20
0.0
 30
0.0
  9
$UCSXDIR
 10
1.0
 20
0.0
 30
0.0
  9
$UCSYDIR
 10
0.0
 20
1.0
 30
0.0
  9
$PUCSNAME
  2

  9
$PUCSORG
 10
0.0
 20
0.0
 30
0.0
  9
$PUCSXDIR
 10
1.0
 20
0.0
 30
0.0
  9
$PUCSYDIR
 10
0.0
 20
1.0
 30
0.0
  9
$USERI1
 70
     0
  9
$USERI2
 70
     0
  9
$USERI3
 70
     0
  9
$USERI4
 70
     0
  9
$USERI5
 70
     0
  9
$USERR1
 40
0.0
  9
$USERR2
 40
0.0
  9
$USERR3
 40
0.0
  9
$USERR4
 40
0.0
  9
$USERR5
 40
0.0
  9
$WORLDVIEW
 70
     1
  9
$SHADEDGE
 70
     3
  9
$SHADEDIF
 70
    70
  9
$TILEMODE
 70
     1
  9
$MAXACTVP
 70
    16
  9
$PINSBASE
 10
0.0
 20
0.0
 30
0.0
  9
$PLIMCHECK
 70
     0
  9
$PEXTMIN
 10
1.000000000000000E+20
 20
1.000000000000000E+20
 30
1.000000000000000E+20
  9
$PEXTMAX
 10
-1.000000000000000E+20
 20
-1.000000000000000E+20
 30
-1.000000000000000E+20
  9
$PLIMMIN
 10
0.0
 20
0.0
  9
$PLIMMAX
 10
12.0
 20
9.0
  9
$UNITMODE
 70
     0
  9
$VISRETAIN
 70
     0
  9
$PLINEGEN
 70
     1
  9
$PSLTSCALE
 70
     0
  9
$TREEDEPTH
 70
  3020
  9
$PICKSTYLE
 70
     1
  9
$CMLSTYLE
  2
STANDARD
  9
$CMLJUST
 70
     0
  9
$CMLSCALE
 40
1.0
  9
$PROXYGRAPHICS
 70
     1
  9
$MEASUREMENT
 70
     0
  0
ENDSEC
  0
SECTION
  2
CLASSES
  0
CLASS
  1
LWPOLYLINE
  2
AcDbPolyline
  3
AutoCAD 2000
 90
        0
280
     0
281
     1
  0
CLASS
  1
ACDBDICTIONARYWDFLT
  2
AcDbDictionaryWithDefault
  3
AutoCAD 2000
 90
        0
280
     0
281
     0
  0
CLASS
  1
ACDBPLACEHOLDER
  2
AcDbPlaceHolder
  3
AutoCAD 2000
 90
        0
280
     0
281
     0
  0
CLASS
  1
LAYOUT
  2
AcDbLayout
  3
AutoCAD 2000
 90
        0
280
     0
281
     0
  0
CLASS
  1
DICTIONARYVAR
  2
AcDbDictionaryVar
  3
AutoCAD 2000
 90
        0
280
     0
281
     0
  0
CLASS
  1
LONG_TRANSACTION
  2
AcDbLongTransaction
  3
AutoCAD 2000
 90
        0
280
     0
281
     0
  0
CLASS
  1
LWPOLYLINE
  2
AcDbPolyline
  3
AutoCAD 2000
 90
        0
280
     0
281
     1
  0
CLASS
  1
HATCH
  2
AcDbHatch
  3
AutoCAD 2000
 90
        0
280
     0
281
     1
  0
CLASS
  1
XRECORD
  2
AcDbXrecord
  3
AutoCAD 2000
 90
        0
280
     0
281
     0
  0
ENDSEC
  0
SECTION
  2
TABLES
  0
TABLE
  2
VPORT
  5
8
330
0
100
AcDbSymbolTable
 70
     2
  0
VPORT
  5
430
330
8
100
AcDbSymbolTableRecord
100
AcDbViewportTableRecord
  2
*ACTIVE
 70
     0
 10
0.0
 20
0.0
 11
1.0
 21
1.0
 12
4.162019999679436
 22
1.121919546378883
 13
0.0
 23
0.0
 14
0.15
 24
0.15
 15
0.25
 25
0.25
 16
0.0
 26
0.0
 36
1.0
 17
0.0
 27
0.0
 37
0.0
 40
2.329205721511658
 41
4.320930232558139
 42
50.0
 43
0.0
 44
0.0
 50
0.0
 51
0.0
 71
     0
 72
  2000
 73
     1
 74
     1
 75
     0
 76
     0
 77
     0
 78
     0
  0
ENDTAB
  0
TABLE
  2
LTYPE
  5
5
330
0
100
AcDbSymbolTable
 70
     1
  0
LTYPE
  5
12
330
5
100
AcDbSymbolTableRecord
100
AcDbLinetypeTableRecord
  2
BYBLOCK
 70
     0
  3

 72
    65
 73
     0
 40
0.0
  0
LTYPE
  5
13
330
5
100
AcDbSymbolTableRecord
100
AcDbLinetypeTableRecord
  2
BYLAYER
 70
     0
  3

 72
    65
 73
     0
 40
0.0
  0
LTYPE
  5
14
330
5
100
AcDbSymbolTableRecord
100
AcDbLinetypeTableRecord
  2
CONTINUOUS
 70
     0
  3
Solid line
 72
    65
 73
     0
 40
0.0
  0
ENDTAB
  0
TABLE
  2
LAYER
  5
2
330
0
100
AcDbSymbolTable
 70
     2
  0
LAYER
  5
F
330
2
100
AcDbSymbolTableRecord
100
AcDbLayerTableRecord
  2
0
 70
     0
 62
     7
  6
CONTINUOUS
  0
LAYER
  5
22
330
2
100
AcDbSymbolTableRecord
100
AcDbLayerTableRecord
  2
TEXT
 70
     0
 62
     3
  6
CONTINUOUS
  0
ENDTAB
  0
TABLE
  2
STYLE
  5
3
330
0
100
AcDbSymbolTable
 70
     3
  0
STYLE
  5
10
330
3
100
AcDbSymbolTableRecord
100
AcDbTextStyleTableRecord
  2
STANDARD
 70
     0
 40
0.0
 41
1.0
 50
0.0
 71
     0
 42
0.125
  3
txt
  4

  0
STYLE
  5
31C
330
3
100
AcDbSymbolTableRecord
100
AcDbTextStyleTableRecord
  2
ITALICC
 70
     0
 40
0.0
 41
1.0
 50
0.0
 71
     0
 42
0.125
  3
italicc
  4

  0
STYLE
  5
42C
330
3
100
AcDbSymbolTableRecord
100
AcDbTextStyleTableRecord
  2
ROMANS
 70
     0
 40
0.0
 41
1.0
 50
0.0
 71
     0
 42
0.125
  3
romans.shx
  4

  0
ENDTAB
  0
TABLE
  2
VIEW
  5
6
330
0
100
AcDbSymbolTable
 70
     0
  0
ENDTAB
  0
TABLE
  2
UCS
  5
7
330
0
100
AcDbSymbolTable
 70
     0
  0
ENDTAB
  0
TABLE
  2
APPID
  5
9
330
0
100
AcDbSymbolTable
 70
     1
  0
APPID
  5
11
330
9
100
AcDbSymbolTableRecord
100
AcDbRegAppTableRecord
  2
ACAD
 70
     0
  0
ENDTAB
  0
TABLE
  2
DIMSTYLE
  5
A
330
0
100
AcDbSymbolTable
 70
     1
  0
DIMSTYLE
105
312
330
A
100
AcDbSymbolTableRecord
100
AcDbDimStyleTableRecord
  2
STANDARD
 70
     0
  3

  4

  5

  6

  7

 40
1.0
 41
0.18
 42
0.0625
 43
0.38
 44
0.18
 45
0.0
 46
0.0
 47
0.0
 48
0.0
140
0.18
141
0.09
142
0.0
143
25.4
144
1.0
145
0.0
146
1.0
147
0.09
 71
     0
 72
     0
 73
     1
 74
     1
 75
     0
 76
     0
 77
     0
 78
     0
170
     0
171
     2
172
     0
173
     0
174
     0
175
     0
176
     0
177
     0
178
     0
270
     2
271
     4
272
     4
273
     2
274
     2
340
10
275
     0
280
     0
281
     0
282
     0
283
     1
284
     0
285
     0
286
     0
287
     3
288
     0
  0
ENDTAB
  0
TABLE
  2
BLOCK_RECORD
  5
1
330
0
100
AcDbSymbolTable
 70
     0
  0
BLOCK_RECORD
  5
18
102
{ACAD_XDICTIONARY
360
453
102
}
330
1
100
AcDbSymbolTableRecord
100
AcDbBlockTableRecord
  2
*MODEL_SPACE
  0
BLOCK_RECORD
  5
15
102
{ACAD_XDICTIONARY
360
451
102
}
330
1
100
AcDbSymbolTableRecord
100
AcDbBlockTableRecord
  2
*PAPER_SPACE
  0
ENDTAB
  0
ENDSEC
  0
SECTION
  2
BLOCKS
  0
BLOCK
  5
27
330
18
100
AcDbEntity
  8
0
100
AcDbBlockBegin
  2
*MODEL_SPACE
 70
     0
 10
0.0
 20
0.0
 30
0.0
  3
*MODEL_SPACE
  1

  0
ENDBLK
  5
28
330
18
100
AcDbEntity
  8
0
100
AcDbBlockEnd
  0
BLOCK
  5
25
330
15
100
AcDbEntity
 67
     1
  8
0
100
AcDbBlockBegin
  2
*PAPER_SPACE
 70
     0
 10
0.0
 20
0.0
 30
0.0
  3
*PAPER_SPACE
  1

  0
ENDBLK
  5
26
330
15
100
AcDbEntity
 67
     1
  8
0
100
AcDbBlockEnd
  0
ENDSEC
  0
SECTION
  2
ENTITIES
  0
LWPOLYLINE
  5
2A7
330
18
100
AcDbEntity
  8
0
100
AcDbPolyline
 90
       49
 70
     0
 43
0.0
 10
1.563733512768525
 20
1.90239787383678
 10
1.549591377144792
 20
1.90239787383678
 10
1.274173285872631
 20
2.177815965108942
 10
0.8338667200485843
 20
2.177815965108937
 42
0.4142135623730931
 10
0.8188667200485838
 20
2.162815965108939
 10
0.8188667200485856
 20
1.995815965108941
 42
-0.4142135623730966
 10
0.787866720048585
 20
1.96481596510894
 10
0.7260799234841815
 20
1.96481596510894
 10
0.6404733217663821
 20
1.879209363391141
 42
-0.6681786379192988
 10
0.6148667200485849
 20
1.889815965108939
 10
0.6148667200485849
 20
1.96481596510894
 10
0.521866720048585
 20
1.96481596510894
 10
0.521866720048585
 20
2.227815965108941
 42
-0.4142135623730953
 10
0.5618667200485841
 20
2.267815965108939
 10
0.5878667200485839
 20
2.26781596510894
 42
-0.4142135623730948
 10
0.6278667200485848
 20
2.22781596510894
 10
0.6158667200485844
 20
2.22781596510894
 10
0.6158667200485862
 20
2.134815965108941
 42
1.0
 10
0.7258667200485838
 20
2.13481596510894
 10
0.7258667200485838
 20
2.22781596510894
 10
0.7138667200485851
 20
2.227815965108939
 42
-0.4142135623730951
 10
0.7538667200485843
 20
2.267815965108939
 10
1.401452506486211
 20
2.26781596510894
 10
1.401452506486211
 20
2.177815965108941
 10
1.627373123075311
 20
1.951895348519839
 10
1.853293739664415
 20
1.725974731930737
 10
1.943293739664415
 20
1.725974731930737
 10
1.943293739664415
 20
1.07838894549311
 42
-0.4142135623730953
 10
1.903293739664416
 20
1.03838894549311
 10
1.903293739664416
 20
1.050388945493109
 10
1.810293739664416
 20
1.050388945493109
 42
1.0
 10
1.810293739664416
 20
0.9403889454931103
 10
1.903293739664416
 20
0.94038894549311
 10
1.903293739664416
 20
0.9523889454931095
 42
-0.4142135623730949
 10
1.943293739664415
 20
0.9123889454931113
 10
1.943293739664415
 20
0.8863889454931097
 42
-0.4142135623730953
 10
1.903293739664416
 20
0.8463889454931097
 10
1.640293739664417
 20
0.8463889454931106
 10
1.640293739664417
 20
0.9393889454931105
 10
1.565293739664418
 20
0.9393889454931105
 42
-0.6681786379192988
 10
1.554687137946616
 20
0.9649955472109086
 10
1.640293739664417
 20
1.050602148928707
 10
1.640293739664417
 20
1.112388945493109
 42
-0.4142135623730936
 10
1.671293739664416
 20
1.143388945493109
 10
1.838293739664414
 20
1.14338894549311
 42
0.414213562373093
 10
1.853293739664415
 20
1.15838894549311
 10
1.853293739664413
 20
1.598695511317159
 10
1.577875648392253
 20
1.874113602589318
 10
1.577875648392255
 20
1.888255738213049
  0
LINE
  5
3A2
330
18
100
AcDbEntity
  8
TEXT
100
AcDbLine
 10
1.124489762700775
 20
0.1703569514849796
 30
0.0
 11
1.124489762700775
 21
0.3116864836641184
 31
0.0
  0
LINE
  5
3A3
330
18
100
AcDbEntity
  8
TEXT
100
AcDbLine
 10
1.171587921256758
 20
0.2462222778965177
 30
0.0
 11
1.124489762700775
 21
0.1703569514849796
 31
0.0
  0
LINE
  5
3A4
330
18
100
AcDbEntity
  8
TEXT
100
AcDbLine
 10
1.182022638020683
 20
0.1363290349555442
 30
0.0
 11
1.246579753986388
 21
0.2462222778965177
 31
0.0
  0
TEXT
  5
3A5
330
18
100
AcDbEntity
  8
TEXT
100
AcDbText
 10
1.429578449483697
 20
0.1658934805197951
 30
0.0
 40
0.0522247191011236
  1
6536 Main St. N.E. * P.O. Box 32008
 41
0.8388932496075355
 72
     5
 11
2.758511033753361
 21
0.1658934805197951
 31
0.0
100
AcDbText
  0
ARC
  5
3A6
330
18
100
AcDbEntity
  8
TEXT
100
AcDbCircle
 10
0.9840067901854379
 20
0.1570397079570895
 30
0.0
 40
0.0249058752826653
100
AcDbArc
 50
89.99971217465335
 51
179.9999999999985
  0
LINE
  5
3A7
330
18
100
AcDbEntity
  8
TEXT
100
AcDbLine
 10
0.8968060237624051
 20
0.1410102993430904
 30
0.0
 11
0.8530552525805035
 21
0.2232605753392356
 31
0.0
  0
LINE
  5
3A8
330
18
100
AcDbEntity
  8
TEXT
100
AcDbLine
 10
0.8968060237624051
 20
0.2462222778965177
 30
0.0
 11
0.8968060237624051
 21
0.1410102993430904
 31
0.0
  0
ARC
  5
3A9
330
18
100
AcDbEntity
  8
TEXT
100
AcDbCircle
 10
0.7888151865428857
 20
0.153586208239755
 30
0.0
 40
0.028359375
100
AcDbArc
 50
25.78218179591245
 51
90.0
  0
LINE
  5
3AA
330
18
100
AcDbEntity
  8
TEXT
100
AcDbLine
 10
0.3268207253591377
 20
0.062137083011006
 30
0.0
 11
0.3268207253591377
 21
0.3142337556353283
 31
0.0
  0
LINE
  5
3AB
330
18
100
AcDbEntity
  8
TEXT
100
AcDbLine
 10
0.3591325794967979
 20
0.2462222778965177
 30
0.0
 11
0.3591325794967979
 21
0.0453580711641095
 31
0.0
  0
LINE
  5
3AC
330
18
100
AcDbEntity
  8
TEXT
100
AcDbLine
 10
0.2298900999993947
 20
0.2462222778965177
 30
0.0
 11
0.171141537193531
 21
0.1453502817833971
 31
0.0
  0
LINE
  5
3AD
330
18
100
AcDbEntity
  8
TEXT
100
AcDbLine
 10
0.171141537193531
 20
0.1453502817833971
 30
0.0
 11
0.1125112161615931
 21
0.2462222778965177
 31
0.0
  0
ARC
  5
3AE
330
18
100
AcDbEntity
  8
TEXT
100
AcDbCircle
 10
-0.1950621077248336
 20
0.164134818450016
 30
0.0
 40
0.0820874594465043
100
AcDbArc
 50
90.0
 51
270.0
  0
LWPOLYLINE
  5
3AF
330
18
100
AcDbEntity
  8
TEXT
100
AcDbPolyline
 90
        2
 70
     0
 43
0.0001332181640625
 10
-0.6031484408257981
 20
0.1729522876621417
 10
-0.6131398031304887
 20
0.2462222778965213
  0
LWPOLYLINE
  5
3B0
330
18
100
AcDbEntity
  8
TEXT
100
AcDbPolyline
 90
        2
 70
     0
 43
0.0001332181640625
 10
-0.6131398031304887
 20
0.2195786450840202
 10
-0.6031484408257981
 20
0.1596304712558947
  0
LWPOLYLINE
  5
3B1
330
18
100
AcDbEntity
  8
TEXT
100
AcDbPolyline
 90
        2
 70
     0
 43
0.0001332181640625
 10
-0.5731743539117371
 20
0.2195786450840202
 10
-0.5831657162164259
 20
0.1596304712558947
  0
LWPOLYLINE
  5
3B2
330
18
100
AcDbEntity
  8
TEXT
100
AcDbPolyline
 90
        2
 70
     0
 43
0.0001332181640625
 10
-0.5731743539117371
 20
0.2462222778965213
 10
-0.5831657162164259
 20
0.1729522876621417
  0
LWPOLYLINE
  5
3B3
330
18
100
AcDbEntity
  8
TEXT
100
AcDbPolyline
 90
        3
 70
     0
 43
0.0006660908203125
 10
-0.4599389144586113
 20
0.1329868384433936
 10
-0.4599389144586113
 20
0.2462222778965213
 10
-0.5731743539117371
 20
0.2462222778965213
  0
LWPOLYLINE
  5
3B4
330
18
100
AcDbEntity
  8
TEXT
100
AcDbPolyline
 90
        3
 70
     0
 43
0.0006660908203125
 10
-0.4865825472711123
 20
0.1329868384433936
 10
-0.4865825472711123
 20
0.2195786450840202
 10
-0.5731743539117371
 20
0.2195786450840202
  0
LWPOLYLINE
  5
3B5
330
18
100
AcDbEntity
  8
TEXT
100
AcDbPolyline
 90
        2
 70
     0
 43
0.0001332181640625
 10
-0.4865825472711123
 20
0.2195786450840202
 10
-0.5465307210992361
 20
0.1596304712558947
  0
LWPOLYLINE
  5
3B6
330
18
100
AcDbEntity
  8
TEXT
100
AcDbPolyline
 90
        2
 70
     0
 43
0.0001332181640625
 10
-0.6997316097711135
 20
0.2195786450840202
 10
-0.639783435942988
 20
0.1596304712558947
  0
LWPOLYLINE
  5
3B7
330
18
100
AcDbEntity
  8
TEXT
100
AcDbPolyline
 90
        3
 70
     0
 43
0.0006660908203125
 10
-0.6131398031304887
 20
0.2462222778965213
 10
-0.726375242583611
 20
0.2462222778965213
 10
-0.726375242583611
 20
0.1329868384433936
  0
LWPOLYLINE
  5
3B8
330
18
100
AcDbEntity
  8
TEXT
100
AcDbPolyline
 90
        3
 70
     0
 43
0.0006660908203125
 10
-0.6131398031304887
 20
0.2195786450840202
 10
-0.6997316097711135
 20
0.2195786450840202
 10
-0.6997316097711135
 20
0.1329868384433936
  0
LINE
  5
3B9
330
18
100
AcDbEntity
  8
TEXT
100
AcDbLine
 10
-0.1242246413662844
 20
0.1461408616291244
 30
0.0
 11
-0.1898247776105855
 21
0.1461408616291244
 31
0.0
  0
LINE
  5
3BA
330
18
100
AcDbEntity
  8
TEXT
100
AcDbLine
 10
-0.1950621077248336
 20
0.0820473590035107
 30
0.0
 11
-0.1192842674600048
 21
0.0820473590035107
 31
0.0
  0
LINE
  5
3BB
330
18
100
AcDbEntity
  8
TEXT
100
AcDbLine
 10
-0.2771495671713371
 20
-0.0202507550919933
 30
0.0
 11
-0.1242246413662844
 21
-0.0202507550919933
 31
0.0
  0
LINE
  5
3BC
330
18
100
AcDbEntity
  8
TEXT
100
AcDbLine
 10
-0.1192842674600048
 20
0.0481062512414461
 30
0.0
 11
-0.2771495671713389
 21
0.0481062512414461
 31
0.0
  0
LINE
  5
3BD
330
18
100
AcDbEntity
  8
TEXT
100
AcDbLine
 10
-0.1898247776105855
 20
0.1819455832397523
 30
0.0
 11
-0.022919123581616
 21
0.1819455832397523
 31
0.0
  0
LWPOLYLINE
  5
3BE
330
18
100
AcDbEntity
  8
TEXT
100
AcDbPolyline
 90
        2
 70
     0
 43
0.0006660908203125
 10
-0.4865825472711123
 20
0.1329868384433936
 10
-0.4599389144586113
 20
0.1329868384433936
  0
LWPOLYLINE
  5
3BF
330
18
100
AcDbEntity
  8
TEXT
100
AcDbPolyline
 90
        2
 70
     0
 43
0.0001332181640625
 10
-0.5332089046929874
 20
0.1229954761387049
 10
-0.4599389144586113
 20
0.1329868384433936
  0
LWPOLYLINE
  5
3C0
330
18
100
AcDbEntity
  8
TEXT
100
AcDbPolyline
 90
        2
 70
     0
 43
0.0006660908203125
 10
-0.4865825472711123
 20
0.0930213892246457
 10
-0.4599389144586113
 20
0.0930213892246457
  0
LWPOLYLINE
  5
3C1
330
18
100
AcDbEntity
  8
TEXT
100
AcDbPolyline
 90
        3
 70
     0
 43
0.0006660908203125
 10
-0.5731743539117371
 20
-0.020214050228482
 10
-0.4599389144586113
 20
-0.020214050228482
 10
-0.4599389144586113
 20
0.0930213892246457
  0
LWPOLYLINE
  5
3C2
330
18
100
AcDbEntity
  8
TEXT
100
AcDbPolyline
 90
        2
 70
     0
 43
0.0001332181640625
 10
-0.4599389144586113
 20
0.0930213892246457
 10
-0.5332089046929874
 20
0.1030127515293309
  0
LWPOLYLINE
  5
3C3
330
18
100
AcDbEntity
  8
TEXT
100
AcDbPolyline
 90
        3
 70
     0
 43
0.0006660908203125
 10
-0.726375242583611
 20
0.0930213892246457
 10
-0.726375242583611
 20
-0.020214050228482
 10
-0.6131398031304887
 20
-0.020214050228482
  0
LWPOLYLINE
  5
3C4
330
18
100
AcDbEntity
  8
TEXT
100
AcDbPolyline
 90
        3
 70
     0
 43
0.0006660908203125
 10
-0.6997316097711135
 20
0.0930213892246457
 10
-0.6997316097711135
 20
0.006429582584019
 10
-0.6131398031304887
 20
0.006429582584019
  0
LWPOLYLINE
  5
3C5
330
18
100
AcDbEntity
  8
TEXT
100
AcDbPolyline
 90
        5
 70
     0
 43
0.0001332181640625
 10
-0.6031484408257981
 20
0.0530559400058941
 10
-0.6031484408257981
 20
0.0663777564121446
 10
-0.6397834359429862
 20
0.0663777564121446
 10
-0.6397834359429862
 20
0.1030127515293309
 10
-0.6531052523492367
 20
0.1030127515293309
  0
LWPOLYLINE
  5
3C6
330
18
100
AcDbEntity
  8
TEXT
100
AcDbPolyline
 90
        5
 70
     0
 43
0.0001332181640625
 10
-0.6531052523492367
 20
0.1229954761387049
 10
-0.639783435942988
 20
0.1229954761387049
 10
-0.639783435942988
 20
0.1596304712558947
 10
-0.6031484408257981
 20
0.1596304712558947
 10
-0.6031484408257981
 20
0.1729522876621417
  0
LWPOLYLINE
  5
3C7
330
18
100
AcDbEntity
  8
TEXT
100
AcDbPolyline
 90
        2
 70
     0
 43
0.0001332181640625
 10
-0.6997316097711135
 20
0.1329868384433936
 10
-0.639783435942988
 20
0.1229954761387049
  0
LWPOLYLINE
  5
3C8
330
18
100
AcDbEntity
  8
TEXT
100
AcDbPolyline
 90
        2
 70
     0
 43
0.0001332181640625
 10
-0.726375242583611
 20
0.1329868384433936
 10
-0.6531052523492367
 20
0.1229954761387049
  0
LWPOLYLINE
  5
3C9
330
18
100
AcDbEntity
  8
TEXT
100
AcDbPolyline
 90
        2
 70
     0
 43
0.0006660908203125
 10
-0.6997316097711135
 20
0.1329868384433936
 10
-0.726375242583611
 20
0.1329868384433936
  0
LWPOLYLINE
  5
3CA
330
18
100
AcDbEntity
  8
TEXT
100
AcDbPolyline
 90
        2
 70
     0
 43
0.0001332181640625
 10
-0.6997316097711135
 20
0.006429582584019
 10
-0.6397834359429862
 20
0.0663777564121446
  0
LWPOLYLINE
  5
3CB
330
18
100
AcDbEntity
  8
TEXT
100
AcDbPolyline
 90
        2
 70
     0
 43
0.0006660908203125
 10
-0.6997316097711135
 20
0.0930213892246457
 10
-0.726375242583611
 20
0.0930213892246457
  0
LWPOLYLINE
  5
3CC
330
18
100
AcDbEntity
  8
TEXT
100
AcDbPolyline
 90
        2
 70
     0
 43
0.0001332181640625
 10
-0.6531052523492367
 20
0.1030127515293309
 10
-0.726375242583611
 20
0.0930213892246457
  0
LWPOLYLINE
  5
3CD
330
18
100
AcDbEntity
  8
TEXT
100
AcDbPolyline
 90
        2
 70
     0
 43
0.0001332181640625
 10
-0.6997316097711135
 20
0.0930213892246457
 10
-0.6397834359429862
 20
0.1030127515293309
  0
LWPOLYLINE
  5
3CE
330
18
100
AcDbEntity
  8
TEXT
100
AcDbPolyline
 90
        5
 70
     0
 43
0.0001332181640625
 10
-0.5831657162164259
 20
0.1729522876621417
 10
-0.5831657162164259
 20
0.1596304712558947
 10
-0.5465307210992361
 20
0.1596304712558947
 10
-0.5465307210992361
 20
0.1229954761387049
 10
-0.5332089046929874
 20
0.1229954761387049
  0
LWPOLYLINE
  5
3CF
330
18
100
AcDbEntity
  8
TEXT
100
AcDbPolyline
 90
        2
 70
     0
 43
0.0001332181640625
 10
-0.4865825472711123
 20
0.1329868384433936
 10
-0.5465307210992361
 20
0.1229954761387049
  0
LWPOLYLINE
  5
3D0
330
18
100
AcDbEntity
  8
TEXT
100
AcDbPolyline
 90
        2
 70
     0
 43
0.0006660908203125
 10
-0.6131398031304887
 20
0.006429582584019
 10
-0.6131398031304887
 20
-0.020214050228482
  0
LWPOLYLINE
  5
3D1
330
18
100
AcDbEntity
  8
TEXT
100
AcDbPolyline
 90
        2
 70
     0
 43
0.0001332181640625
 10
-0.6131398031304887
 20
0.006429582584019
 10
-0.6031484408257981
 20
0.0663777564121446
  0
LWPOLYLINE
  5
3D2
330
18
100
AcDbEntity
  8
TEXT
100
AcDbPolyline
 90
        2
 70
     0
 43
0.0001332181640625
 10
-0.6131398031304887
 20
-0.020214050228482
 10
-0.6031484408257981
 20
0.0530559400058941
  0
LWPOLYLINE
  5
3D3
330
18
100
AcDbEntity
  8
TEXT
100
AcDbPolyline
 90
        2
 70
     0
 43
0.0001332181640625
 10
-0.5731743539117371
 20
0.006429582584019
 10
-0.5831657162164259
 20
0.0663777564121446
  0
LWPOLYLINE
  5
3D4
330
18
100
AcDbEntity
  8
TEXT
100
AcDbPolyline
 90
        2
 70
     0
 43
0.0001332181640625
 10
-0.5831657162164259
 20
0.0530559400058941
 10
-0.5731743539117371
 20
-0.020214050228482
  0
LWPOLYLINE
  5
3D5
330
18
100
AcDbEntity
  8
TEXT
100
AcDbPolyline
 90
        2
 70
     0
 43
0.0006660908203125
 10
-0.5731743539117371
 20
0.006429582584019
 10
-0.5731743539117371
 20
-0.020214050228482
  0
LWPOLYLINE
  5
3D6
330
18
100
AcDbEntity
  8
TEXT
100
AcDbPolyline
 90
        2
 70
     0
 43
0.0001332181640625
 10
-0.4865825472711123
 20
0.006429582584019
 10
-0.5465307210992361
 20
0.0663777564121446
  0
LWPOLYLINE
  5
3D7
330
18
100
AcDbEntity
  8
TEXT
100
AcDbPolyline
 90
        3
 70
     0
 43
0.0006660908203125
 10
-0.5731743539117371
 20
0.006429582584019
 10
-0.4865825472711123
 20
0.006429582584019
 10
-0.4865825472711123
 20
0.0930213892246457
  0
LWPOLYLINE
  5
3D8
330
18
100
AcDbEntity
  8
TEXT
100
AcDbPolyline
 90
        2
 70
     0
 43
0.0001332181640625
 10
-0.4865825472711123
 20
0.0930213892246457
 10
-0.5465307210992361
 20
0.1030127515293309
  0
LWPOLYLINE
  5
3D9
330
18
100
AcDbEntity
  8
TEXT
100
AcDbPolyline
 90
        5
 70
     0
 43
0.0001332181640625
 10
-0.5332089046929874
 20
0.1030127515293309
 10
-0.5465307210992361
 20
0.1030127515293309
 10
-0.5465307210992361
 20
0.0663777564121446
 10
-0.5831657162164259
 20
0.0663777564121446
 10
-0.5831657162164259
 20
0.0530559400058941
  0
ARC
  5
3DA
330
18
100
AcDbEntity
  8
TEXT
100
AcDbCircle
 10
-0.1898247776105855
 20
0.1640432224344401
 30
0.0
 40
0.017902360805315
100
AcDbArc
 50
90.0
 51
270.0
  0
LINE
  5
3DB
330
18
100
AcDbEntity
  8
TEXT
100
AcDbLine
 10
-0.2771495671713389
 20
0.0481062512414461
 30
0.0
 11
-0.2771495671713371
 21
-0.0202507550919933
 31
0.0
  0
TEXT
  5
3DC
330
18
100
AcDbEntity
  8
TEXT
100
AcDbText
 10
1.429578449483697
 20
-0.0206233734127892
 30
0.0
 40
0.0522247191011236
  1
Phone  1-800-328-2495
 41
1.272321428571429
 72
     5
 11
2.758511033753361
 21
-0.0206233734127892
 31
0.0
100
AcDbText
  0
TEXT
  5
3DD
330
18
100
AcDbEntity
  8
TEXT
100
AcDbText
 10
1.429578449483697
 20
0.072635053553503
 30
0.0
 40
0.0522247191011236
  1
Minneapolis, MN 55432-0008
 41
1.11444212721585
 72
     5
 11
2.758511033753361
 21
0.072635053553503
 31
0.0
100
AcDbText
  0
LINE
  5
3DE
330
18
100
AcDbEntity
  8
TEXT
100
AcDbLine
 10
0.9840067901854396
 20
0.1819455832397523
 30
0.0
 11
1.060654771477995
 21
0.1819455832397523
 31
0.0
  0
LINE
  5
3DF
330
18
100
AcDbEntity
  8
TEXT
100
AcDbLine
 10
0.4259636325547654
 20
0.1819455832397523
 30
0.0
 11
0.4757989123779148
 21
0.1819455832397523
 31
0.0
  0
ARC
  5
3E0
330
18
100
AcDbEntity
  8
TEXT
100
AcDbCircle
 10
0.1274977402843618
 20
0.0192969671817025
 30
0.0
 40
0.0392772371940762
100
AcDbArc
 50
270.1604552698595
 51
330.0831797321295
  0
ARC
  5
3E1
330
18
100
AcDbEntity
  8
TEXT
100
AcDbCircle
 10
0.037196894392137
 20
0.0395416362460566
 30
0.0
 40
0.0601160179737537
100
AcDbArc
 50
180.0000000000003
 51
264.0521544866073
  0
LINE
  5
3E2
330
18
100
AcDbEntity
  8
TEXT
100
AcDbLine
 10
-0.022919123581616
 20
0.1819455832397523
 30
0.0
 11
-0.022919123581616
 21
0.0395416362460566
 31
0.0
  0
ARC
  5
3E3
330
18
100
AcDbEntity
  8
TEXT
100
AcDbCircle
 10
-0.1192842674600048
 20
0.0650768051224802
 30
0.0
 40
0.0169705538810321
100
AcDbArc
 50
270.0
 51
90.0
  0
ARC
  5
3E4
330
18
100
AcDbEntity
  8
TEXT
100
AcDbCircle
 10
-0.1242246413662844
 20
0.0629450532685638
 30
0.0
 40
0.0831958083605586
100
AcDbArc
 50
270.0
 51
90.0
  0
LWPOLYLINE
  5
3E5
330
18
100
AcDbEntity
  8
TEXT
100
AcDbPolyline
 90
        6
 70
     1
 43
0.0
 10
0.0734912874736402
 20
0.1819455832397523
 10
0.0431746932534321
 20
0.1819455832397523
 10
0.0431746932534321
 20
0.058834585184858
 42
0.407328721240804
 10
0.0547183444149084
 20
0.0470156705084719
 10
0.1153400434596392
 20
0.0470156705084719
 10
0.1328053838669572
 20
0.079827899551951
  0
LINE
  5
3E6
330
18
100
AcDbEntity
  8
TEXT
100
AcDbLine
 10
0.0309674838984897
 20
-0.0202507550919933
 30
0.0
 11
0.1276077349734841
 21
-0.019980115993711
 31
0.0
  0
LWPOLYLINE
  5
3E7
330
18
100
AcDbEntity
  8
TEXT
100
AcDbPolyline
 90
        2
 70
     0
 43
0.0
 10
0.2588410062900195
 20
0.0313005871229351
 42
0.3318488747599744
 10
0.3279602988553325
 20
-0.0202507550919933
 42
-6.868794160588311
  0
LINE
  5
3E8
330
18
100
AcDbEntity
  8
TEXT
100
AcDbLine
 10
0.2588410062900195
 20
0.1640579619482878
 30
0.0
 11
0.2588410062900195
 21
0.0313005871229315
 31
0.0
  0
LINE
  5
3E9
330
18
100
AcDbEntity
  8
TEXT
100
AcDbLine
 10
0.1615413001965749
 20
-0.0002922489869803
 30
0.0
 11
0.2588410062900195
 21
0.1640579619482878
 31
0.0
  0
ARC
  5
3EA
330
18
100
AcDbEntity
  8
TEXT
100
AcDbCircle
 10
0.3421389426121948
 20
0.060739877407535
 30
0.0
 40
0.0153818062434269
100
AcDbArc
 50
174.7883570302258
 51
270.0
  0
LINE
  5
3EB
330
18
100
AcDbEntity
  8
TEXT
100
AcDbLine
 10
0.3591325794967979
 20
0.0453580711641095
 30
0.0
 11
0.3421389426121948
 21
0.0453580711641095
 31
0.0
  0
LINE
  5
3EC
330
18
100
AcDbEntity
  8
TEXT
100
AcDbLine
 10
0.3279602988553307
 20
-0.0202507550919933
 30
0.0
 11
0.4259636325547654
 21
-0.0202507550919933
 31
0.0
  0
LINE
  5
3ED
330
18
100
AcDbEntity
  8
TEXT
100
AcDbLine
 10
0.4259636325547654
 20
-0.0202507550919933
 30
0.0
 11
0.4259636325547654
 21
0.1819455832397523
 31
0.0
  0
LINE
  5
3EE
330
18
100
AcDbEntity
  8
TEXT
100
AcDbLine
 10
0.7888151865428874
 20
0.1819455832397523
 30
0.0
 11
0.6816089131555963
 21
0.1819455832397523
 31
0.0
  0
LINE
  5
3EF
330
18
100
AcDbEntity
  8
TEXT
100
AcDbLine
 10
0.7423282720636238
 20
0.14467060977762
 30
0.0
 11
0.8246162618470087
 21
0.14467060977762
 31
0.0
  0
LWPOLYLINE
  5
3F0
330
18
100
AcDbEntity
  8
TEXT
100
AcDbPolyline
 90
        4
 70
     1
 43
0.0
 10
0.8375473031299076
 20
0.082713222892032
 10
0.7488869844700492
 20
0.082713222892032
 42
0.9999999999999998
 10
0.7488869844700492
 20
0.0403146823881713
 10
0.8375473031299076
 20
0.0403146823881713
 42
1.0
  0
LWPOLYLINE
  5
3F1
330
18
100
AcDbEntity
  8
TEXT
100
AcDbPolyline
 90
        2
 70
     0
 43
0.0
 10
0.7236523505684236
 20
-0.0202507550919933
 10
0.8576697681998002
 20
-0.0202507550919933
 42
0.9999999999999998
  0
LINE
  5
3F2
330
18
100
AcDbEntity
  8
TEXT
100
AcDbLine
 10
0.5504107483258665
 20
0.1819455832397523
 30
0.0
 11
0.6045443452468185
 21
0.1819455832397523
 31
0.0
  0
LINE
  5
3F3
330
18
100
AcDbEntity
  8
TEXT
100
AcDbLine
 10
0.4833527015440282
 20
-0.0202507550919933
 30
0.0
 11
0.5504107483258665
 21
-0.0202507550919933
 31
0.0
  0
LINE
  5
3F4
330
18
100
AcDbEntity
  8
TEXT
100
AcDbLine
 10
0.5504107483258665
 20
-0.0202507550919933
 30
0.0
 11
0.5504107483258665
 21
0.1819455832397523
 31
0.0
  0
LINE
  5
3F5
330
18
100
AcDbEntity
  8
TEXT
100
AcDbLine
 10
0.4833527015440282
 20
0.1743917940736424
 30
0.0
 11
0.4833527015440282
 21
-0.0202507550919933
 31
0.0
  0
LWPOLYLINE
  5
3F6
330
18
100
AcDbEntity
  8
TEXT
100
AcDbPolyline
 90
        2
 70
     0
 43
0.0
 10
0.475798912377913
 20
0.1819455832397523
 42
-0.4142135623731017
 10
0.4833527015440265
 20
0.1743917940736424
 42
-0.9999999999999998
  0
LINE
  5
3F7
330
18
100
AcDbEntity
  8
TEXT
100
AcDbLine
 10
0.6816089131555963
 20
0.1819455832397523
 30
0.0
 11
0.6816089131555963
 21
0.1068931771655457
 31
0.0
  0
ARC
  5
3F8
330
18
100
AcDbEntity
  8
TEXT
100
AcDbCircle
 10
0.7423282720636238
 20
0.0769850286335014
 30
0.0
 40
0.0676855811441166
100
AcDbArc
 50
90.0
 51
153.7768192527749
  0
LWPOLYLINE
  5
3F9
330
18
100
AcDbEntity
  8
TEXT
100
AcDbPolyline
 90
        2
 70
     0
 43
0.0
 10
0.6805764177007881
 20
0.0232401898584449
 42
0.2901071551932823
 10
0.7236523505684236
 20
-0.0202507550919933
 42
5.328517124445801
  0
LWPOLYLINE
  5
3FA
330
18
100
AcDbEntity
  8
TEXT
100
AcDbPolyline
 90
        2
 70
     0
 43
0.0
 10
0.6045443452468167
 20
0.1819455832397523
 42
-0.4142135623731017
 10
0.6120981344129302
 20
0.1743917940736424
 42
-0.9999999999999998
  0
LWPOLYLINE
  5
3FB
330
18
100
AcDbEntity
  8
TEXT
100
AcDbPolyline
 90
        4
 70
     0
 43
0.0
 10
0.6120981344129302
 20
0.1743917940736424
 10
0.6120981344129302
 20
-0.0202507550919933
 10
0.6805764177007881
 20
-0.0202507550919933
 10
0.6805764177007881
 20
0.0232401898584449
 42
-1.714843617202739
  0
LWPOLYLINE
  5
3FC
330
18
100
AcDbEntity
  8
TEXT
100
AcDbPolyline
 90
        2
 70
     0
 43
0.0
 10
0.9007457010674446
 20
0.0232401898584449
 42
-0.2901071551932486
 10
0.8576697681998002
 20
-0.0202507550919933
 42
-5.328517124445184
  0
LWPOLYLINE
  5
3FD
330
18
100
AcDbEntity
  8
TEXT
100
AcDbPolyline
 90
        2
 70
     0
 43
0.0
 10
0.9007457010674446
 20
-0.0202507550919933
 10
0.9591009149027787
 20
-0.0202507550919933
  0
LWPOLYLINE
  5
3FE
330
18
100
AcDbEntity
  8
TEXT
100
AcDbPolyline
 90
        2
 70
     0
 43
0.0
 10
0.9007457010674446
 20
0.0232401898584449
 10
0.9007457010674446
 20
-0.0202507550919933
  0
LINE
  5
3FF
330
18
100
AcDbEntity
  8
TEXT
100
AcDbLine
 10
0.8246162618470087
 20
0.14467060977762
 30
0.0
 11
0.8143515014334425
 21
0.1659211493503143
 31
0.0
  0
LINE
  5
400
330
18
100
AcDbEntity
  8
TEXT
100
AcDbLine
 10
0.9591009149027804
 20
-0.0202507550919933
 30
0.0
 11
0.9591009149027733
 21
0.1570397503394751
 31
0.0
  0
LINE
  5
401
330
18
100
AcDbEntity
  8
TEXT
100
AcDbLine
 10
1.277514861384293
 20
-0.0202507550919933
 30
0.0
 11
1.182022638020683
 21
0.1363290349555442
 31
0.0
  0
LINE
  5
402
330
18
100
AcDbEntity
  8
TEXT
100
AcDbLine
 10
1.200936489008086
 20
-0.0202507550919933
 30
0.0
 11
1.277514861384293
 21
-0.0202507550919933
 31
0.0
  0
LINE
  5
403
330
18
100
AcDbEntity
  8
TEXT
100
AcDbLine
 10
1.060654771478002
 20
-0.0202507550919933
 30
0.0
 11
1.125032955796623
 21
-0.0202507550919933
 31
0.0
  0
LINE
  5
404
330
18
100
AcDbEntity
  8
TEXT
100
AcDbLine
 10
1.060654771477995
 20
0.1819455832397523
 30
0.0
 11
1.060654771478002
 21
-0.0202507550919933
 31
0.0
  0
LINE
  5
405
330
18
100
AcDbEntity
  8
TEXT
100
AcDbLine
 10
1.125032955796623
 20
0.111328813384187
 30
0.0
 11
1.200936489008086
 21
-0.0202507550919933
 31
0.0
  0
LINE
  5
406
330
18
100
AcDbEntity
  8
TEXT
100
AcDbLine
 10
1.125032955796623
 20
-0.0202507550919933
 30
0.0
 11
1.125032955796623
 21
0.111328813384187
 31
0.0
  0
LINE
  5
407
330
18
100
AcDbEntity
  8
TEXT
100
AcDbLine
 10
-0.0193303548263231
 20
0.2462222778965177
 30
0.0
 11
-0.1950621077248336
 21
0.2462222778965177
 31
0.0
  0
LWPOLYLINE
  5
408
330
18
100
AcDbEntity
  8
TEXT
100
AcDbPolyline
 90
        2
 70
     0
 43
0.0006660908203125
 10
-0.6131398031304887
 20
0.2195786450840202
 10
-0.6131398031304887
 20
0.2462222778965213
  0
LWPOLYLINE
  5
409
330
18
100
AcDbEntity
  8
TEXT
100
AcDbPolyline
 90
        2
 70
     0
 43
0.0006660908203125
 10
-0.5731743539117371
 20
0.2195786450840202
 10
-0.5731743539117371
 20
0.2462222778965213
  0
TEXT
  5
40A
330
18
100
AcDbEntity
  8
TEXT
100
AcDbText
 10
1.429578449483697
 20
0.2591519074860873
 30
0.0
 40
0.0522247191011236
  1
Stylmark  Incorporated
 41
1.221428571428571
 72
     5
 11
2.758511033753361
 21
0.2591519074860873
 31
0.0
100
AcDbText
  0
LINE
  5
40B
330
18
100
AcDbEntity
  8
TEXT
100
AcDbLine
 10
1.056174884151495
 20
0.2462222778965177
 30
0.0
 11
0.9886751665019808
 21
0.2462222778965177
 31
0.0
  0
TEXT
  5
40C
330
18
100
AcDbEntity
  8
TEXT
100
AcDbText
 10
0.2603209102809943
 20
0.4262992692595864
 30
0.0
 40
0.125
  1
PART #110475
  7
ITALICC
 72
     1
 11
1.016273291233375
 21
0.4262992692595864
 31
0.0
100
AcDbText
  0
LINE
  5
40D
330
18
100
AcDbEntity
  8
TEXT
100
AcDbLine
 10
0.4931506354279343
 20
0.2462222778965177
 30
0.0
 11
0.3591325794967979
 21
0.2462222778965177
 31
0.0
  0
LINE
  5
40E
330
18
100
AcDbEntity
  8
TEXT
100
AcDbLine
 10
0.040712250017684
 20
0.2806101954906559
 30
0.0
 11
-0.0193303548263231
 21
0.2806101954906559
 31
0.0
  0
LINE
  5
40F
330
18
100
AcDbEntity
  8
TEXT
100
AcDbLine
 10
-0.0193303548263231
 20
0.2806101954906559
 30
0.0
 11
-0.0193303548263231
 21
0.2462222778965177
 31
0.0
  0
LINE
  5
410
330
18
100
AcDbEntity
  8
TEXT
100
AcDbLine
 10
0.1125112161615931
 20
0.2462222778965177
 30
0.0
 11
0.040712250017684
 21
0.2462222778965177
 31
0.0
  0
LINE
  5
411
330
18
100
AcDbEntity
  8
TEXT
100
AcDbLine
 10
0.040712250017684
 20
0.2462222778965177
 30
0.0
 11
0.040712250017684
 21
0.2806101954906559
 31
0.0
  0
LINE
  5
412
330
18
100
AcDbEntity
  8
TEXT
100
AcDbLine
 10
0.3268207253591377
 20
0.3142337556353283
 30
0.0
 11
0.260012012792771
 21
0.3142337556353283
 31
0.0
  0
LINE
  5
413
330
18
100
AcDbEntity
  8
TEXT
100
AcDbLine
 10
0.260012012792771
 20
0.2462222778965177
 30
0.0
 11
0.2298900999993947
 21
0.2462222778965177
 31
0.0
  0
LINE
  5
414
330
18
100
AcDbEntity
  8
TEXT
100
AcDbLine
 10
0.260012012792771
 20
0.3142337556353283
 30
0.0
 11
0.260012012792771
 21
0.2462222778965177
 31
0.0
  0
LINE
  5
415
330
18
100
AcDbEntity
  8
TEXT
100
AcDbLine
 10
0.817846084887364
 20
0.2462222778965177
 30
0.0
 11
0.683014175670305
 21
0.2462222778965177
 31
0.0
  0
LWPOLYLINE
  5
416
330
18
100
AcDbEntity
  8
TEXT
100
AcDbPolyline
 90
        3
 70
     0
 43
0.0
 10
0.6472324849571401
 20
0.2462222778965213
 10
0.5289323261410957
 20
0.2462222778965213
 10
0.5289323261410957
 20
0.2190547811356254
 42
-1.960274751411753
  0
LWPOLYLINE
  5
417
330
18
100
AcDbEntity
  8
TEXT
100
AcDbPolyline
 90
        2
 70
     0
 43
0.0
 10
0.4931506354279343
 20
0.2462222778965213
 42
-0.3328679258950098
 10
0.5289323261410957
 20
0.2190547811356254
 42
6.772930709997214
  0
LINE
  5
418
330
18
100
AcDbEntity
  8
TEXT
100
AcDbLine
 10
0.683014175670305
 20
0.2462222778965177
 30
0.0
 11
0.683014175670305
 21
0.2178997321268739
 31
0.0
  0
LWPOLYLINE
  5
419
330
18
100
AcDbEntity
  8
TEXT
100
AcDbPolyline
 90
        2
 70
     0
 43
0.0
 10
0.6472324849571401
 20
0.2462222778965213
 42
-0.3277054968067132
 10
0.683014175670305
 20
0.2178997321268774
 42
6.667889725900311
  0
LINE
  5
41A
330
18
100
AcDbEntity
  8
TEXT
100
AcDbLine
 10
0.9607029300619061
 20
0.2462222778965177
 30
0.0
 11
0.8968060237624051
 21
0.2462222778965177
 31
0.0
  0
ARC
  5
41B
330
18
100
AcDbEntity
  8
TEXT
100
AcDbCircle
 10
0.8158191451102965
 20
0.2046387107756153
 30
0.0
 40
0.0416329381542859
100
AcDbArc
 50
26.56974201007528
 51
87.20939649401342
  0
LINE
  5
41C
330
18
100
AcDbEntity
  8
TEXT
100
AcDbLine
 10
0.9607029300619061
 20
0.2186746280356431
 30
0.0
 11
0.9607029300619061
 21
0.2462222778965177
 31
0.0
  0
ARC
  5
41D
330
18
100
AcDbEntity
  8
TEXT
100
AcDbCircle
 10
0.9918957471250156
 20
0.2149765506142529
 30
0.0
 40
0.0314112657011332
100
AcDbArc
 50
95.88484768694724
 51
173.2388340632136
  0
LINE
  5
41E
330
18
100
AcDbEntity
  8
TEXT
100
AcDbLine
 10
1.246579753986388
 20
0.2462222778965177
 30
0.0
 11
1.171587921256762
 21
0.2462222778965177
 31
0.0
  0
LINE
  5
41F
330
18
100
AcDbEntity
  8
TEXT
100
AcDbLine
 10
1.056174884151502
 20
0.3116864836641184
 30
0.0
 11
1.056174884151495
 21
0.2462222778965177
 31
0.0
  0
LINE
  5
420
330
18
100
AcDbEntity
  8
TEXT
100
AcDbLine
 10
1.124489762700775
 20
0.3116864836641184
 30
0.0
 11
1.056174884151502
 21
0.3116864836641184
 31
0.0
  0
ENDSEC
  0
SECTION
  2
OBJECTS
  0
DICTIONARY
  5
C
330
0
100
AcDbDictionary
  3
ACAD_GROUP
350
D
  3
ACAD_LAYOUT
350
425
  3
ACAD_MLINESTYLE
350
E
  3
ACAD_PLOTSETTINGS
350
426
  3
ACAD_PLOTSTYLENAME
350
423
  3
ACDBHEADERROUNDTRIPXREC
350
431
  3
ACDBVARIABLEDICTIONARY
350
42E
  0
DICTIONARY
  5
453
330
18
100
AcDbDictionary
280
     1
  3
ACAD_LAYOUTSELFREF
360
454
  0
DICTIONARY
  5
451
330
15
100
AcDbDictionary
280
     1
  3
ACAD_LAYOUTSELFREF
360
452
  0
DICTIONARY
  5
D
102
{ACAD_REACTORS
330
C
102
}
330
C
100
AcDbDictionary
  0
DICTIONARY
  5
425
102
{ACAD_REACTORS
330
C
102
}
330
C
100
AcDbDictionary
  0
DICTIONARY
  5
E
102
{ACAD_REACTORS
330
C
102
}
330
C
100
AcDbDictionary
  3
STANDARD
350
1B
  0
DICTIONARY
  5
426
102
{ACAD_REACTORS
330
C
102
}
330
C
100
AcDbDictionary
  0
ACDBDICTIONARYWDFLT
  5
423
102
{ACAD_REACTORS
330
C
102
}
330
C
100
AcDbDictionary
281
     1
  3
Normal
350
424
100
AcDbDictionaryWithDefault
340
424
  0
DICTIONARY
  5
431
102
{ACAD_REACTORS
330
C
102
}
330
C
100
AcDbDictionary
  3
CEPSNTYPE
350
43B
  3
FINGERPRINTGUID
350
43C
  3
HYPERLINKBASE
350
434
  3
INSUNITS
350
43A
  3
LAYOUTDICT
350
436
  3
LWETCUNION
350
439
  3
PLOTSETDICT
350
437
  3
PLOTSTYLNAMDICT
350
438
  3
PSVPSCALE
350
43E
  3
PUCSBASE
350
441
  3
PUCSORGBACK
350
447
  3
PUCSORGBOTTOM
350
443
  3
PUCSORGFRONT
350
446
  3
PUCSORGLEFT
350
444
  3
PUCSORGRIGHT
350
445
  3
PUCSORGTOP
350
442
  3
PUCSORTHOREF
350
43F
  3
PUCSORTHOVIEW
350
440
  3
STYLESHEET
350
435
  3
TSTACKALIGN
350
432
  3
TSTACKSIZE
350
433
  3
UCSBASE
350
44A
  3
UCSORGBACK
350
450
  3
UCSORGBOTTOM
350
44C
  3
UCSORGFRONT
350
44F
  3
UCSORGLEFT
350
44D
  3
UCSORGRIGHT
350
44E
  3
UCSORGTOP
350
44B
  3
UCSORTHOREF
350
448
  3
UCSORTHOVIEW
350
449
  3
VERSIONGUID
350
43D
  0
DICTIONARY
  5
42E
102
{ACAD_REACTORS
330
C
102
}
330
C
100
AcDbDictionary
  3
DIMASSOC
350
42F
  0
XRECORD
  5
454
102
{ACAD_REACTORS
330
453
102
}
330
453
100
AcDbXrecord
340
18
  0
XRECORD
  5
452
102
{ACAD_REACTORS
330
451
102
}
330
451
100
AcDbXrecord
340
15
  0
MLINESTYLE
  5
1B
102
{ACAD_REACTORS
330
E
102
}
330
E
100
AcDbMlineStyle
  2
STANDARD
 70
     0
  3

 62
     0
 51
90.0
 52
90.0
 71
     2
 49
0.5
 62
   256
  6
BYLAYER
 49
-0.5
 62
   256
  6
BYLAYER
  0
ACDBPLACEHOLDER
  5
424
102
{ACAD_REACTORS
330
423
102
}
330
423
100
AcDbPlaceHolder
280
     0
  0
XRECORD
  5
43B
102
{ACAD_REACTORS
330
431
102
}
330
431
100
AcDbXrecord
 90
        0
  0
XRECORD
  5
43C
102
{ACAD_REACTORS
330
431
102
}
330
431
100
AcDbXrecord
  1
{A7BA76A0-8DB7-11D6-88E6-0090279574E7}
  0
XRECORD
  5
434
102
{ACAD_REACTORS
330
431
102
}
330
431
100
AcDbXrecord
  1

  0
XRECORD
  5
43A
102
{ACAD_REACTORS
330
431
102
}
330
431
100
AcDbXrecord
 90
        0
  0
XRECORD
  5
436
102
{ACAD_REACTORS
330
431
102
}
330
431
100
AcDbXrecord
340
425
  0
XRECORD
  5
439
102
{ACAD_REACTORS
330
431
102
}
330
431
100
AcDbXrecord
 90
    14877
  0
XRECORD
  5
437
102
{ACAD_REACTORS
330
431
102
}
330
431
100
AcDbXrecord
340
426
  0
XRECORD
  5
438
102
{ACAD_REACTORS
330
431
102
}
330
431
100
AcDbXrecord
340
423
  0
XRECORD
  5
43E
102
{ACAD_REACTORS
330
431
102
}
330
431
100
AcDbXrecord
 40
0.0
  0
XRECORD
  5
441
102
{ACAD_REACTORS
330
431
102
}
330
431
100
AcDbXrecord
340
0
  0
XRECORD
  5
447
102
{ACAD_REACTORS
330
431
102
}
330
431
100
AcDbXrecord
 10
0.0
 20
0.0
 30
0.0
  0
XRECORD
  5
443
102
{ACAD_REACTORS
330
431
102
}
330
431
100
AcDbXrecord
 10
0.0
 20
0.0
 30
0.0
  0
XRECORD
  5
446
102
{ACAD_REACTORS
330
431
102
}
330
431
100
AcDbXrecord
 10
0.0
 20
0.0
 30
0.0
  0
XRECORD
  5
444
102
{ACAD_REACTORS
330
431
102
}
330
431
100
AcDbXrecord
 10
0.0
 20
0.0
 30
0.0
  0
XRECORD
  5
445
102
{ACAD_REACTORS
330
431
102
}
330
431
100
AcDbXrecord
 10
0.0
 20
0.0
 30
0.0
  0
XRECORD
  5
442
102
{ACAD_REACTORS
330
431
102
}
330
431
100
AcDbXrecord
 10
0.0
 20
0.0
 30
0.0
  0
XRECORD
  5
43F
102
{ACAD_REACTORS
330
431
102
}
330
431
100
AcDbXrecord
340
0
  0
XRECORD
  5
440
102
{ACAD_REACTORS
330
431
102
}
330
431
100
AcDbXrecord
 70
     0
  0
XRECORD
  5
435
102
{ACAD_REACTORS
330
431
102
}
330
431
100
AcDbXrecord
  1

  0
XRECORD
  5
432
102
{ACAD_REACTORS
330
431
102
}
330
431
100
AcDbXrecord
 90
        1
  0
XRECORD
  5
433
102
{ACAD_REACTORS
330
431
102
}
330
431
100
AcDbXrecord
 90
       70
  0
XRECORD
  5
44A
102
{ACAD_REACTORS
330
431
102
}
330
431
100
AcDbXrecord
340
0
  0
XRECORD
  5
450
102
{ACAD_REACTORS
330
431
102
}
330
431
100
AcDbXrecord
 10
0.0
 20
0.0
 30
0.0
  0
XRECORD
  5
44C
102
{ACAD_REACTORS
330
431
102
}
330
431
100
AcDbXrecord
 10
0.0
 20
0.0
 30
0.0
  0
XRECORD
  5
44F
102
{ACAD_REACTORS
330
431
102
}
330
431
100
AcDbXrecord
 10
0.0
 20
0.0
 30
0.0
  0
XRECORD
  5
44D
102
{ACAD_REACTORS
330
431
102
}
330
431
100
AcDbXrecord
 10
0.0
 20
0.0
 30
0.0
  0
XRECORD
  5
44E
102
{ACAD_REACTORS
330
431
102
}
330
431
100
AcDbXrecord
 10
0.0
 20
0.0
 30
0.0
  0
XRECORD
  5
44B
102
{ACAD_REACTORS
330
431
102
}
330
431
100
AcDbXrecord
 10
0.0
 20
0.0
 30
0.0
  0
XRECORD
  5
448
102
{ACAD_REACTORS
330
431
102
}
330
431
100
AcDbXrecord
340
0
  0
XRECORD
  5
449
102
{ACAD_REACTORS
330
431
102
}
330
431
100
AcDbXrecord
 70
     0
  0
XRECORD
  5
43D
102
{ACAD_REACTORS
330
431
102
}
330
431
100
AcDbXrecord
  1
{A7BA76A2-8DB7-11D6-88E6-0090279574E7}
  0
DICTIONARYVAR
  5
42F
102
{ACAD_REACTORS
330
42E
102
}
330
42E
100
DictionaryVariables
280
     0
  1
1
  0
ENDSEC
  0
EOF
