  0
SECTION
  2
HEADER
  9
$ACADVER
  1
AC1014
  9
$ACADMAINTVER
 70
     9
  9
$DWGCODEPAGE
  3
ANSI_1252
  9
$INSBASE
 10
0.0
 20
0.0
 30
0.0
  9
$EXTMIN
 10
-0.0468749981441275
 20
0.2389040399714795
 30
0.0
  9
$EXTMAX
 10
3.438344323603001
 20
2.428174041616871
 30
0.0
  9
$LIMMIN
 10
0.0
 20
0.0
  9
$LIMMAX
 10
18.0
 20
12.0
  9
$ORTHOMODE
 70
     0
  9
$REGENMODE
 70
     1
  9
$FILLMODE
 70
     1
  9
$QTEXTMODE
 70
     0
  9
$MIRRTEXT
 70
     0
  9
$DRAGMODE
 70
     2
  9
$LTSCALE
 40
1.0
  9
$OSMODE
 70
    39
  9
$ATTMODE
 70
     1
  9
$TEXTSIZE
 40
0.125
  9
$TRACEWID
 40
0.05
  9
$TEXTSTYLE
  7
ROMANS
  9
$CLAYER
  8
0
  9
$CELTYPE
  6
BYLAYER
  9
$CECOLOR
 62
   256
  9
$CELTSCALE
 40
1.0
  9
$DELOBJ
 70
     1
  9
$DISPSILH
 70
     1
  9
$DIMSCALE
 40
1.0
  9
$DIMASZ
 40
0.125
  9
$DIMEXO
 40
0.125
  9
$DIMDLI
 40
0.375
  9
$DIMRND
 40
0.0
  9
$DIMDLE
 40
0.0
  9
$DIMEXE
 40
0.125
  9
$DIMTP
 40
0.0
  9
$DIMTM
 40
0.0
  9
$DIMTXT
 40
0.125
  9
$DIMCEN
 40
-0.125
  9
$DIMTSZ
 40
0.0
  9
$DIMTOL
 70
     0
  9
$DIMLIM
 70
     0
  9
$DIMTIH
 70
     1
  9
$DIMTOH
 70
     1
  9
$DIMSE1
 70
     0
  9
$DIMSE2
 70
     0
  9
$DIMTAD
 70
     0
  9
$DIMZIN
 70
     4
  9
$DIMBLK
  1

  9
$DIMASO
 70
     1
  9
$DIMSHO
 70
     1
  9
$DIMPOST
  1

  9
$DIMAPOST
  1

  9
$DIMALT
 70
     0
  9
$DIMALTD
 70
     2
  9
$DIMALTF
 40
25.4
  9
$DIMLFAC
 40
1.0
  9
$DIMTOFL
 70
     0
  9
$DIMTVP
 40
0.0
  9
$DIMTIX
 70
     1
  9
$DIMSOXD
 70
     0
  9
$DIMSAH
 70
     0
  9
$DIMBLK1
  1

  9
$DIMBLK2
  1

  9
$DIMSTYLE
  2
STANDARD
  9
$DIMCLRD
 70
     0
  9
$DIMCLRE
 70
     0
  9
$DIMCLRT
 70
     0
  9
$DIMTFAC
 40
1.0
  9
$DIMGAP
 40
0.09
  9
$DIMJUST
 70
     0
  9
$DIMSD1
 70
     0
  9
$DIMSD2
 70
     0
  9
$DIMTOLJ
 70
     1
  9
$DIMTZIN
 70
     0
  9
$DIMALTZ
 70
     0
  9
$DIMALTTZ
 70
     0
  9
$DIMFIT
 70
     3
  9
$DIMUPT
 70
     0
  9
$DIMUNIT
 70
     2
  9
$DIMDEC
 70
     3
  9
$DIMTDEC
 70
     4
  9
$DIMALTU
 70
     2
  9
$DIMALTTD
 70
     2
  9
$DIMTXSTY
  7
ROMANS
  9
$DIMAUNIT
 70
     0
  9
$LUNITS
 70
     2
  9
$LUPREC
 70
     3
  9
$SKETCHINC
 40
0.1
  9
$FILLETRAD
 40
0.03125
  9
$AUNITS
 70
     0
  9
$AUPREC
 70
     0
  9
$MENU
  1
acad
  9
$ELEVATION
 40
0.0
  9
$PELEVATION
 40
0.0
  9
$THICKNESS
 40
0.0
  9
$LIMCHECK
 70
     0
  9
$BLIPMODE
 70
     0
  9
$CHAMFERA
 40
0.0
  9
$CHAMFERB
 40
0.0
  9
$CHAMFERC
 40
0.0
  9
$CHAMFERD
 40
0.0
  9
$SKPOLY
 70
     0
  9
$TDCREATE
 40
2449163.415628241
  9
$TDUPDATE
 40
2452458.313579930
  9
$TDINDWG
 40
0.0097000231
  9
$TDUSRTIMER
 40
0.0097000231
  9
$USRTIMER
 70
     1
  9
$ANGBASE
 50
0.0
  9
$ANGDIR
 70
     0
  9
$PDMODE
 70
     0
  9
$PDSIZE
 40
0.0
  9
$PLINEWID
 40
0.0
  9
$COORDS
 70
     2
  9
$SPLFRAME
 70
     0
  9
$SPLINETYPE
 70
     6
  9
$SPLINESEGS
 70
     8
  9
$ATTDIA
 70
     0
  9
$ATTREQ
 70
     1
  9
$HANDLING
 70
 22529
  9
$HANDSEED
  5
B0E
  9
$SURFTAB1
 70
     6
  9
$SURFTAB2
 70
     6
  9
$SURFTYPE
 70
     6
  9
$SURFU
 70
     6
  9
$SURFV
 70
     6
  9
$UCSNAME
  2

  9
$UCSORG
 10
0.0
 20
0.0
 30
0.0
  9
$UCSXDIR
 10
1.0
 20
0.0
 30
0.0
  9
$UCSYDIR
 10
0.0
 20
1.0
 30
0.0
  9
$PUCSNAME
  2

  9
$PUCSORG
 10
0.0
 20
0.0
 30
0.0
  9
$PUCSXDIR
 10
1.0
 20
0.0
 30
0.0
  9
$PUCSYDIR
 10
0.0
 20
1.0
 30
0.0
  9
$USERI1
 70
     0
  9
$USERI2
 70
     0
  9
$USERI3
 70
     0
  9
$USERI4
 70
     0
  9
$USERI5
 70
     0
  9
$USERR1
 40
0.0
  9
$USERR2
 40
0.0
  9
$USERR3
 40
0.0
  9
$USERR4
 40
0.0
  9
$USERR5
 40
0.0
  9
$WORLDVIEW
 70
     1
  9
$SHADEDGE
 70
     3
  9
$SHADEDIF
 70
    70
  9
$TILEMODE
 70
     1
  9
$MAXACTVP
 70
    16
  9
$PINSBASE
 10
0.0
 20
0.0
 30
0.0
  9
$PLIMCHECK
 70
     0
  9
$PEXTMIN
 10
1.000000000000000E+20
 20
1.000000000000000E+20
 30
1.000000000000000E+20
  9
$PEXTMAX
 10
-1.000000000000000E+20
 20
-1.000000000000000E+20
 30
-1.000000000000000E+20
  9
$PLIMMIN
 10
0.0
 20
0.0
  9
$PLIMMAX
 10
12.0
 20
9.0
  9
$UNITMODE
 70
     0
  9
$VISRETAIN
 70
     0
  9
$PLINEGEN
 70
     1
  9
$PSLTSCALE
 70
     0
  9
$TREEDEPTH
 70
  3020
  9
$PICKSTYLE
 70
     1
  9
$CMLSTYLE
  2
STANDARD
  9
$CMLJUST
 70
     0
  9
$CMLSCALE
 40
1.0
  9
$PROXYGRAPHICS
 70
     1
  9
$MEASUREMENT
 70
     0
  0
ENDSEC
  0
SECTION
  2
CLASSES
  0
CLASS
  1
ACDBDICTIONARYWDFLT
  2
AcDbDictionaryWithDefault
  3
AutoCAD 2000
 90
        0
280
     0
281
     0
  0
CLASS
  1
ACDBPLACEHOLDER
  2
AcDbPlaceHolder
  3
AutoCAD 2000
 90
        0
280
     0
281
     0
  0
CLASS
  1
LAYOUT
  2
AcDbLayout
  3
AutoCAD 2000
 90
        0
280
     0
281
     0
  0
CLASS
  1
LONG_TRANSACTION
  2
AcDbLongTransaction
  3
AutoCAD 2000
 90
        0
280
     0
281
     0
  0
CLASS
  1
LWPOLYLINE
  2
AcDbPolyline
  3
AutoCAD 2000
 90
        0
280
     0
281
     1
  0
CLASS
  1
HATCH
  2
AcDbHatch
  3
AutoCAD 2000
 90
        0
280
     0
281
     1
  0
CLASS
  1
XRECORD
  2
AcDbXrecord
  3
AutoCAD 2000
 90
        0
280
     0
281
     0
  0
CLASS
  1
LONG_TRANSACTION
  2
AcDbLongTransaction
  3
AutoCAD 2000
 90
        0
280
     0
281
     0
  0
CLASS
  1
LWPOLYLINE
  2
AcDbPolyline
  3
AutoCAD 2000
 90
        0
280
     0
281
     1
  0
CLASS
  1
HATCH
  2
AcDbHatch
  3
AutoCAD 2000
 90
        0
280
     0
281
     1
  0
CLASS
  1
XRECORD
  2
AcDbXrecord
  3
AutoCAD 2000
 90
        0
280
     0
281
     0
  0
CLASS
  1
LONG_TRANSACTION
  2
AcDbLongTransaction
  3
AutoCAD 2000
 90
        0
280
     0
281
     0
  0
CLASS
  1
LWPOLYLINE
  2
AcDbPolyline
  3
AutoCAD 2000
 90
        0
280
     0
281
     1
  0
CLASS
  1
HATCH
  2
AcDbHatch
  3
AutoCAD 2000
 90
        0
280
     0
281
     1
  0
CLASS
  1
XRECORD
  2
AcDbXrecord
  3
AutoCAD 2000
 90
        0
280
     0
281
     0
  0
CLASS
  1
DICTIONARYVAR
  2
AcDbDictionaryVar
  3
AutoCAD 2000
 90
        0
280
     0
281
     0
  0
CLASS
  1
LONG_TRANSACTION
  2
AcDbLongTransaction
  3
AutoCAD 2000
 90
        0
280
     0
281
     0
  0
CLASS
  1
LWPOLYLINE
  2
AcDbPolyline
  3
AutoCAD 2000
 90
        0
280
     0
281
     1
  0
CLASS
  1
HATCH
  2
AcDbHatch
  3
AutoCAD 2000
 90
        0
280
     0
281
     1
  0
CLASS
  1
XRECORD
  2
AcDbXrecord
  3
AutoCAD 2000
 90
        0
280
     0
281
     0
  0
ENDSEC
  0
SECTION
  2
TABLES
  0
TABLE
  2
VPORT
  5
77D
330
0
100
AcDbSymbolTable
 70
     2
  0
VPORT
  5
AEB
330
77D
100
AcDbSymbolTableRecord
100
AcDbViewportTableRecord
  2
*ACTIVE
 70
     0
 10
0.0
 20
0.0
 11
1.0
 21
1.0
 12
4.679488258245235
 22
1.333831351882343
 13
0.0
 23
0.0
 14
0.015625
 24
0.015625
 15
0.0
 25
0.0
 16
0.0
 26
0.0
 36
1.0
 17
0.0
 27
0.0
 37
0.0
 40
2.209115667018357
 41
4.320930232558139
 42
50.0
 43
0.0
 44
0.0
 50
0.0
 51
0.0
 71
     0
 72
  2000
 73
     1
 74
     1
 75
     1
 76
     0
 77
     0
 78
     0
  0
ENDTAB
  0
TABLE
  2
LTYPE
  5
77A
330
0
100
AcDbSymbolTable
 70
     1
  0
LTYPE
  5
787
330
77A
100
AcDbSymbolTableRecord
100
AcDbLinetypeTableRecord
  2
BYBLOCK
 70
     0
  3

 72
    65
 73
     0
 40
0.0
  0
LTYPE
  5
788
330
77A
100
AcDbSymbolTableRecord
100
AcDbLinetypeTableRecord
  2
BYLAYER
 70
     0
  3

 72
    65
 73
     0
 40
0.0
  0
LTYPE
  5
789
330
77A
100
AcDbSymbolTableRecord
100
AcDbLinetypeTableRecord
  2
CONTINUOUS
 70
     0
  3
Solid line
 72
    65
 73
     0
 40
0.0
  0
ENDTAB
  0
TABLE
  2
LAYER
  5
777
330
0
100
AcDbSymbolTable
 70
     3
  0
LAYER
  5
784
330
777
100
AcDbSymbolTableRecord
100
AcDbLayerTableRecord
  2
0
 70
     0
 62
     7
  6
CONTINUOUS
  0
LAYER
  5
796
330
777
100
AcDbSymbolTableRecord
100
AcDbLayerTableRecord
  2
TEXT
 70
     0
 62
     3
  6
CONTINUOUS
  0
LAYER
  5
94F
330
777
100
AcDbSymbolTableRecord
100
AcDbLayerTableRecord
  2
110474
 70
     0
 62
     6
  6
CONTINUOUS
  0
ENDTAB
  0
TABLE
  2
STYLE
  5
778
330
0
100
AcDbSymbolTable
 70
     3
  0
STYLE
  5
785
330
778
100
AcDbSymbolTableRecord
100
AcDbTextStyleTableRecord
  2
STANDARD
 70
     0
 40
0.0
 41
1.0
 50
0.0
 71
     0
 42
0.125
  3
txt
  4

  0
STYLE
  5
9DD
330
778
100
AcDbSymbolTableRecord
100
AcDbTextStyleTableRecord
  2
ITALICC
 70
     0
 40
0.0
 41
1.0
 50
0.0
 71
     0
 42
0.125
  3
italicc
  4

  0
STYLE
  5
AE7
330
778
100
AcDbSymbolTableRecord
100
AcDbTextStyleTableRecord
  2
ROMANS
 70
     0
 40
0.0
 41
1.0
 50
0.0
 71
     0
 42
0.125
  3
romans.shx
  4

  0
ENDTAB
  0
TABLE
  2
VIEW
  5
77B
330
0
100
AcDbSymbolTable
 70
     0
  0
ENDTAB
  0
TABLE
  2
UCS
  5
77C
330
0
100
AcDbSymbolTable
 70
     0
  0
ENDTAB
  0
TABLE
  2
APPID
  5
77E
330
0
100
AcDbSymbolTable
 70
     1
  0
APPID
  5
786
330
77E
100
AcDbSymbolTableRecord
100
AcDbRegAppTableRecord
  2
ACAD
 70
     0
  0
ENDTAB
  0
TABLE
  2
DIMSTYLE
  5
77F
330
0
100
AcDbSymbolTable
 70
     1
  0
DIMSTYLE
105
79E
330
77F
100
AcDbSymbolTableRecord
100
AcDbDimStyleTableRecord
  2
STANDARD
 70
     0
  3

  4

  5

  6

  7

 40
1.0
 41
0.18
 42
0.0625
 43
0.38
 44
0.18
 45
0.0
 46
0.0
 47
0.0
 48
0.0
140
0.18
141
0.09
142
0.0
143
25.4
144
1.0
145
0.0
146
1.0
147
0.09
 71
     0
 72
     0
 73
     1
 74
     1
 75
     0
 76
     0
 77
     0
 78
     0
170
     0
171
     2
172
     0
173
     0
174
     0
175
     0
176
     0
177
     0
178
     0
270
     2
271
     4
272
     4
273
     2
274
     2
340
785
275
     0
280
     0
281
     0
282
     0
283
     1
284
     0
285
     0
286
     0
287
     3
288
     0
  0
ENDTAB
  0
TABLE
  2
BLOCK_RECORD
  5
776
330
0
100
AcDbSymbolTable
 70
     0
  0
BLOCK_RECORD
  5
78D
102
{ACAD_XDICTIONARY
360
975
102
}
330
776
100
AcDbSymbolTableRecord
100
AcDbBlockTableRecord
  2
*MODEL_SPACE
  0
BLOCK_RECORD
  5
78A
102
{ACAD_XDICTIONARY
360
973
102
}
330
776
100
AcDbSymbolTableRecord
100
AcDbBlockTableRecord
  2
*PAPER_SPACE
  0
ENDTAB
  0
ENDSEC
  0
SECTION
  2
BLOCKS
  0
BLOCK
  5
79C
330
78D
100
AcDbEntity
  8
0
100
AcDbBlockBegin
  2
*MODEL_SPACE
 70
     0
 10
0.0
 20
0.0
 30
0.0
  3
*MODEL_SPACE
  1

  0
ENDBLK
  5
79D
330
78D
100
AcDbEntity
  8
0
100
AcDbBlockEnd
  0
BLOCK
  5
79A
330
78A
100
AcDbEntity
 67
     1
  8
0
100
AcDbBlockBegin
  2
*PAPER_SPACE
 70
     0
 10
0.0
 20
0.0
 30
0.0
  3
*PAPER_SPACE
  1

  0
ENDBLK
  5
79B
330
78A
100
AcDbEntity
 67
     1
  8
0
100
AcDbBlockEnd
  0
ENDSEC
  0
SECTION
  2
ENTITIES
  0
REGION
  5
923
330
78D
100
AcDbEntity
  8
110474
100
AcDbModelerGeometry
 70
     1
  1
noi lnh n o         
  1
=0;& {rn {n {rn {rn |
  1
3*2/ {rn {rn {m {o |
  1
,7:33 {rn {rn {rn {l {n |
  1
9><: {rn {rn {k {m {rn {j -:):-,:; ;0*=3: 0*+ |
  1
300/ {rn {i {h {l |
  1
/3>1:r,*-9><: {rn nqinnmimmmgkijkmol nqiimofnknnfnnjfh o o o rn rn o o o V V V V |
  1
300/ {rn {rn {g {l |
  1
<0:;8: {rn {f {no {rn {nn o {k {rn |
  1
<0:;8: {rn {nm {nl {rn {nk o {i {rn |
  1
<0:;8: {rn {nj {h {rn {ni o {k {rn |
  1
<0:;8: {rn {h {nh {rn {ng o {k {rn |
  1
:;8: {rn {nf {mo {h {mn o |
  1
<0:;8: {rn {mm {g {rn {ml o {i {rn |
  1
<0:;8: {rn {g {mk {rn {mj n {i {rn |
  1
:;8: {rn {mi {mh {g {mg o |
  1
<0:;8: {rn {mf {f {rn {lo o {k {rn |
  1
:;8: {rn {mo {ln {f {lm o |
  1
<0:;8: {rn {no {ll {rn {lk o {k {rn |
  1
:;8: {rn {lj {nf {no {li o |
  1
):-+:' {rn {nn {lh |
  1
):-+:' {rn {nn {lg |
  1
,+->687+r<*-): {rn nqminllfkglhlnijlk mqloifmkokninighnh o o n o Y roqnklmjooooooooongg Y o |
  1
<0:;8: {rn {lf {nm {rn {ko o {i {rn |
  1
:;8: {rn {mh {kn {nm {km o |
  1
<0:;8: {rn {nl {kl {rn {kk o {i {rn |
  1
:;8: {rn {mi {kj {nl {ki o |
  1
):-+:' {rn {nk {kh |
  1
):-+:' {rn {nk {kg |
  1
,+->687+r<*-): {rn nqnlillfkglhlnijlk mqlmlnhkokninighnn o o rn o V V |
  1
<0:;8: {rn {kf {nj {rn {jo o {k {rn |
  1
:;8: {rn {ln {jn {nj {jm o |
  1
):-+:' {rn {lo {jl |
  1
,+->687+r<*-): {rn nqmfmjgfkglhlnijlk mqllgnhkokninighnh o oqhohnoihgnngijkhki oqhohnoihgnngijkhki o Y roqokknfknhlgmknjfmni Y o |
  1
<0:;8: {rn {nh {jk {rn {jj o {k {rn |
  1
:;8: {rn {ji {lj {nh {jh o |
  1
):-+:' {rn {ng {jg |
  1
,+->687+r<*-): {rn nqminllfkglhlnijlk mqnilihkokninigifg o roqhohnoihgnngijkhjh oqhohnoihgnngijkhjh o Y roqnoihhlnmlfjfniiok Y o |
  1
/061+ {rn nqminllfkglhlnijlk mqnilihkokninigifg o |
  1
/061+ {rn nqminllfkglhlnijlk mqloifmkokninighnh o |
  1
<0:;8: {rn {jf {mm {rn {io o {i {rn |
  1
:;8: {rn {kn {in {mm {im o |
  1
):-+:' {rn {ml {il |
  1
,+->687+r<*-): {rn nqnlillfkglhlnijlk mqoilnhkokninighnl o n rmqjjmgomknlofmfgkk:rono o V V |
  1
<0:;8: {rn {mk {ik {rn {ij o {i {rn |
  1
:;8: {rn {ii {kj {mk {ih o |
  1
):-+:' {rn {kk {ig |
  1
:336/,:r<*-): {rn nqnmnllfkglhlnijmg mqlmlnhkokninighnn o o o n oqonjoooooooooooojig o o n V V |
  1
/061+ {rn nqnlillfkglhlnijlk mqlmlnhkokninighnn o |
  1
/061+ {rn nqnlillfkglhlnijlk mqoilnhkokninighnl o |
  1
<0:;8: {rn {if {mf {rn {ho o {k {rn |
  1
:;8: {rn {jn {hn {mf {hm o |
  1
):-+:' {rn {jo {hl |
  1
,+->687+r<*-): {rn nqfmmijinjogminljj mqllgnhkokninigiff o n rmqgnflnjiggjfjommk:ronj o Y roqilooiiiihofkkgmnn Y o |
  1
/061+ {rn nqmfmjgfkglhlnijlk mqllgnhkokninighnh o |
  1
<0:;8: {rn {ll {hk {rn {hj o {k {rn |
  1
:;8: {rn {hi {ji {ll {hh o |
  1
):-+:' {rn {lk {hg |
  1
,+->687+r<*-): {rn nqlliglfkglhlnijnj mqoggnhkokninighnh o o n o Y roqmjoooooooooooookk Y o |
  1
/061+ {rn nqlliglfkglhlnijnj mqoggnhkokninighnh o |
  1
<0:;8: {rn {hf {lf {rn {go o {i {rn |
  1
:;8: {rn {in {gn {lf {gm o |
  1
):-+:' {rn {ko {gl |
  1
,+->687+r<*-): {rn nqngillfkglhkhjon mqoilnhkoknioknohl o oqkffffffffhjnijgff roqgiiomjkolfmhgnglj o V V |
  1
/061+ {rn nqngillfkglhkhjon mqoilnhkoknioknohl o |
  1
<0:;8: {rn {kl {gk {rn {gj o {i {rn |
  1
:;8: {rn {gi {ii {kl {gh o |
  1
):-+:' {rn {ij {gg |
  1
,+->687+r<*-): {rn nqomillfkglhlnijok mqllgnhkokninigiff o n nqgifgkflokilnhfjn:ronk o V V |
  1
/061+ {rn nqnmnllfkglhlnijmg mqllgnhkokninighnh o |
  1
<0:;8: {rn {gf {kf {rn {fo o {k {rn |
  1
:;8: {rn {hn {fn {kf {fm o |
  1
):-+:' {rn {ho {fl |
  1
,+->687+r<*-): {rn nqfkkjhikinoklin mqlmfofkljnglmfinf o oqfmlghfjlmjojmjgnm roqlgmiglklmlhfikknk o Y roqomlhmilhmgohjlgfln Y o |
  1
/061+ {rn nqfmmijinjogminljj mqllgnhkokninigiff o |
  1
<0:;8: {rn {jk {fk {rn {fj o {k {rn |
  1
:;8: {rn {fi {hi {jk {fh o |
  1
):-+:' {rn {jj {fg |
  1
,+->687+r<*-): {rn nqlliglfkglhlnijnj nqglgnhkokninighnl o oqhohnoihgnngijjjf oqhohnoihgnngijlfmj o Y roqnoihhlnmlfjfnifg Y o |
  1
/061+ {rn nqlliglfkglhlnijnj nqglgnhkokninighnl o |
  1
<0:;8: {rn {ff {jf {rn {noo o {i {rn |
  1
:;8: {rn {gn {non {jf {nom o |
  1
):-+:' {rn {io {nol |
  1
,+->687+r<*-): {rn nqmkkohkjnoikhmmlj nqfilnhkoknjhnmohg o roqjoooooooomkglhmii roqgiiomjkoliknokoik o V V |
  1
/061+ {rn nqmkkohkjnoikhmmlj nqfilnhkoknjhnmohg o |
  1
<0:;8: {rn {ik {nok {rn {noj o {i {rn |
  1
:;8: {rn {noi {gi {ik {noh o |
  1
):-+:' {rn {gj {nog |
  1
:336/,:r<*-): {rn nqomillfkglhlnijmm mqljlnhkokninigigh o o o n oqonkfffffffffffghfm o o n V V |
  1
/061+ {rn nqomillfkglhlnijok mqllgnhkokninigiff o |
  1
<0:;8: {rn {nof {if {rn {nno o {k {rn |
  1
:;8: {rn {fn {nnn {if {nnm o |
  1
):-+:' {rn {fo {nnl |
  1
,+->687+r<*-): {rn mqmhgninlgogjkmnkh nqffjjofklnfkmknnk o oqhohnoihgnolflgifi roqhohnoihgnlllhohfh o Y roqkhnhiolnhgjjgmgih Y o |
  1
/061+ {rn nqfkkjhikinoklin mqlmfofkljnglmfinf o |
  1
<0:;8: {rn {hk {nnk {rn {nnj o {k {rn |
  1
:;8: {rn {nni {fi {hk {nnh o |
  1
):-+:' {rn {hj {nng |
  1
,+->687+r<*-): {rn nqminllfkglhlnikfg nqhimihkokninighnk o o n o Y roqmnggniiihkhkgjhjn Y o |
  1
/061+ {rn nqminllfkglhlnikfg nqhimihkokninighnk o |
  1
<0:;8: {rn {nnf {hf {rn {nmo n {i {rn |
  1
:;8: {rn {non {nmn {hf {nmm o |
  1
):-+:' {rn {go {nml |
  1
,+->687+r<*-): {rn nqngillfkglhnknnkk nqgilnhkokninmflhf o rn hqgijhogoghimlkkhj:ronn o V V |
  1
/061+ {rn nqngillfkglhnknnkk nqgilnhkokninmflhf o |
  1
<0:;8: {rn {gk {nmk {rn {nmj o {i {rn |
  1
:;8: {rn {nmi {noi {gk {nmh o |
  1
):-+:' {rn {noj {nmg |
  1
,+->687+r<*-): {rn nqonnllfkglhlnijlk mqlglnhkokninigiff o o rn o V V |
  1
/061+ {rn nqonnllfkglhlnijlk mqljlnhkokninighoj o |
  1
<0:;8: {rn {nmf {gf {rn {nlo o {k {rn |
  1
:;8: {rn {nnn {nln {gf {nlm o |
  1
):-+:' {rn {nno {nll |
  1
,+->687+r<*-): {rn mqmghmknohoilmgigl nqfhljgfnmnhmmhjff o oqlgmiglklmnjgnhiki roqfmlghfjlmjfiffloh o Y roqomlhmilhmgohjlflj Y o |
  1
/061+ {rn mqmhgninlgogjkmnkh nqffjjofklnfkmknnk o |
  1
<0:;8: {rn {fk {nlk {rn {nlj o {k {rn |
  1
:;8: {rn {nli {nni {fk {nlh o |
  1
):-+:' {rn {fj {nlg |
  1
,+->687+r<*-): {rn nqminllfkglhlnikfg nqjklgjhlhknkmonlg o roqlgmiglklmlijogggk oqfmlghfjlmjnnmghng o Y roqomlhmilhmgoiiljigk Y o |
  1
/061+ {rn nqminllfkglhlnikfg nqjklgjhlhknkmonlg o |
  1
<0:;8: {rn {nlf {ff {rn {nko o {i {rn |
  1
:;8: {rn {nkn {nmn {ff {nkm o |
  1
):-+:' {rn {noo {nkl |
  1
,+->687+r<*-): {rn nqnlillfkglhlnijlk nqgilnhkokninighoh o o rn o V V |
  1
/061+ {rn nqnlillfkglhlnijlk nqgilnhkokninighoh o |
  1
<0:;8: {rn {nok {nkk {rn {nkj o {i {rn |
  1
:;8: {rn {nki {nmi {nok {nkh o |
  1
):-+:' {rn {nmj {nkg |
  1
,+->687+r<*-): {rn nqojillfkglhlnijnj mqkmgnhkokninighni o roqhohnoihgnngijnfi roqhohnoihgnngijhjkk o V V |
  1
/061+ {rn nqonnllfkglhlnijlk mqlglnhkokninigiff o |
  1
<0:;8: {rn {nkf {nof {rn {njo o {k {rn |
  1
:;8: {rn {nln {njn {nof {njm o |
  1
):-+:' {rn {nlo {njl |
  1
,+->687+r<*-): {rn mqmghmknohokgngjgk nqlkljmmkjkimgmhmj o rmqlfihmgkioolnkfk:rono rn o Y roqilooiiiihofkkghkk Y o |
  1
/061+ {rn mqmghmknohoilmgigl nqfhljgfnmnhmmhjff o |
  1
<0:;8: {rn {nnk {njk {rn {njj o {k {rn |
  1
:;8: {rn {nji {nli {nnk {njh o |
  1
):-+:' {rn {nnj {njg |
  1
,+->687+r<*-): {rn nqmhoknfnhljnkgiif nqjmnflhoilfmjmlog o roqhohnoihgnngijkfhf oqhohnoihgnngijkjnl o Y roqmgliiffnllnkimooj Y o |
  1
/061+ {rn nqmhoknfnhljnkgiif nqjmnflhoilfmjmlog o |
  1
<0:;8: {rn {njf {nnf {rn {nio o {i {rn |
  1
:;8: {rn {nkn {nin {nnf {nim o |
  1
):-+:' {rn {nmo {nil |
  1
:336/,:r<*-): {rn nqnmnllfkglhlnijlh nqiolnhkokninighnk o o o n oqonkffffffffffffig o o n V V |
  1
/061+ {rn nqnlillfkglhlnijlk nqiolnhkokninighoj o |
  1
<0:;8: {rn {nmk {nik {rn {nij o {i {rn |
  1
:;8: {rn {nii {nki {nmk {nih o |
  1
):-+:' {rn {nkj {nig |
  1
,+->687+r<*-): {rn mqnmgllfkglhlnijoh mqkmgnhkokninighni o rn o o V V |
  1
/061+ {rn nqojillfkglhlnijnj mqkmgnhkokninighni o |
  1
<0:;8: {rn {nif {nmf {rn {nho o {k {rn |
  1
:;8: {rn {njn {nhn {nmf {nhm o |
  1
):-+:' {rn {njo {nhl |
  1
,+->687+r<*-): {rn mqmjjffnohokhklihj nqlnmmhmkjkiljhini o roqhohnoihgnljiomh roqhohnoihgnonhoihfm o Y roqokknfknhlgmkniokhm Y o |
  1
/061+ {rn mqmghmknohokgngjgk nqlkljmmkjkimgmhmj o |
  1
<0:;8: {rn {nlk {nif {rn {nhk o {k {rn |
  1
:;8: {rn {nhj {nji {nlk {nhi o |
  1
):-+:' {rn {nlj {nhh |
  1
,+->687+r<*-): {rn nqkhnookofmglgmljj nqlmnljmnkkiongilj o roqfmlghfjlmkijkmikm oqlgmiglklmkhjgoini o Y roqomlhmilhmhffhhnmol Y o |
  1
/061+ {rn nqkhnookofmglgmljj nqlmnljmnkkiongilj o |
  1
<0:;8: {rn {nhg {nlf {rn {nhf o {i {rn |
  1
:;8: {rn {nin {ngo {nlf {ngn o |
  1
):-+:' {rn {nko {ngm |
  1
,+->687+r<*-): {rn nqnmnllfkglhlnijmg nqjggnhkokninighnh o rn rlqfknimjmkhjmnojin:ronj o V V |
  1
/061+ {rn nqnmnllfkglhlnijmg nqjggnhkokninighnh o |
  1
<0:;8: {rn {nkk {ngl {rn {ngk o {i {rn |
  1
:;8: {rn {ngj {nii {nkk {ngi o |
  1
):-+:' {rn {nij {ngh |
  1
,+->687+r<*-): {rn mqnfnimjjkoikhnfmf mqlikgghfgkifhlkml o roqhohnoihgnnikmhlin oqhohnoihgnmoggmnkm o V V |
  1
/061+ {rn mqnmgllfkglhlnijoh mqkmgnhkokninighni o |
  1
<0:;8: {rn {njk {nkf {rn {ngg o {k {rn |
  1
:;8: {rn {nhn {ngf {nkf {nfo o |
  1
):-+:' {rn {nho {nfn |
  1
,+->687+r<*-): {rn mqnnmhknohokkhijgn nqlnmmhmkjkihooflh o rn mqlfiijjighnnlmkol:rono o Y roqnklmjooooomihofk Y o |
  1
/061+ {rn mqmjjffnohokhklihj nqlnmmhmkjkiljhini o |
  1
:;8: {rn {nfm {nhj {njk {nfl o |
  1
):-+:' {rn {njj {nfk |
  1
,+->687+r<*-): {rn nqkfmfmkkolokhjggi nqlnmmhmkjkgngikik o rn lqoggllinghljmnfjj:rono o Y roqmnggniiihkmhhgkkf Y o |
  1
/061+ {rn nqkfmfmkkolokhjggi nqlnmmhmkjkgngikik o |
  1
<0:;8: {rn {nfj {njf {rn {nfi o {i {rn |
  1
:;8: {rn {ngo {nfh {njf {nfg o |
  1
):-+:' {rn {nio {nff |
  1
,+->687+r<*-): {rn nqoogihmfinnhhkkjf nqjggnhkokninighnl o o rn o V V |
  1
/061+ {rn nqoogihmfinnhhkkjf nqjggnhkokninighnl o |
  1
<0:;8: {rn {nik {moo {rn {mon o {i {rn |
  1
:;8: {rn {mom {ngj {nik {mol o |
  1
):-+:' {rn {ngk {mok |
  1
,+->687+r<*-): {rn mqnjimhomonjgihjon mqlmfjlmikjilfnmgg o oqhohnoihgnmoggkohk oqhohnoihgnnikmjkng o V V |
  1
/061+ {rn mqnfnimjjkoikhnfmf mqlikgghfgkifhlkml o |
  1
:;8: {rn {ngf {nfm {nif {moj o |
  1
):-+:' {rn {ngg {moi |
  1
,+->687+r<*-): {rn mqolhmknohokfjglgk nqlghhhmkjkiimgklk o roqhohnoihgoffkghfhg oqhohnoihgnlhgmnjmj o Y roqnoihhlnmlfnffhllh Y o |
  1
/061+ {rn mqnnmhknohokkhijgn nqlnmmhmkjkihooflh o |
  1
):-+:' {rn {nhk {moh |
  1
,+->687+r<*-): {rn nqhnnhknohokhjlhl nqlnmmhmkjkhjnoigj o roqhohnoihgnlhgmogfl roqhohnoihgoffkggi o Y roqnoihhlnmlfjfnhon Y o |
  1
/061+ {rn nqhnnhknohokhjlhl nqlnmmhmkjkhjnoigj o |
  1
<0:;8: {rn {mog {nhg {rn {mof o {i {rn |
  1
:;8: {rn {nfh {mno {nhg {mnn o |
  1
):-+:' {rn {nhf {mnm |
  1
,+->687+r<*-): {rn nqoogihmfinnhhkkjf nqjoogkojilhggolkh o oqhohnoihgnngfkhggf roqhohnoihgnnglinink o V V |
  1
/061+ {rn nqoogihmfinnhhkkjf nqjoogkojilhggolkh o |
  1
<0:;8: {rn {ngl {mnl {rn {mnk o {i {rn |
  1
:;8: {rn {mnj {mom {ngl {mni o |
  1
):-+:' {rn {mon {mnh |
  1
,+->687+r<*-): {rn mqngmnmnkinolglnom mqmllojkklnfmimikm o roqmjggnfokjnomjmhhl oqfijfmjgmimgfoiikm o V V |
  1
/061+ {rn mqnjimhomonjgihjon mqlmfjlmikjilfnmgg o |
  1
,+->687+r<*-): {rn nqhghmknohokfjglgk nqlghhhmkjkhloiojm o rn mqhnokhngkifihmiim:rono o Y roqmj Y o |
  1
/061+ {rn mqolhmknohokfjglgk nqlghhhmkjkiimgklk o |
  1
/061+ {rn nqhghmknohokfjglgk nqlghhhmkjkhloiojm o |
  1
<0:;8: {rn {mng {nfj {rn {mnf o {i {rn |
  1
:;8: {rn {mno {mmo {nfj {mmn o |
  1
):-+:' {rn {nfi {mmm |
  1
,+->687+r<*-): {rn nqnignmjjkolljihl nqlknlghfgkilnnmfi o oqhohnoihgnmhllook oqhohnoihgnoffhfkhj o V V |
  1
/061+ {rn nqnignmjjkolljihl nqlknlghfgkilnnmfi o |
  1
<0:;8: {rn {moo {mml {rn {mmk o {i {rn |
  1
:;8: {rn {mmj {mnj {moo {mmi o |
  1
):-+:' {rn {mnk {mmh |
  1
,+->687+r<*-): {rn mqmhgjffihkhnnnnh mqmohmolnhmkgjklgi o roqfijfmjgmimgfoifof oqmjggnfokjnomjnhil o V V |
  1
/061+ {rn mqngmnmnkinolglnom mqmllojkklnfmimikm o |
  1
<0:;8: {rn {mmg {mog {rn {mmf o {i {rn |
  1
:;8: {rn {mmo {mlo {mog {mln o |
  1
):-+:' {rn {mof {mlm |
  1
,+->687+r<*-): {rn nqmolkgoghflffllgn nqlhihkllmliginnfj o oqfijfmjgmimkfnjfmk roqmjggnfokjmjnkilkf o V V |
  1
/061+ {rn nqmolkgoghflffllgn nqlhihkllmliginnfj o |
  1
<0:;8: {rn {mnl {mll {rn {mlk o {i {rn |
  1
:;8: {rn {mlj {mmj {mnl {mli o |
  1
):-+:' {rn {mmk {mlh |
  1
,+->687+r<*-): {rn mqlnlfjjonlhhhgolg mqmkmjjgjnnjlhkohk o roqhohnoihgnlllhmhjn roqhohnoihgnolflihkm o V V |
  1
/061+ {rn mqmhgjffihkhnnnnh mqmohmolnhmkgjklgi o |
  1
<0:;8: {rn {mlg {mng {rn {mlf o {i {rn |
  1
:;8: {rn {mlo {mko {mng {mkn o |
  1
):-+:' {rn {mnf {mkm |
  1
,+->687+r<*-): {rn nqmfffjfoflnogmnjh nqljogfmoikmnfiglg o oqmjggnfokkfjljgkff roqfijfmjgmilmgfhjin o V V |
  1
/061+ {rn nqmfffjfoflnogmnjh nqljogfmoikmnfiglg o |
  1
<0:;8: {rn {mml {mkl {rn {mkk o {i {rn |
  1
:;8: {rn {mkj {mlj {mml {mki o |
  1
):-+:' {rn {mlk {mkh |
  1
,+->687+r<*-): {rn mqlhhmknohoigmnihk mqnhfmhmkjkioihonl o roqhohnoihgnolflgmgj oqhohnoihgnlllhnml o V V |
  1
/061+ {rn mqlnlfjjonlhhhgolg mqmkmjjgjnnjlhkohk o |
  1
<0:;8: {rn {mkg {mmg {rn {mkf o {i {rn |
  1
:;8: {rn {mko {mjo {mmg {mjn o |
  1
):-+:' {rn {mmf {mjm |
  1
,+->687+r<*-): {rn nqlmjgnoljmjlknii nqmjkknlgjojkmggfj o roqhohnoihgnnkgkljhl roqhohnoihgnmmkijfm o V V |
  1
/061+ {rn nqlmjgnoljmjlknii nqmjkknlgjojkmggfj o |
  1
<0:;8: {rn {mll {mjl {rn {mjk o {i {rn |
  1
:;8: {rn {mjj {mkj {mll {mji o |
  1
):-+:' {rn {mkk {mjh |
  1
,+->687+r<*-): {rn mqlhhmknohokmjmlni nqnohmhmkjkioihool o mqlfihgfmlkhklhjhj:rono n o V V |
  1
/061+ {rn mqlhhmknohoigmnihk mqnhfmhmkjkioihonl o |
  1
<0:;8: {rn {mjg {mlg {rn {mjf o {i {rn |
  1
:;8: {rn {mjo {mio {mlg {min o |
  1
):-+:' {rn {mlf {mim |
  1
,+->687+r<*-): {rn nqmfokjjonlkgomglm nqmnfojgjnnkgjnfjj o oqhohnoihgnngijkhjh roqhohnoihgnngijkhjh o V V |
  1
/061+ {rn nqmfokjjonlkgomglm nqmnfojgjnnkgjnfjj o |
  1
<0:;8: {rn {mkl {mil {rn {mik o {i {rn |
  1
:;8: {rn {mij {mjj {mkl {mii o |
  1
):-+:' {rn {mjk {mih |
  1
,+->687+r<*-): {rn mqllmmknohoknkkkhk nqoimmhmkjkinhkgik o oqhohnoihgnljionff oqhohnoihgnonhohjli o V V |
  1
/061+ {rn mqlhhmknohokmjmlni nqnohmhmkjkioihool o |
  1
<0:;8: {rn {mig {mkg {rn {mif n {i {rn |
  1
:;8: {rn {mio {mho {mkg {mhn o |
  1
):-+:' {rn {mkf {mhm |
  1
,+->687+r<*-): {rn nqkkffohjfmilhgkfj nqojfiojflmlmhimfm o n o o V V |
  1
/061+ {rn nqkkffohjfmilhgkfj nqojfiojflmlmhimfm o |
  1
<0:;8: {rn {mjl {mhl {rn {mhk o {i {rn |
  1
:;8: {rn {mhj {mij {mjl {mhi o |
  1
):-+:' {rn {mik {mhh |
  1
,+->687+r<*-): {rn mqlommknohoknkkkfg nqoimmhmkjkimkihhn o n rmqlfigfhkfjmfhjfhi:rono o V V |
  1
/061+ {rn mqllmmknohoknkkkhk nqoimmhmkjkinhkgik o |
  1
<0:;8: {rn {mhg {mjg {rn {mhf o {i {rn |
  1
:;8: {rn {mgo {mho {mjg {mgn o |
  1
):-+:' {rn {mjf {mgm |
  1
,+->687+r<*-): {rn nqjlhmknohoknlgofg nqojfiojflmlmhimfm o mqlfigmlkgmogmhjgk:rono n o V V |
  1
/061+ {rn nqjlhmknohoknlgofg nqojfiojflmlmhimfm o |
  1
<0:;8: {rn {mil {mgl {rn {mgk n {i {rn |
  1
:;8: {rn {mgj {mhj {mil {mgi o |
  1
):-+:' {rn {mhk {mgh |
  1
:336/,:r<*-): {rn mqlommknohokngoklg nqohhmhmkjkimkihii o o o n oqonkffffffffffffmli o o n V V |
  1
/061+ {rn mqlommknohoknkkkfg nqoimmhmkjkimkihhl o |
  1
<0:;8: {rn {mgg {mig {rn {mgf o {i {rn |
  1
:;8: {rn {mgo {mfo {mig {mfn o |
  1
):-+:' {rn {mif {mfm |
  1
:336/,:r<*-): {rn nqjjmmknohokkognmf nqnhmmhmkjkgokklkg o o o n oqonkffffffffffffonk o o n V V |
  1
/061+ {rn nqjlhmknohokkognlf nqnhmmhmkjkgogomgi o |
  1
<0:;8: {rn {mhl {mfl {rn {mfk o {i {rn |
  1
:;8: {rn {mgj {mfj {mhl {mfi o |
  1
):-+:' {rn {mgk {mfh |
  1
,+->687+r<*-): {rn mqmghmknohokkognlf nqnhmmhmkjkimgmhnf o rmqlfihhmglgihhohfh:rono rn o V V |
  1
/061+ {rn mqmghmknohokngokki nqohhmhmkjkimgmhnl o |
  1
<0:;8: {rn {mfg {mhg {rn {mff o {i {rn |
  1
:;8: {rn {mfo {loo {mhg {lon o |
  1
):-+:' {rn {mhf {lom |
  1
,+->687+r<*-): {rn nqjjmmknohokkkkoil nqnghmhmkjkgokkllg o n rmqhlnkkgiilnmghgjk:rono o V V |
  1
/061+ {rn nqjjmmknohokkkkoil nqnghmhmkjkgokkllg o |
  1
<0:;8: {rn {mgl {mfg {rn {lol o {i {rn |
  1
:;8: {rn {lok {mfj {mgl {loj o |
  1
):-+:' {rn {mfk {loi |
  1
:336/,:r<*-): {rn mqmhmmknohokkognlg nqnhmmhmkjkilngihm o o o n oqonjoooooooooooonmk o o n V V |
  1
/061+ {rn mqmghmknohokkognlf nqnhmmhmkjkimgmhnf o |
  1
<0:;8: {rn {mfl {mgg {rn {loh o {i {rn |
  1
:;8: {rn {loo {log {mgg {lof o |
  1
):-+:' {rn {mgf {lno |
  1
,+->687+r<*-): {rn nqgnlohfoglkfkkikg nqnghmhmkjkhllnghm o mqognnhfihlmnogohj:rono n o V V |
  1
/061+ {rn nqgnlohfoglkfkkikg nqnghmhmkjkhllnghm o |
  1
:;8: {rn {lnn {lok {mfl {lnm o |
  1
):-+:' {rn {lol {lnl |
  1
,+->687+r<*-): {rn mqonlklhnmmlmofmik nqnghmhmkjkiflgfjn o n rmqlfihoihmjningoll:rono o V V |
  1
/061+ {rn mqmhmmknohokkkkogh nqnghmhmkjkilngihk o |
  1
:;8: {rn {log {lnn {mfg {lnk o |
  1
):-+:' {rn {mff {lnj |
  1
,+->687+r<*-): {rn nqgnlohfogljokghoh nqmlhmhmkjkhmfnnji o oqgiiomjkolhgkkkohn oqkfffffffffffffilk o V V |
  1
/061+ {rn nqgnlohfogljokghoh nqmlhmhmkjkhmfnnji o |
  1
):-+:' {rn {loh {lni |
  1
,+->687+r<*-): {rn mqonlklhnmmlmmjool nqmlhmhmkjkhojmgli o rlqnkhhoklnghoomfmn:ronn rn o V V |
  1
/061+ {rn mqonlklhnmmlmofmik nqnghmhmkjkiflgfjn o |
  1
,+->687+r<*-): {rn nqfnlmjgnomgflokhg nqmfjnnoglgjkoolng o oqgiiomjkolhgkklkkf roqjooooooooooooohmm o V V |
  1
/061+ {rn nqfnlmjgnomgflokhg nqmfjnnoglgjkoolng o |
  1
/061+ {rn mqonlklhnmmlmmjool nqmlhmhmkjkhojmgli o |
  0
LINE
  5
A62
330
78D
100
AcDbEntity
  8
TEXT
100
AcDbLine
 10
1.804323052550415
 20
0.4409803262794548
 30
0.0
 11
1.804323052550415
 21
0.5823098584585935
 31
0.0
  0
LINE
  5
A63
330
78D
100
AcDbEntity
  8
TEXT
100
AcDbLine
 10
1.851421211106398
 20
0.5168456526909928
 30
0.0
 11
1.804323052550415
 21
0.4409803262794548
 31
0.0
  0
LINE
  5
A64
330
78D
100
AcDbEntity
  8
TEXT
100
AcDbLine
 10
1.861855927870323
 20
0.4069524097500193
 30
0.0
 11
1.926413043836028
 21
0.5168456526909928
 31
0.0
  0
TEXT
  5
A65
330
78D
100
AcDbEntity
  8
TEXT
100
AcDbText
 10
2.109411739333337
 20
0.4365168553142702
 30
0.0
 40
0.0522247191011236
  1
6536 Main St. N.E. * P.O. Box 32008
 41
0.8388932496075355
 72
     5
 11
3.438344323603001
 21
0.4365168553142702
 31
0.0
100
AcDbText
  0
ARC
  5
A66
330
78D
100
AcDbEntity
  8
TEXT
100
AcDbCircle
 10
1.663840080035077
 20
0.4276630827515647
 30
0.0
 40
0.0249058752826653
100
AcDbArc
 50
89.99971217465335
 51
179.9999999999985
  0
LINE
  5
A67
330
78D
100
AcDbEntity
  8
TEXT
100
AcDbLine
 10
1.576639313612044
 20
0.4116336741375655
 30
0.0
 11
1.532888542430143
 21
0.4938839501337107
 31
0.0
  0
LINE
  5
A68
330
78D
100
AcDbEntity
  8
TEXT
100
AcDbLine
 10
1.576639313612044
 20
0.5168456526909928
 30
0.0
 11
1.576639313612044
 21
0.4116336741375655
 31
0.0
  0
ARC
  5
A69
330
78D
100
AcDbEntity
  8
TEXT
100
AcDbCircle
 10
1.468648476392525
 20
0.4242095830342301
 30
0.0
 40
0.028359375
100
AcDbArc
 50
25.78218179591245
 51
90.0
  0
LINE
  5
A6A
330
78D
100
AcDbEntity
  8
TEXT
100
AcDbLine
 10
1.006654015208777
 20
0.332760457805481
 30
0.0
 11
1.006654015208777
 21
0.5848571304298034
 31
0.0
  0
LINE
  5
A6B
330
78D
100
AcDbEntity
  8
TEXT
100
AcDbLine
 10
1.038965869346437
 20
0.5168456526909928
 30
0.0
 11
1.038965869346437
 21
0.3159814459585846
 31
0.0
  0
LINE
  5
A6C
330
78D
100
AcDbEntity
  8
TEXT
100
AcDbLine
 10
0.9097233898490344
 20
0.5168456526909928
 30
0.0
 11
0.8509748270431707
 21
0.4159736565778723
 31
0.0
  0
LINE
  5
A6D
330
78D
100
AcDbEntity
  8
TEXT
100
AcDbLine
 10
0.8509748270431707
 20
0.4159736565778723
 30
0.0
 11
0.7923445060112329
 21
0.5168456526909928
 31
0.0
  0
ARC
  5
A6E
330
78D
100
AcDbEntity
  8
TEXT
100
AcDbCircle
 10
0.4847711821248062
 20
0.4347581932444911
 30
0.0
 40
0.0820874594465043
100
AcDbArc
 50
90.0
 51
270.0
  0
LWPOLYLINE
  5
A6F
330
78D
100
AcDbEntity
  8
TEXT
100
AcDbPolyline
 90
        2
 70
     0
 43
0.0001332181640625
 10
0.0766848490238417
 20
0.4435756624566168
 10
0.0666934867191511
 20
0.5168456526909964
  0
LWPOLYLINE
  5
A70
330
78D
100
AcDbEntity
  8
TEXT
100
AcDbPolyline
 90
        2
 70
     0
 43
0.0001332181640625
 10
0.0666934867191511
 20
0.4902020198784954
 10
0.0766848490238417
 20
0.4302538460503698
  0
LWPOLYLINE
  5
A71
330
78D
100
AcDbEntity
  8
TEXT
100
AcDbPolyline
 90
        2
 70
     0
 43
0.0001332181640625
 10
0.1066589359379026
 20
0.4902020198784954
 10
0.0966675736332139
 20
0.4302538460503698
  0
LWPOLYLINE
  5
A72
330
78D
100
AcDbEntity
  8
TEXT
100
AcDbPolyline
 90
        2
 70
     0
 43
0.0001332181640625
 10
0.1066589359379026
 20
0.5168456526909964
 10
0.0966675736332139
 20
0.4435756624566168
  0
LWPOLYLINE
  5
A73
330
78D
100
AcDbEntity
  8
TEXT
100
AcDbPolyline
 90
        3
 70
     0
 43
0.0006660908203125
 10
0.2198943753910285
 20
0.4036102132378688
 10
0.2198943753910285
 20
0.5168456526909964
 10
0.1066589359379026
 20
0.5168456526909964
  0
LWPOLYLINE
  5
A74
330
78D
100
AcDbEntity
  8
TEXT
100
AcDbPolyline
 90
        3
 70
     0
 43
0.0006660908203125
 10
0.1932507425785275
 20
0.4036102132378688
 10
0.1932507425785275
 20
0.4902020198784954
 10
0.1066589359379026
 20
0.4902020198784954
  0
LWPOLYLINE
  5
A75
330
78D
100
AcDbEntity
  8
TEXT
100
AcDbPolyline
 90
        2
 70
     0
 43
0.0001332181640625
 10
0.1932507425785275
 20
0.4902020198784954
 10
0.1333025687504037
 20
0.4302538460503698
  0
LWPOLYLINE
  5
A76
330
78D
100
AcDbEntity
  8
TEXT
100
AcDbPolyline
 90
        2
 70
     0
 43
0.0001332181640625
 10
-0.0198983199214737
 20
0.4902020198784954
 10
0.0400498539066518
 20
0.4302538460503698
  0
LWPOLYLINE
  5
A77
330
78D
100
AcDbEntity
  8
TEXT
100
AcDbPolyline
 90
        3
 70
     0
 43
0.0006660908203125
 10
0.0666934867191511
 20
0.5168456526909964
 10
-0.0465419527339712
 20
0.5168456526909964
 10
-0.0465419527339712
 20
0.4036102132378688
  0
LWPOLYLINE
  5
A78
330
78D
100
AcDbEntity
  8
TEXT
100
AcDbPolyline
 90
        3
 70
     0
 43
0.0006660908203125
 10
0.0666934867191511
 20
0.4902020198784954
 10
-0.0198983199214737
 20
0.4902020198784954
 10
-0.0198983199214737
 20
0.4036102132378688
  0
LINE
  5
A79
330
78D
100
AcDbEntity
  8
TEXT
100
AcDbLine
 10
0.5556086484833554
 20
0.4167642364235995
 30
0.0
 11
0.4900085122390543
 21
0.4167642364235995
 31
0.0
  0
LINE
  5
A7A
330
78D
100
AcDbEntity
  8
TEXT
100
AcDbLine
 10
0.4847711821248062
 20
0.3526707337979857
 30
0.0
 11
0.560549022389635
 21
0.3526707337979857
 31
0.0
  0
LINE
  5
A7B
330
78D
100
AcDbEntity
  8
TEXT
100
AcDbLine
 10
0.4026837226783027
 20
0.2503726197024818
 30
0.0
 11
0.5556086484833554
 21
0.2503726197024818
 31
0.0
  0
LINE
  5
A7C
330
78D
100
AcDbEntity
  8
TEXT
100
AcDbLine
 10
0.560549022389635
 20
0.3187296260359211
 30
0.0
 11
0.4026837226783009
 21
0.3187296260359211
 31
0.0
  0
LINE
  5
A7D
330
78D
100
AcDbEntity
  8
TEXT
100
AcDbLine
 10
0.4900085122390543
 20
0.4525689580342274
 30
0.0
 11
0.6569141662680238
 21
0.4525689580342274
 31
0.0
  0
LWPOLYLINE
  5
A7E
330
78D
100
AcDbEntity
  8
TEXT
100
AcDbPolyline
 90
        2
 70
     0
 43
0.0006660908203125
 10
0.1932507425785275
 20
0.4036102132378688
 10
0.2198943753910285
 20
0.4036102132378688
  0
LWPOLYLINE
  5
A7F
330
78D
100
AcDbEntity
  8
TEXT
100
AcDbPolyline
 90
        2
 70
     0
 43
0.0001332181640625
 10
0.1466243851566524
 20
0.3936188509331799
 10
0.2198943753910285
 20
0.4036102132378688
  0
LWPOLYLINE
  5
A80
330
78D
100
AcDbEntity
  8
TEXT
100
AcDbPolyline
 90
        2
 70
     0
 43
0.0006660908203125
 10
0.1932507425785275
 20
0.3636447640191207
 10
0.2198943753910285
 20
0.3636447640191207
  0
LWPOLYLINE
  5
A81
330
78D
100
AcDbEntity
  8
TEXT
100
AcDbPolyline
 90
        3
 70
     0
 43
0.0006660908203125
 10
0.1066589359379026
 20
0.2504093245659931
 10
0.2198943753910285
 20
0.2504093245659931
 10
0.2198943753910285
 20
0.3636447640191207
  0
LWPOLYLINE
  5
A82
330
78D
100
AcDbEntity
  8
TEXT
100
AcDbPolyline
 90
        2
 70
     0
 43
0.0001332181640625
 10
0.2198943753910285
 20
0.3636447640191207
 10
0.1466243851566524
 20
0.3736361263238059
  0
LWPOLYLINE
  5
A83
330
78D
100
AcDbEntity
  8
TEXT
100
AcDbPolyline
 90
        3
 70
     0
 43
0.0006660908203125
 10
-0.0465419527339712
 20
0.3636447640191207
 10
-0.0465419527339712
 20
0.2504093245659931
 10
0.0666934867191511
 20
0.2504093245659931
  0
LWPOLYLINE
  5
A84
330
78D
100
AcDbEntity
  8
TEXT
100
AcDbPolyline
 90
        3
 70
     0
 43
0.0006660908203125
 10
-0.0198983199214737
 20
0.3636447640191207
 10
-0.0198983199214737
 20
0.2770529573784941
 10
0.0666934867191511
 20
0.2770529573784941
  0
LWPOLYLINE
  5
A85
330
78D
100
AcDbEntity
  8
TEXT
100
AcDbPolyline
 90
        5
 70
     0
 43
0.0001332181640625
 10
0.0766848490238417
 20
0.3236793148003692
 10
0.0766848490238417
 20
0.3370011312066197
 10
0.0400498539066536
 20
0.3370011312066197
 10
0.0400498539066536
 20
0.3736361263238059
 10
0.0267280375004031
 20
0.3736361263238059
  0
LWPOLYLINE
  5
A86
330
78D
100
AcDbEntity
  8
TEXT
100
AcDbPolyline
 90
        5
 70
     0
 43
0.0001332181640625
 10
0.0267280375004031
 20
0.3936188509331799
 10
0.0400498539066518
 20
0.3936188509331799
 10
0.0400498539066518
 20
0.4302538460503698
 10
0.0766848490238417
 20
0.4302538460503698
 10
0.0766848490238417
 20
0.4435756624566168
  0
LWPOLYLINE
  5
A87
330
78D
100
AcDbEntity
  8
TEXT
100
AcDbPolyline
 90
        2
 70
     0
 43
0.0001332181640625
 10
-0.0198983199214737
 20
0.4036102132378688
 10
0.0400498539066518
 20
0.3936188509331799
  0
LWPOLYLINE
  5
A88
330
78D
100
AcDbEntity
  8
TEXT
100
AcDbPolyline
 90
        2
 70
     0
 43
0.0001332181640625
 10
-0.0465419527339712
 20
0.4036102132378688
 10
0.0267280375004031
 20
0.3936188509331799
  0
LWPOLYLINE
  5
A89
330
78D
100
AcDbEntity
  8
TEXT
100
AcDbPolyline
 90
        2
 70
     0
 43
0.0006660908203125
 10
-0.0198983199214737
 20
0.4036102132378688
 10
-0.0465419527339712
 20
0.4036102132378688
  0
LWPOLYLINE
  5
A8A
330
78D
100
AcDbEntity
  8
TEXT
100
AcDbPolyline
 90
        2
 70
     0
 43
0.0001332181640625
 10
-0.0198983199214737
 20
0.2770529573784941
 10
0.0400498539066536
 20
0.3370011312066197
  0
LWPOLYLINE
  5
A8B
330
78D
100
AcDbEntity
  8
TEXT
100
AcDbPolyline
 90
        2
 70
     0
 43
0.0006660908203125
 10
-0.0198983199214737
 20
0.3636447640191207
 10
-0.0465419527339712
 20
0.3636447640191207
  0
LWPOLYLINE
  5
A8C
330
78D
100
AcDbEntity
  8
TEXT
100
AcDbPolyline
 90
        2
 70
     0
 43
0.0001332181640625
 10
0.0267280375004031
 20
0.3736361263238059
 10
-0.0465419527339712
 20
0.3636447640191207
  0
LWPOLYLINE
  5
A8D
330
78D
100
AcDbEntity
  8
TEXT
100
AcDbPolyline
 90
        2
 70
     0
 43
0.0001332181640625
 10
-0.0198983199214737
 20
0.3636447640191207
 10
0.0400498539066536
 20
0.3736361263238059
  0
LWPOLYLINE
  5
A8E
330
78D
100
AcDbEntity
  8
TEXT
100
AcDbPolyline
 90
        5
 70
     0
 43
0.0001332181640625
 10
0.0966675736332139
 20
0.4435756624566168
 10
0.0966675736332139
 20
0.4302538460503698
 10
0.1333025687504037
 20
0.4302538460503698
 10
0.1333025687504037
 20
0.3936188509331799
 10
0.1466243851566524
 20
0.3936188509331799
  0
LWPOLYLINE
  5
A8F
330
78D
100
AcDbEntity
  8
TEXT
100
AcDbPolyline
 90
        2
 70
     0
 43
0.0001332181640625
 10
0.1932507425785275
 20
0.4036102132378688
 10
0.1333025687504037
 20
0.3936188509331799
  0
LWPOLYLINE
  5
A90
330
78D
100
AcDbEntity
  8
TEXT
100
AcDbPolyline
 90
        2
 70
     0
 43
0.0006660908203125
 10
0.0666934867191511
 20
0.2770529573784941
 10
0.0666934867191511
 20
0.2504093245659931
  0
LWPOLYLINE
  5
A91
330
78D
100
AcDbEntity
  8
TEXT
100
AcDbPolyline
 90
        2
 70
     0
 43
0.0001332181640625
 10
0.0666934867191511
 20
0.2770529573784941
 10
0.0766848490238417
 20
0.3370011312066197
  0
LWPOLYLINE
  5
A92
330
78D
100
AcDbEntity
  8
TEXT
100
AcDbPolyline
 90
        2
 70
     0
 43
0.0001332181640625
 10
0.0666934867191511
 20
0.2504093245659931
 10
0.0766848490238417
 20
0.3236793148003692
  0
LWPOLYLINE
  5
A93
330
78D
100
AcDbEntity
  8
TEXT
100
AcDbPolyline
 90
        2
 70
     0
 43
0.0001332181640625
 10
0.1066589359379026
 20
0.2770529573784941
 10
0.0966675736332139
 20
0.3370011312066197
  0
LWPOLYLINE
  5
A94
330
78D
100
AcDbEntity
  8
TEXT
100
AcDbPolyline
 90
        2
 70
     0
 43
0.0001332181640625
 10
0.0966675736332139
 20
0.3236793148003692
 10
0.1066589359379026
 20
0.2504093245659931
  0
LWPOLYLINE
  5
A95
330
78D
100
AcDbEntity
  8
TEXT
100
AcDbPolyline
 90
        2
 70
     0
 43
0.0006660908203125
 10
0.1066589359379026
 20
0.2770529573784941
 10
0.1066589359379026
 20
0.2504093245659931
  0
LWPOLYLINE
  5
A96
330
78D
100
AcDbEntity
  8
TEXT
100
AcDbPolyline
 90
        2
 70
     0
 43
0.0001332181640625
 10
0.1932507425785275
 20
0.2770529573784941
 10
0.1333025687504037
 20
0.3370011312066197
  0
LWPOLYLINE
  5
A97
330
78D
100
AcDbEntity
  8
TEXT
100
AcDbPolyline
 90
        3
 70
     0
 43
0.0006660908203125
 10
0.1066589359379026
 20
0.2770529573784941
 10
0.1932507425785275
 20
0.2770529573784941
 10
0.1932507425785275
 20
0.3636447640191207
  0
LWPOLYLINE
  5
A98
330
78D
100
AcDbEntity
  8
TEXT
100
AcDbPolyline
 90
        2
 70
     0
 43
0.0001332181640625
 10
0.1932507425785275
 20
0.3636447640191207
 10
0.1333025687504037
 20
0.3736361263238059
  0
LWPOLYLINE
  5
A99
330
78D
100
AcDbEntity
  8
TEXT
100
AcDbPolyline
 90
        5
 70
     0
 43
0.0001332181640625
 10
0.1466243851566524
 20
0.3736361263238059
 10
0.1333025687504037
 20
0.3736361263238059
 10
0.1333025687504037
 20
0.3370011312066197
 10
0.0966675736332139
 20
0.3370011312066197
 10
0.0966675736332139
 20
0.3236793148003692
  0
ARC
  5
A9A
330
78D
100
AcDbEntity
  8
TEXT
100
AcDbCircle
 10
0.4900085122390543
 20
0.4346665972289152
 30
0.0
 40
0.017902360805315
100
AcDbArc
 50
90.0
 51
270.0
  0
LINE
  5
A9B
330
78D
100
AcDbEntity
  8
TEXT
100
AcDbLine
 10
0.4026837226783009
 20
0.3187296260359211
 30
0.0
 11
0.4026837226783027
 21
0.2503726197024818
 31
0.0
  0
TEXT
  5
A9C
330
78D
100
AcDbEntity
  8
TEXT
100
AcDbText
 10
2.109411739333337
 20
0.2500000013816859
 30
0.0
 40
0.0522247191011236
  1
Phone  1-800-328-2495
 41
1.272321428571429
 72
     5
 11
3.438344323603001
 21
0.2500000013816859
 31
0.0
100
AcDbText
  0
TEXT
  5
A9D
330
78D
100
AcDbEntity
  8
TEXT
100
AcDbText
 10
2.109411739333337
 20
0.343258428347978
 30
0.0
 40
0.0522247191011236
  1
Minneapolis, MN 55432-0008
 41
1.11444212721585
 72
     5
 11
3.438344323603001
 21
0.343258428347978
 31
0.0
100
AcDbText
  0
LINE
  5
A9E
330
78D
100
AcDbEntity
  8
TEXT
100
AcDbLine
 10
1.663840080035079
 20
0.4525689580342274
 30
0.0
 11
1.740488061327635
 21
0.4525689580342274
 31
0.0
  0
LINE
  5
A9F
330
78D
100
AcDbEntity
  8
TEXT
100
AcDbLine
 10
1.105796922404405
 20
0.4525689580342274
 30
0.0
 11
1.155632202227554
 21
0.4525689580342274
 31
0.0
  0
ARC
  5
AA0
330
78D
100
AcDbEntity
  8
TEXT
100
AcDbCircle
 10
0.8073310301340015
 20
0.2899203419761775
 30
0.0
 40
0.0392772371940762
100
AcDbArc
 50
270.1604552698595
 51
330.0831797321295
  0
ARC
  5
AA1
330
78D
100
AcDbEntity
  8
TEXT
100
AcDbCircle
 10
0.7170301842417768
 20
0.3101650110405316
 30
0.0
 40
0.0601160179737537
100
AcDbArc
 50
180.0000000000003
 51
264.0521544866073
  0
LINE
  5
AA2
330
78D
100
AcDbEntity
  8
TEXT
100
AcDbLine
 10
0.6569141662680238
 20
0.4525689580342274
 30
0.0
 11
0.6569141662680238
 21
0.3101650110405316
 31
0.0
  0
ARC
  5
AA3
330
78D
100
AcDbEntity
  8
TEXT
100
AcDbCircle
 10
0.560549022389635
 20
0.3357001799169552
 30
0.0
 40
0.0169705538810321
100
AcDbArc
 50
270.0
 51
90.0
  0
ARC
  5
AA4
330
78D
100
AcDbEntity
  8
TEXT
100
AcDbCircle
 10
0.5556086484833554
 20
0.3335684280630389
 30
0.0
 40
0.0831958083605586
100
AcDbArc
 50
270.0
 51
90.0
  0
LWPOLYLINE
  5
AA5
330
78D
100
AcDbEntity
  8
TEXT
100
AcDbPolyline
 90
        6
 70
     1
 43
0.0
 10
0.75332457732328
 20
0.4525689580342274
 10
0.7230079831030718
 20
0.4525689580342274
 10
0.7230079831030718
 20
0.329457959979333
 42
0.407328721240804
 10
0.7345516342645482
 20
0.3176390453029469
 10
0.795173333309279
 20
0.3176390453029469
 10
0.8126386737165969
 20
0.3504512743464261
  0
LINE
  5
AA6
330
78D
100
AcDbEntity
  8
TEXT
100
AcDbLine
 10
0.7108007737481295
 20
0.2503726197024818
 30
0.0
 11
0.8074410248231238
 21
0.2506432588007641
 31
0.0
  0
LWPOLYLINE
  5
AA7
330
78D
100
AcDbEntity
  8
TEXT
100
AcDbPolyline
 90
        2
 70
     0
 43
0.0
 10
0.9386742961396592
 20
0.3019239619174101
 42
0.3318488747599744
 10
1.007793588704972
 20
0.2503726197024818
 42
-6.868794160588311
  0
LINE
  5
AA8
330
78D
100
AcDbEntity
  8
TEXT
100
AcDbLine
 10
0.9386742961396592
 20
0.4346813367427629
 30
0.0
 11
0.9386742961396592
 21
0.3019239619174066
 31
0.0
  0
LINE
  5
AA9
330
78D
100
AcDbEntity
  8
TEXT
100
AcDbLine
 10
0.8413745900462146
 20
0.2703311258074947
 30
0.0
 11
0.9386742961396592
 21
0.4346813367427629
 31
0.0
  0
ARC
  5
AAA
330
78D
100
AcDbEntity
  8
TEXT
100
AcDbCircle
 10
1.021972232461834
 20
0.33136325220201
 30
0.0
 40
0.0153818062434269
100
AcDbArc
 50
174.7883570302258
 51
270.0
  0
LINE
  5
AAB
330
78D
100
AcDbEntity
  8
TEXT
100
AcDbLine
 10
1.038965869346437
 20
0.3159814459585846
 30
0.0
 11
1.021972232461834
 21
0.3159814459585846
 31
0.0
  0
LINE
  5
AAC
330
78D
100
AcDbEntity
  8
TEXT
100
AcDbLine
 10
1.00779358870497
 20
0.2503726197024818
 30
0.0
 11
1.105796922404405
 21
0.2503726197024818
 31
0.0
  0
LINE
  5
AAD
330
78D
100
AcDbEntity
  8
TEXT
100
AcDbLine
 10
1.105796922404405
 20
0.2503726197024818
 30
0.0
 11
1.105796922404405
 21
0.4525689580342274
 31
0.0
  0
LINE
  5
AAE
330
78D
100
AcDbEntity
  8
TEXT
100
AcDbLine
 10
1.468648476392527
 20
0.4525689580342274
 30
0.0
 11
1.361442203005235
 21
0.4525689580342274
 31
0.0
  0
LINE
  5
AAF
330
78D
100
AcDbEntity
  8
TEXT
100
AcDbLine
 10
1.422161561913263
 20
0.4152939845720951
 30
0.0
 11
1.504449551696648
 21
0.4152939845720951
 31
0.0
  0
LWPOLYLINE
  5
AB0
330
78D
100
AcDbEntity
  8
TEXT
100
AcDbPolyline
 90
        4
 70
     1
 43
0.0
 10
1.517380592979547
 20
0.353336597686507
 10
1.428720274319688
 20
0.353336597686507
 42
0.9999999999999998
 10
1.428720274319688
 20
0.3109380571826463
 10
1.517380592979547
 20
0.3109380571826463
 42
1.0
  0
LWPOLYLINE
  5
AB1
330
78D
100
AcDbEntity
  8
TEXT
100
AcDbPolyline
 90
        2
 70
     0
 43
0.0
 10
1.403485640418063
 20
0.2503726197024818
 10
1.537503058049439
 20
0.2503726197024818
 42
0.9999999999999998
  0
LINE
  5
AB2
330
78D
100
AcDbEntity
  8
TEXT
100
AcDbLine
 10
1.230244038175506
 20
0.4525689580342274
 30
0.0
 11
1.284377635096458
 21
0.4525689580342274
 31
0.0
  0
LINE
  5
AB3
330
78D
100
AcDbEntity
  8
TEXT
100
AcDbLine
 10
1.163185991393667
 20
0.2503726197024818
 30
0.0
 11
1.230244038175506
 21
0.2503726197024818
 31
0.0
  0
LINE
  5
AB4
330
78D
100
AcDbEntity
  8
TEXT
100
AcDbLine
 10
1.230244038175506
 20
0.2503726197024818
 30
0.0
 11
1.230244038175506
 21
0.4525689580342274
 31
0.0
  0
LINE
  5
AB5
330
78D
100
AcDbEntity
  8
TEXT
100
AcDbLine
 10
1.163185991393667
 20
0.4450151688681175
 30
0.0
 11
1.163185991393667
 21
0.2503726197024818
 31
0.0
  0
LWPOLYLINE
  5
AB6
330
78D
100
AcDbEntity
  8
TEXT
100
AcDbPolyline
 90
        2
 70
     0
 43
0.0
 10
1.155632202227552
 20
0.4525689580342274
 42
-0.4142135623731017
 10
1.163185991393666
 20
0.4450151688681175
 42
-0.9999999999999998
  0
LINE
  5
AB7
330
78D
100
AcDbEntity
  8
TEXT
100
AcDbLine
 10
1.361442203005235
 20
0.4525689580342274
 30
0.0
 11
1.361442203005235
 21
0.3775165519600208
 31
0.0
  0
ARC
  5
AB8
330
78D
100
AcDbEntity
  8
TEXT
100
AcDbCircle
 10
1.422161561913263
 20
0.3476084034279765
 30
0.0
 40
0.0676855811441166
100
AcDbArc
 50
90.0
 51
153.7768192527749
  0
LWPOLYLINE
  5
AB9
330
78D
100
AcDbEntity
  8
TEXT
100
AcDbPolyline
 90
        2
 70
     0
 43
0.0
 10
1.360409707550427
 20
0.2938635646529199
 42
0.2901071551932823
 10
1.403485640418063
 20
0.2503726197024818
 42
5.328517124445801
  0
LWPOLYLINE
  5
ABA
330
78D
100
AcDbEntity
  8
TEXT
100
AcDbPolyline
 90
        2
 70
     0
 43
0.0
 10
1.284377635096456
 20
0.4525689580342274
 42
-0.4142135623731017
 10
1.291931424262569
 20
0.4450151688681175
 42
-0.9999999999999998
  0
LWPOLYLINE
  5
ABB
330
78D
100
AcDbEntity
  8
TEXT
100
AcDbPolyline
 90
        4
 70
     0
 43
0.0
 10
1.291931424262569
 20
0.4450151688681175
 10
1.291931424262569
 20
0.2503726197024818
 10
1.360409707550427
 20
0.2503726197024818
 10
1.360409707550427
 20
0.2938635646529199
 42
-1.714843617202739
  0
LWPOLYLINE
  5
ABC
330
78D
100
AcDbEntity
  8
TEXT
100
AcDbPolyline
 90
        2
 70
     0
 43
0.0
 10
1.580578990917084
 20
0.2938635646529199
 42
-0.2901071551932486
 10
1.537503058049439
 20
0.2503726197024818
 42
-5.328517124445184
  0
LWPOLYLINE
  5
ABD
330
78D
100
AcDbEntity
  8
TEXT
100
AcDbPolyline
 90
        2
 70
     0
 43
0.0
 10
1.580578990917084
 20
0.2503726197024818
 10
1.638934204752418
 20
0.2503726197024818
  0
LWPOLYLINE
  5
ABE
330
78D
100
AcDbEntity
  8
TEXT
100
AcDbPolyline
 90
        2
 70
     0
 43
0.0
 10
1.580578990917084
 20
0.2938635646529199
 10
1.580578990917084
 20
0.2503726197024818
  0
LINE
  5
ABF
330
78D
100
AcDbEntity
  8
TEXT
100
AcDbLine
 10
1.504449551696648
 20
0.4152939845720951
 30
0.0
 11
1.494184791283082
 21
0.4365445241447894
 31
0.0
  0
LINE
  5
AC0
330
78D
100
AcDbEntity
  8
TEXT
100
AcDbLine
 10
1.63893420475242
 20
0.2503726197024818
 30
0.0
 11
1.638934204752413
 21
0.4276631251339503
 31
0.0
  0
LINE
  5
AC1
330
78D
100
AcDbEntity
  8
TEXT
100
AcDbLine
 10
1.957348151233933
 20
0.2503726197024818
 30
0.0
 11
1.861855927870323
 21
0.4069524097500193
 31
0.0
  0
LINE
  5
AC2
330
78D
100
AcDbEntity
  8
TEXT
100
AcDbLine
 10
1.880769778857725
 20
0.2503726197024818
 30
0.0
 11
1.957348151233933
 21
0.2503726197024818
 31
0.0
  0
LINE
  5
AC3
330
78D
100
AcDbEntity
  8
TEXT
100
AcDbLine
 10
1.740488061327642
 20
0.2503726197024818
 30
0.0
 11
1.804866245646262
 21
0.2503726197024818
 31
0.0
  0
LINE
  5
AC4
330
78D
100
AcDbEntity
  8
TEXT
100
AcDbLine
 10
1.740488061327635
 20
0.4525689580342274
 30
0.0
 11
1.740488061327642
 21
0.2503726197024818
 31
0.0
  0
LINE
  5
AC5
330
78D
100
AcDbEntity
  8
TEXT
100
AcDbLine
 10
1.804866245646262
 20
0.381952188178662
 30
0.0
 11
1.880769778857725
 21
0.2503726197024818
 31
0.0
  0
LINE
  5
AC6
330
78D
100
AcDbEntity
  8
TEXT
100
AcDbLine
 10
1.804866245646262
 20
0.2503726197024818
 30
0.0
 11
1.804866245646262
 21
0.381952188178662
 31
0.0
  0
LINE
  5
AC7
330
78D
100
AcDbEntity
  8
TEXT
100
AcDbLine
 10
0.6605029350233167
 20
0.5168456526909928
 30
0.0
 11
0.4847711821248062
 21
0.5168456526909928
 31
0.0
  0
LWPOLYLINE
  5
AC8
330
78D
100
AcDbEntity
  8
TEXT
100
AcDbPolyline
 90
        2
 70
     0
 43
0.0006660908203125
 10
0.0666934867191511
 20
0.4902020198784954
 10
0.0666934867191511
 20
0.5168456526909964
  0
LWPOLYLINE
  5
AC9
330
78D
100
AcDbEntity
  8
TEXT
100
AcDbPolyline
 90
        2
 70
     0
 43
0.0006660908203125
 10
0.1066589359379026
 20
0.4902020198784954
 10
0.1066589359379026
 20
0.5168456526909964
  0
TEXT
  5
ACA
330
78D
100
AcDbEntity
  8
TEXT
100
AcDbText
 10
2.109411739333337
 20
0.5297752822805624
 30
0.0
 40
0.0522247191011236
  1
Stylmark  Incorporated
 41
1.221428571428571
 72
     5
 11
3.438344323603001
 21
0.5297752822805624
 31
0.0
100
AcDbText
  0
LINE
  5
ACB
330
78D
100
AcDbEntity
  8
TEXT
100
AcDbLine
 10
1.736008174001135
 20
0.5168456526909928
 30
0.0
 11
1.66850845635162
 21
0.5168456526909928
 31
0.0
  0
TEXT
  5
ACC
330
78D
100
AcDbEntity
  8
TEXT
100
AcDbText
 10
0.9431303906068247
 20
0.6969226440540615
 30
0.0
 40
0.125
  1
PART #110474
  7
ITALICC
 72
     1
 11
1.696106581083014
 21
0.6969226440540615
 31
0.0
100
AcDbText
  0
LINE
  5
ACD
330
78D
100
AcDbEntity
  8
TEXT
100
AcDbLine
 10
1.172983925277574
 20
0.5168456526909928
 30
0.0
 11
1.038965869346437
 21
0.5168456526909928
 31
0.0
  0
LINE
  5
ACE
330
78D
100
AcDbEntity
  8
TEXT
100
AcDbLine
 10
0.7205455398673238
 20
0.551233570285131
 30
0.0
 11
0.6605029350233167
 21
0.551233570285131
 31
0.0
  0
LINE
  5
ACF
330
78D
100
AcDbEntity
  8
TEXT
100
AcDbLine
 10
0.6605029350233167
 20
0.551233570285131
 30
0.0
 11
0.6605029350233167
 21
0.5168456526909928
 31
0.0
  0
LINE
  5
AD0
330
78D
100
AcDbEntity
  8
TEXT
100
AcDbLine
 10
0.7923445060112329
 20
0.5168456526909928
 30
0.0
 11
0.7205455398673238
 21
0.5168456526909928
 31
0.0
  0
LINE
  5
AD1
330
78D
100
AcDbEntity
  8
TEXT
100
AcDbLine
 10
0.7205455398673238
 20
0.5168456526909928
 30
0.0
 11
0.7205455398673238
 21
0.551233570285131
 31
0.0
  0
LINE
  5
AD2
330
78D
100
AcDbEntity
  8
TEXT
100
AcDbLine
 10
1.006654015208777
 20
0.5848571304298034
 30
0.0
 11
0.9398453026424107
 21
0.5848571304298034
 31
0.0
  0
LINE
  5
AD3
330
78D
100
AcDbEntity
  8
TEXT
100
AcDbLine
 10
0.9398453026424107
 20
0.5168456526909928
 30
0.0
 11
0.9097233898490344
 21
0.5168456526909928
 31
0.0
  0
LINE
  5
AD4
330
78D
100
AcDbEntity
  8
TEXT
100
AcDbLine
 10
0.9398453026424107
 20
0.5848571304298034
 30
0.0
 11
0.9398453026424107
 21
0.5168456526909928
 31
0.0
  0
LINE
  5
AD5
330
78D
100
AcDbEntity
  8
TEXT
100
AcDbLine
 10
1.497679374737003
 20
0.5168456526909928
 30
0.0
 11
1.362847465519944
 21
0.5168456526909928
 31
0.0
  0
LWPOLYLINE
  5
AD6
330
78D
100
AcDbEntity
  8
TEXT
100
AcDbPolyline
 90
        3
 70
     0
 43
0.0
 10
1.327065774806779
 20
0.5168456526909964
 10
1.208765615990735
 20
0.5168456526909964
 10
1.208765615990735
 20
0.4896781559301005
 42
-1.960274751411753
  0
LWPOLYLINE
  5
AD7
330
78D
100
AcDbEntity
  8
TEXT
100
AcDbPolyline
 90
        2
 70
     0
 43
0.0
 10
1.172983925277574
 20
0.5168456526909964
 42
-0.3328679258950098
 10
1.208765615990735
 20
0.4896781559301005
 42
6.772930709997214
  0
LINE
  5
AD8
330
78D
100
AcDbEntity
  8
TEXT
100
AcDbLine
 10
1.362847465519944
 20
0.5168456526909928
 30
0.0
 11
1.362847465519944
 21
0.488523106921349
 31
0.0
  0
LWPOLYLINE
  5
AD9
330
78D
100
AcDbEntity
  8
TEXT
100
AcDbPolyline
 90
        2
 70
     0
 43
0.0
 10
1.327065774806779
 20
0.5168456526909964
 42
-0.3277054968067132
 10
1.362847465519944
 20
0.4885231069213525
 42
6.667889725900311
  0
LINE
  5
ADA
330
78D
100
AcDbEntity
  8
TEXT
100
AcDbLine
 10
1.640536219911545
 20
0.5168456526909928
 30
0.0
 11
1.576639313612044
 21
0.5168456526909928
 31
0.0
  0
ARC
  5
ADB
330
78D
100
AcDbEntity
  8
TEXT
100
AcDbCircle
 10
1.495652434959936
 20
0.4752620855700905
 30
0.0
 40
0.0416329381542859
100
AcDbArc
 50
26.56974201007528
 51
87.20939649401342
  0
LINE
  5
ADC
330
78D
100
AcDbEntity
  8
TEXT
100
AcDbLine
 10
1.640536219911545
 20
0.4892980028301182
 30
0.0
 11
1.640536219911545
 21
0.5168456526909928
 31
0.0
  0
ARC
  5
ADD
330
78D
100
AcDbEntity
  8
TEXT
100
AcDbCircle
 10
1.671729036974655
 20
0.485599925408728
 30
0.0
 40
0.0314112657011332
100
AcDbArc
 50
95.88484768694724
 51
173.2388340632136
  0
LINE
  5
ADE
330
78D
100
AcDbEntity
  8
TEXT
100
AcDbLine
 10
1.926413043836028
 20
0.5168456526909928
 30
0.0
 11
1.851421211106401
 21
0.5168456526909928
 31
0.0
  0
LINE
  5
ADF
330
78D
100
AcDbEntity
  8
TEXT
100
AcDbLine
 10
1.736008174001142
 20
0.5823098584585935
 30
0.0
 11
1.736008174001135
 21
0.5168456526909928
 31
0.0
  0
LINE
  5
AE0
330
78D
100
AcDbEntity
  8
TEXT
100
AcDbLine
 10
1.804323052550415
 20
0.5823098584585935
 30
0.0
 11
1.736008174001142
 21
0.5823098584585935
 31
0.0
  0
ENDSEC
  0
SECTION
  2
OBJECTS
  0
DICTIONARY
  5
781
330
0
100
AcDbDictionary
  3
ACAD_GROUP
350
782
  3
ACAD_LAYOUT
350
7A5
  3
ACAD_MLINESTYLE
350
783
  3
ACAD_PLOTSETTINGS
350
7A6
  3
ACAD_PLOTSTYLENAME
350
7A3
  3
ACDBHEADERROUNDTRIPXREC
350
AEC
  3
ACDBVARIABLEDICTIONARY
350
AE9
  0
DICTIONARY
  5
975
330
78D
100
AcDbDictionary
280
     1
  3
ACAD_LAYOUTSELFREF
360
B0D
  0
DICTIONARY
  5
973
330
78A
100
AcDbDictionary
280
     1
  3
ACAD_LAYOUTSELFREF
360
B0C
  0
DICTIONARY
  5
782
102
{ACAD_REACTORS
330
781
102
}
330
781
100
AcDbDictionary
  3
*A1
350
896
  0
DICTIONARY
  5
7A5
102
{ACAD_REACTORS
330
781
102
}
330
781
100
AcDbDictionary
  0
DICTIONARY
  5
783
102
{ACAD_REACTORS
330
781
102
}
330
781
100
AcDbDictionary
  3
STANDARD
350
790
  0
DICTIONARY
  5
7A6
102
{ACAD_REACTORS
330
781
102
}
330
781
100
AcDbDictionary
  0
ACDBDICTIONARYWDFLT
  5
7A3
102
{ACAD_REACTORS
330
781
102
}
330
781
100
AcDbDictionary
281
     1
  3
Normal
350
7A4
100
AcDbDictionaryWithDefault
340
7A4
  0
DICTIONARY
  5
AEC
102
{ACAD_REACTORS
330
781
102
}
330
781
100
AcDbDictionary
  3
CEPSNTYPE
350
AF6
  3
FINGERPRINTGUID
350
AF7
  3
HYPERLINKBASE
350
AEF
  3
INSUNITS
350
AF5
  3
LAYOUTDICT
350
AF1
  3
LWETCUNION
350
AF4
  3
PLOTSETDICT
350
AF2
  3
PLOTSTYLNAMDICT
350
AF3
  3
PSVPSCALE
350
AF9
  3
PUCSBASE
350
AFC
  3
PUCSORGBACK
350
B02
  3
PUCSORGBOTTOM
350
AFE
  3
PUCSORGFRONT
350
B01
  3
PUCSORGLEFT
350
AFF
  3
PUCSORGRIGHT
350
B00
  3
PUCSORGTOP
350
AFD
  3
PUCSORTHOREF
350
AFA
  3
PUCSORTHOVIEW
350
AFB
  3
STYLESHEET
350
AF0
  3
TSTACKALIGN
350
AED
  3
TSTACKSIZE
350
AEE
  3
UCSBASE
350
B05
  3
UCSORGBACK
350
B0B
  3
UCSORGBOTTOM
350
B07
  3
UCSORGFRONT
350
B0A
  3
UCSORGLEFT
350
B08
  3
UCSORGRIGHT
350
B09
  3
UCSORGTOP
350
B06
  3
UCSORTHOREF
350
B03
  3
UCSORTHOVIEW
350
B04
  3
VERSIONGUID
350
AF8
  0
DICTIONARY
  5
AE9
102
{ACAD_REACTORS
330
781
102
}
330
781
100
AcDbDictionary
  3
DIMASSOC
350
AEA
  0
XRECORD
  5
B0D
102
{ACAD_REACTORS
330
975
102
}
330
975
100
AcDbXrecord
340
78D
  0
XRECORD
  5
B0C
102
{ACAD_REACTORS
330
973
102
}
330
973
100
AcDbXrecord
340
78A
  0
GROUP
  5
896
102
{ACAD_REACTORS
330
782
102
}
330
782
100
AcDbGroup
300
BORDER FRAME 10-1-95
 70
     0
 71
     1
  0
MLINESTYLE
  5
790
102
{ACAD_REACTORS
330
783
102
}
330
783
100
AcDbMlineStyle
  2
STANDARD
 70
     0
  3

 62
     0
 51
90.0
 52
90.0
 71
     2
 49
0.5
 62
   256
  6
BYLAYER
 49
-0.5
 62
   256
  6
BYLAYER
  0
ACDBPLACEHOLDER
  5
7A4
102
{ACAD_REACTORS
330
7A3
102
}
330
7A3
100
AcDbPlaceHolder
280
     0
  0
XRECORD
  5
AF6
102
{ACAD_REACTORS
330
AEC
102
}
330
AEC
100
AcDbXrecord
 90
        0
  0
XRECORD
  5
AF7
102
{ACAD_REACTORS
330
AEC
102
}
330
AEC
100
AcDbXrecord
  1
{BD3CA1AD-E272-11D5-87B0-0090279574E7}
  0
XRECORD
  5
AEF
102
{ACAD_REACTORS
330
AEC
102
}
330
AEC
100
AcDbXrecord
  1

  0
XRECORD
  5
AF5
102
{ACAD_REACTORS
330
AEC
102
}
330
AEC
100
AcDbXrecord
 90
        0
  0
XRECORD
  5
AF1
102
{ACAD_REACTORS
330
AEC
102
}
330
AEC
100
AcDbXrecord
340
7A5
  0
XRECORD
  5
AF4
102
{ACAD_REACTORS
330
AEC
102
}
330
AEC
100
AcDbXrecord
 90
    14877
  0
XRECORD
  5
AF2
102
{ACAD_REACTORS
330
AEC
102
}
330
AEC
100
AcDbXrecord
340
7A6
  0
XRECORD
  5
AF3
102
{ACAD_REACTORS
330
AEC
102
}
330
AEC
100
AcDbXrecord
340
7A3
  0
XRECORD
  5
AF9
102
{ACAD_REACTORS
330
AEC
102
}
330
AEC
100
AcDbXrecord
 40
0.0
  0
XRECORD
  5
AFC
102
{ACAD_REACTORS
330
AEC
102
}
330
AEC
100
AcDbXrecord
340
0
  0
XRECORD
  5
B02
102
{ACAD_REACTORS
330
AEC
102
}
330
AEC
100
AcDbXrecord
 10
0.0
 20
0.0
 30
0.0
  0
XRECORD
  5
AFE
102
{ACAD_REACTORS
330
AEC
102
}
330
AEC
100
AcDbXrecord
 10
0.0
 20
0.0
 30
0.0
  0
XRECORD
  5
B01
102
{ACAD_REACTORS
330
AEC
102
}
330
AEC
100
AcDbXrecord
 10
0.0
 20
0.0
 30
0.0
  0
XRECORD
  5
AFF
102
{ACAD_REACTORS
330
AEC
102
}
330
AEC
100
AcDbXrecord
 10
0.0
 20
0.0
 30
0.0
  0
XRECORD
  5
B00
102
{ACAD_REACTORS
330
AEC
102
}
330
AEC
100
AcDbXrecord
 10
0.0
 20
0.0
 30
0.0
  0
XRECORD
  5
AFD
102
{ACAD_REACTORS
330
AEC
102
}
330
AEC
100
AcDbXrecord
 10
0.0
 20
0.0
 30
0.0
  0
XRECORD
  5
AFA
102
{ACAD_REACTORS
330
AEC
102
}
330
AEC
100
AcDbXrecord
340
0
  0
XRECORD
  5
AFB
102
{ACAD_REACTORS
330
AEC
102
}
330
AEC
100
AcDbXrecord
 70
     0
  0
XRECORD
  5
AF0
102
{ACAD_REACTORS
330
AEC
102
}
330
AEC
100
AcDbXrecord
  1

  0
XRECORD
  5
AED
102
{ACAD_REACTORS
330
AEC
102
}
330
AEC
100
AcDbXrecord
 90
        1
  0
XRECORD
  5
AEE
102
{ACAD_REACTORS
330
AEC
102
}
330
AEC
100
AcDbXrecord
 90
       70
  0
XRECORD
  5
B05
102
{ACAD_REACTORS
330
AEC
102
}
330
AEC
100
AcDbXrecord
340
0
  0
XRECORD
  5
B0B
102
{ACAD_REACTORS
330
AEC
102
}
330
AEC
100
AcDbXrecord
 10
0.0
 20
0.0
 30
0.0
  0
XRECORD
  5
B07
102
{ACAD_REACTORS
330
AEC
102
}
330
AEC
100
AcDbXrecord
 10
0.0
 20
0.0
 30
0.0
  0
XRECORD
  5
B0A
102
{ACAD_REACTORS
330
AEC
102
}
330
AEC
100
AcDbXrecord
 10
0.0
 20
0.0
 30
0.0
  0
XRECORD
  5
B08
102
{ACAD_REACTORS
330
AEC
102
}
330
AEC
100
AcDbXrecord
 10
0.0
 20
0.0
 30
0.0
  0
XRECORD
  5
B09
102
{ACAD_REACTORS
330
AEC
102
}
330
AEC
100
AcDbXrecord
 10
0.0
 20
0.0
 30
0.0
  0
XRECORD
  5
B06
102
{ACAD_REACTORS
330
AEC
102
}
330
AEC
100
AcDbXrecord
 10
0.0
 20
0.0
 30
0.0
  0
XRECORD
  5
B03
102
{ACAD_REACTORS
330
AEC
102
}
330
AEC
100
AcDbXrecord
340
0
  0
XRECORD
  5
B04
102
{ACAD_REACTORS
330
AEC
102
}
330
AEC
100
AcDbXrecord
 70
     0
  0
XRECORD
  5
AF8
102
{ACAD_REACTORS
330
AEC
102
}
330
AEC
100
AcDbXrecord
  1
{A29B5FC2-8DB7-11D6-88E6-0090279574E7}
  0
DICTIONARYVAR
  5
AEA
102
{ACAD_REACTORS
330
AE9
102
}
330
AE9
100
DictionaryVariables
280
     0
  1
1
  0
ENDSEC
  0
EOF
