  0
SECTION
  2
HEADER
  9
$ACADVER
  1
AC1014
  9
$ACADMAINTVER
 70
     9
  9
$DWGCODEPAGE
  3
ANSI_1252
  9
$INSBASE
 10
0.0
 20
0.0
 30
0.0
  9
$EXTMIN
 10
-0.6612582665336657
 20
0.0514743418776214
 30
0.0
  9
$EXTMAX
 10
2.823961055213462
 20
1.328341891539148
 30
0.0
  9
$LIMMIN
 10
-0.5
 20
-0.5
  9
$LIMMAX
 10
10.0
 20
7.75
  9
$ORTHOMODE
 70
     0
  9
$REGENMODE
 70
     1
  9
$FILLMODE
 70
     1
  9
$QTEXTMODE
 70
     0
  9
$MIRRTEXT
 70
     0
  9
$DRAGMODE
 70
     2
  9
$LTSCALE
 40
1.0
  9
$OSMODE
 70
    39
  9
$ATTMODE
 70
     1
  9
$TEXTSIZE
 40
0.125
  9
$TRACEWID
 40
0.05
  9
$TEXTSTYLE
  7
ROMANS
  9
$CLAYER
  8
BORDER
  9
$CELTYPE
  6
BYLAYER
  9
$CECOLOR
 62
   256
  9
$CELTSCALE
 40
1.0
  9
$DELOBJ
 70
     1
  9
$DISPSILH
 70
     1
  9
$DIMSCALE
 40
1.0
  9
$DIMASZ
 40
0.125
  9
$DIMEXO
 40
0.125
  9
$DIMDLI
 40
0.375
  9
$DIMRND
 40
0.0
  9
$DIMDLE
 40
0.0
  9
$DIMEXE
 40
0.125
  9
$DIMTP
 40
0.0
  9
$DIMTM
 40
0.0
  9
$DIMTXT
 40
0.125
  9
$DIMCEN
 40
-0.125
  9
$DIMTSZ
 40
0.0
  9
$DIMTOL
 70
     0
  9
$DIMLIM
 70
     1
  9
$DIMTIH
 70
     1
  9
$DIMTOH
 70
     1
  9
$DIMSE1
 70
     1
  9
$DIMSE2
 70
     1
  9
$DIMTAD
 70
     0
  9
$DIMZIN
 70
     4
  9
$DIMBLK
  1

  9
$DIMASO
 70
     1
  9
$DIMSHO
 70
     1
  9
$DIMPOST
  1

  9
$DIMAPOST
  1

  9
$DIMALT
 70
     0
  9
$DIMALTD
 70
     2
  9
$DIMALTF
 40
25.4
  9
$DIMLFAC
 40
0.5
  9
$DIMTOFL
 70
     0
  9
$DIMTVP
 40
0.0
  9
$DIMTIX
 70
     0
  9
$DIMSOXD
 70
     0
  9
$DIMSAH
 70
     0
  9
$DIMBLK1
  1

  9
$DIMBLK2
  1

  9
$DIMSTYLE
  2
STANDARD
  9
$DIMCLRD
 70
     0
  9
$DIMCLRE
 70
     0
  9
$DIMCLRT
 70
     0
  9
$DIMTFAC
 40
1.0
  9
$DIMGAP
 40
0.09
  9
$DIMJUST
 70
     0
  9
$DIMSD1
 70
     0
  9
$DIMSD2
 70
     0
  9
$DIMTOLJ
 70
     1
  9
$DIMTZIN
 70
     0
  9
$DIMALTZ
 70
     0
  9
$DIMALTTZ
 70
     0
  9
$DIMFIT
 70
     3
  9
$DIMUPT
 70
     0
  9
$DIMUNIT
 70
     2
  9
$DIMDEC
 70
     3
  9
$DIMTDEC
 70
     4
  9
$DIMALTU
 70
     2
  9
$DIMALTTD
 70
     2
  9
$DIMTXSTY
  7
ROMANS
  9
$DIMAUNIT
 70
     0
  9
$LUNITS
 70
     2
  9
$LUPREC
 70
     3
  9
$SKETCHINC
 40
0.1
  9
$FILLETRAD
 40
0.01
  9
$AUNITS
 70
     0
  9
$AUPREC
 70
     3
  9
$MENU
  1
acad
  9
$ELEVATION
 40
0.0
  9
$PELEVATION
 40
0.0
  9
$THICKNESS
 40
0.0
  9
$LIMCHECK
 70
     1
  9
$BLIPMODE
 70
     0
  9
$CHAMFERA
 40
0.0
  9
$CHAMFERB
 40
0.0
  9
$CHAMFERC
 40
0.0
  9
$CHAMFERD
 40
0.0
  9
$SKPOLY
 70
     0
  9
$TDCREATE
 40
2449091.557572569
  9
$TDUPDATE
 40
2452458.313485347
  9
$TDINDWG
 40
0.0003448148
  9
$TDUSRTIMER
 40
0.0003448148
  9
$USRTIMER
 70
     1
  9
$ANGBASE
 50
0.0
  9
$ANGDIR
 70
     0
  9
$PDMODE
 70
     0
  9
$PDSIZE
 40
0.0
  9
$PLINEWID
 40
0.0
  9
$COORDS
 70
     2
  9
$SPLFRAME
 70
     0
  9
$SPLINETYPE
 70
     6
  9
$SPLINESEGS
 70
     8
  9
$ATTDIA
 70
     0
  9
$ATTREQ
 70
     1
  9
$HANDLING
 70
 22529
  9
$HANDSEED
  5
3D5
  9
$SURFTAB1
 70
     6
  9
$SURFTAB2
 70
     6
  9
$SURFTYPE
 70
     6
  9
$SURFU
 70
     6
  9
$SURFV
 70
     6
  9
$UCSNAME
  2

  9
$UCSORG
 10
0.0
 20
0.0
 30
0.0
  9
$UCSXDIR
 10
1.0
 20
0.0
 30
0.0
  9
$UCSYDIR
 10
0.0
 20
1.0
 30
0.0
  9
$PUCSNAME
  2

  9
$PUCSORG
 10
0.0
 20
0.0
 30
0.0
  9
$PUCSXDIR
 10
1.0
 20
0.0
 30
0.0
  9
$PUCSYDIR
 10
0.0
 20
1.0
 30
0.0
  9
$USERI1
 70
     0
  9
$USERI2
 70
     0
  9
$USERI3
 70
     0
  9
$USERI4
 70
     0
  9
$USERI5
 70
     0
  9
$USERR1
 40
0.0
  9
$USERR2
 40
0.0
  9
$USERR3
 40
0.0
  9
$USERR4
 40
0.0
  9
$USERR5
 40
0.0
  9
$WORLDVIEW
 70
     1
  9
$SHADEDGE
 70
     3
  9
$SHADEDIF
 70
    70
  9
$TILEMODE
 70
     1
  9
$MAXACTVP
 70
    16
  9
$PINSBASE
 10
0.0
 20
0.0
 30
0.0
  9
$PLIMCHECK
 70
     0
  9
$PEXTMIN
 10
1.000000000000000E+20
 20
1.000000000000000E+20
 30
1.000000000000000E+20
  9
$PEXTMAX
 10
-1.000000000000000E+20
 20
-1.000000000000000E+20
 30
-1.000000000000000E+20
  9
$PLIMMIN
 10
0.0
 20
0.0
  9
$PLIMMAX
 10
12.0
 20
9.0
  9
$UNITMODE
 70
     0
  9
$VISRETAIN
 70
     0
  9
$PLINEGEN
 70
     1
  9
$PSLTSCALE
 70
     0
  9
$TREEDEPTH
 70
  3020
  9
$PICKSTYLE
 70
     1
  9
$CMLSTYLE
  2
STANDARD
  9
$CMLJUST
 70
     0
  9
$CMLSCALE
 40
1.0
  9
$PROXYGRAPHICS
 70
     1
  9
$MEASUREMENT
 70
     0
  0
ENDSEC
  0
SECTION
  2
CLASSES
  0
CLASS
  1
LWPOLYLINE
  2
AcDbPolyline
  3
AutoCAD 2000
 90
        0
280
     0
281
     1
  0
CLASS
  1
ACDBDICTIONARYWDFLT
  2
AcDbDictionaryWithDefault
  3
AutoCAD 2000
 90
        0
280
     0
281
     0
  0
CLASS
  1
ACDBPLACEHOLDER
  2
AcDbPlaceHolder
  3
AutoCAD 2000
 90
        0
280
     0
281
     0
  0
CLASS
  1
LAYOUT
  2
AcDbLayout
  3
AutoCAD 2000
 90
        0
280
     0
281
     0
  0
CLASS
  1
DICTIONARYVAR
  2
AcDbDictionaryVar
  3
AutoCAD 2000
 90
        0
280
     0
281
     0
  0
CLASS
  1
LONG_TRANSACTION
  2
AcDbLongTransaction
  3
AutoCAD 2000
 90
        0
280
     0
281
     0
  0
CLASS
  1
LWPOLYLINE
  2
AcDbPolyline
  3
AutoCAD 2000
 90
        0
280
     0
281
     1
  0
CLASS
  1
HATCH
  2
AcDbHatch
  3
AutoCAD 2000
 90
        0
280
     0
281
     1
  0
CLASS
  1
XRECORD
  2
AcDbXrecord
  3
AutoCAD 2000
 90
        0
280
     0
281
     0
  0
ENDSEC
  0
SECTION
  2
TABLES
  0
TABLE
  2
VPORT
  5
8
330
0
100
AcDbSymbolTable
 70
     2
  0
VPORT
  5
3B0
330
8
100
AcDbSymbolTableRecord
100
AcDbViewportTableRecord
  2
*ACTIVE
 70
     0
 10
0.0
 20
0.0
 11
1.0
 21
1.0
 12
4.003080116560038
 22
0.689991013106182
 13
0.0
 23
0.0
 14
0.015625
 24
0.015625
 15
0.0
 25
0.0
 16
0.0
 26
0.0
 36
1.0
 17
0.0
 27
0.0
 37
0.0
 40
2.163350120139038
 41
4.320930232558139
 42
50.0
 43
0.0
 44
0.0
 50
0.0
 51
0.0
 71
     0
 72
  2000
 73
     1
 74
     1
 75
     0
 76
     0
 77
     0
 78
     0
  0
ENDTAB
  0
TABLE
  2
LTYPE
  5
5
330
0
100
AcDbSymbolTable
 70
     1
  0
LTYPE
  5
12
330
5
100
AcDbSymbolTableRecord
100
AcDbLinetypeTableRecord
  2
BYBLOCK
 70
     0
  3

 72
    65
 73
     0
 40
0.0
  0
LTYPE
  5
13
330
5
100
AcDbSymbolTableRecord
100
AcDbLinetypeTableRecord
  2
BYLAYER
 70
     0
  3

 72
    65
 73
     0
 40
0.0
  0
LTYPE
  5
14
330
5
100
AcDbSymbolTableRecord
100
AcDbLinetypeTableRecord
  2
CONTINUOUS
 70
     0
  3
Solid line
 72
    65
 73
     0
 40
0.0
  0
ENDTAB
  0
TABLE
  2
LAYER
  5
2
330
0
100
AcDbSymbolTable
 70
     3
  0
LAYER
  5
F
330
2
100
AcDbSymbolTableRecord
100
AcDbLayerTableRecord
  2
0
 70
     0
 62
     7
  6
CONTINUOUS
  0
LAYER
  5
29
330
2
100
AcDbSymbolTableRecord
100
AcDbLayerTableRecord
  2
TEXT
 70
     0
 62
     3
  6
CONTINUOUS
  0
LAYER
  5
2E
330
2
100
AcDbSymbolTableRecord
100
AcDbLayerTableRecord
  2
BORDER
 70
     0
 62
     4
  6
CONTINUOUS
  0
ENDTAB
  0
TABLE
  2
STYLE
  5
3
330
0
100
AcDbSymbolTable
 70
     3
  0
STYLE
  5
10
330
3
100
AcDbSymbolTableRecord
100
AcDbTextStyleTableRecord
  2
STANDARD
 70
     0
 40
0.0
 41
1.0
 50
0.0
 71
     0
 42
0.25
  3
TXT
  4

  0
STYLE
  5
29C
330
3
100
AcDbSymbolTableRecord
100
AcDbTextStyleTableRecord
  2
ITALICC
 70
     0
 40
0.0
 41
1.0
 50
0.0
 71
     0
 42
0.125
  3
italicc
  4

  0
STYLE
  5
3AC
330
3
100
AcDbSymbolTableRecord
100
AcDbTextStyleTableRecord
  2
ROMANS
 70
     0
 40
0.0
 41
1.0
 50
0.0
 71
     0
 42
0.125
  3
romans.shx
  4

  0
ENDTAB
  0
TABLE
  2
VIEW
  5
6
330
0
100
AcDbSymbolTable
 70
     0
  0
ENDTAB
  0
TABLE
  2
UCS
  5
7
330
0
100
AcDbSymbolTable
 70
     0
  0
ENDTAB
  0
TABLE
  2
APPID
  5
9
330
0
100
AcDbSymbolTable
 70
     1
  0
APPID
  5
11
330
9
100
AcDbSymbolTableRecord
100
AcDbRegAppTableRecord
  2
ACAD
 70
     0
  0
ENDTAB
  0
TABLE
  2
DIMSTYLE
  5
A
330
0
100
AcDbSymbolTable
 70
     1
  0
DIMSTYLE
105
28F
330
A
100
AcDbSymbolTableRecord
100
AcDbDimStyleTableRecord
  2
STANDARD
 70
     0
  3

  4

  5

  6

  7

 40
1.0
 41
0.18
 42
0.0625
 43
0.38
 44
0.18
 45
0.0
 46
0.0
 47
0.0
 48
0.0
140
0.18
141
0.09
142
0.0
143
25.4
144
1.0
145
0.0
146
1.0
147
0.09
 71
     0
 72
     0
 73
     1
 74
     1
 75
     0
 76
     0
 77
     0
 78
     0
170
     0
171
     2
172
     0
173
     0
174
     0
175
     0
176
     0
177
     0
178
     0
270
     2
271
     4
272
     4
273
     2
274
     2
340
10
275
     0
280
     0
281
     0
282
     0
283
     1
284
     0
285
     0
286
     0
287
     3
288
     0
  0
ENDTAB
  0
TABLE
  2
BLOCK_RECORD
  5
1
330
0
100
AcDbSymbolTable
 70
     0
  0
BLOCK_RECORD
  5
18
102
{ACAD_XDICTIONARY
360
3D3
102
}
330
1
100
AcDbSymbolTableRecord
100
AcDbBlockTableRecord
  2
*MODEL_SPACE
  0
BLOCK_RECORD
  5
15
102
{ACAD_XDICTIONARY
360
3D1
102
}
330
1
100
AcDbSymbolTableRecord
100
AcDbBlockTableRecord
  2
*PAPER_SPACE
  0
ENDTAB
  0
ENDSEC
  0
SECTION
  2
BLOCKS
  0
BLOCK
  5
33
330
18
100
AcDbEntity
  8
0
100
AcDbBlockBegin
  2
*MODEL_SPACE
 70
     0
 10
0.0
 20
0.0
 30
0.0
  3
*MODEL_SPACE
  1

  0
ENDBLK
  5
34
330
18
100
AcDbEntity
  8
0
100
AcDbBlockEnd
  0
BLOCK
  5
31
330
15
100
AcDbEntity
 67
     1
  8
0
100
AcDbBlockBegin
  2
*PAPER_SPACE
 70
     0
 10
0.0
 20
0.0
 30
0.0
  3
*PAPER_SPACE
  1

  0
ENDBLK
  5
32
330
15
100
AcDbEntity
 67
     1
  8
0
100
AcDbBlockEnd
  0
ENDSEC
  0
SECTION
  2
ENTITIES
  0
LWPOLYLINE
  5
271
330
18
100
AcDbEntity
  8
0
100
AcDbPolyline
 90
       27
 70
     1
 43
0.0
 10
0.646202710098841
 20
0.9350077421627535
 10
0.6592027100988409
 20
0.9350077421627535
 10
0.6592027100988409
 20
1.179167121729187
 10
0.6761230203156239
 20
1.19608743194597
 42
0.4022079148662292
 10
0.6770065055955326
 20
1.239007430516276
 42
-0.3021504420875651
 10
0.6752707404451421
 20
1.249945495162894
 10
0.7048374193139332
 20
1.314502891095591
 42
-0.805405694377802
 10
0.739202710098841
 20
1.307007742162753
 10
0.739202710098841
 20
1.218007742162753
 42
-0.1877632346850202
 10
0.7168342890462095
 20
1.16054222799504
 42
0.1877632346850188
 10
0.7142027100988411
 20
1.153781579269427
 10
0.7142027100988409
 20
0.9350077421627535
 10
1.55020271009884
 20
0.935007742162754
 10
1.55020271009884
 20
1.153781579269427
 42
0.1877632346850186
 10
1.547571131151472
 20
1.160542227995041
 42
-0.1877632346850195
 10
1.52520271009884
 20
1.218007742162753
 10
1.52520271009884
 20
1.307007742162753
 42
-0.8054056943778011
 10
1.559568000883748
 20
1.31450289109559
 10
1.58913467975254
 20
1.249945495162891
 42
-0.3021504420875543
 10
1.587398914602148
 20
1.239007430516275
 42
0.5970646425789806
 10
1.60520271009884
 20
1.187413625081193
 10
1.60520271009884
 20
0.9350077421627535
 10
1.61820271009884
 20
0.935007742162754
 42
-0.4142135623731008
 10
1.62820271009884
 20
0.9250077421627537
 10
1.62820271009884
 20
0.8450077421627536
 10
0.636202710098841
 20
0.8450077421627536
 10
0.636202710098841
 20
0.9250077421627537
 42
-0.4142135623730951
  0
LINE
  5
322
330
18
100
AcDbEntity
  8
TEXT
100
AcDbLine
 10
1.189939784160877
 20
0.2535506281855966
 30
0.0
 11
1.189939784160877
 21
0.3948801603647354
 31
0.0
  0
LINE
  5
323
330
18
100
AcDbEntity
  8
TEXT
100
AcDbLine
 10
1.23703794271686
 20
0.3294159545971347
 30
0.0
 11
1.189939784160877
 21
0.2535506281855966
 31
0.0
  0
LINE
  5
324
330
18
100
AcDbEntity
  8
TEXT
100
AcDbLine
 10
1.247472659480784
 20
0.2195227116561611
 30
0.0
 11
1.31202977544649
 21
0.3294159545971347
 31
0.0
  0
TEXT
  5
325
330
18
100
AcDbEntity
  8
TEXT
100
AcDbText
 10
1.495028470943799
 20
0.2490871572204121
 30
0.0
 40
0.0522247191011236
  1
6536 Main St. N.E. * P.O. Box 32008
 41
0.8388932496075355
 72
     5
 11
2.823961055213462
 21
0.2490871572204121
 31
0.0
100
AcDbText
  0
ARC
  5
326
330
18
100
AcDbEntity
  8
TEXT
100
AcDbCircle
 10
1.049456811645539
 20
0.2402333846577065
 30
0.0
 40
0.0249058752826653
100
AcDbArc
 50
89.99971217465335
 51
179.9999999999985
  0
LINE
  5
327
330
18
100
AcDbEntity
  8
TEXT
100
AcDbLine
 10
0.9622560452225066
 20
0.2242039760437073
 30
0.0
 11
0.918505274040605
 21
0.3064542520398525
 31
0.0
  0
LINE
  5
328
330
18
100
AcDbEntity
  8
TEXT
100
AcDbLine
 10
0.9622560452225066
 20
0.3294159545971347
 30
0.0
 11
0.9622560452225066
 21
0.2242039760437073
 31
0.0
  0
ARC
  5
329
330
18
100
AcDbEntity
  8
TEXT
100
AcDbCircle
 10
0.8542652080029871
 20
0.2367798849403719
 30
0.0
 40
0.028359375
100
AcDbArc
 50
25.78218179591245
 51
90.0
  0
LINE
  5
32A
330
18
100
AcDbEntity
  8
TEXT
100
AcDbLine
 10
0.3922707468192392
 20
0.1453307597116229
 30
0.0
 11
0.3922707468192392
 21
0.3974274323359452
 31
0.0
  0
LINE
  5
32B
330
18
100
AcDbEntity
  8
TEXT
100
AcDbLine
 10
0.4245826009568994
 20
0.3294159545971347
 30
0.0
 11
0.4245826009568994
 21
0.1285517478647264
 31
0.0
  0
LINE
  5
32C
330
18
100
AcDbEntity
  8
TEXT
100
AcDbLine
 10
0.2953401214594962
 20
0.3294159545971347
 30
0.0
 11
0.2365915586536325
 21
0.2285439584840141
 31
0.0
  0
LINE
  5
32D
330
18
100
AcDbEntity
  8
TEXT
100
AcDbLine
 10
0.2365915586536325
 20
0.2285439584840141
 30
0.0
 11
0.1779612376216946
 21
0.3294159545971347
 31
0.0
  0
ARC
  5
32E
330
18
100
AcDbEntity
  8
TEXT
100
AcDbCircle
 10
-0.1296120862647321
 20
0.2473284951506329
 30
0.0
 40
0.0820874594465043
100
AcDbArc
 50
90.0
 51
270.0
  0
LWPOLYLINE
  5
32F
330
18
100
AcDbEntity
  8
TEXT
100
AcDbPolyline
 90
        2
 70
     0
 43
0.0001332181640625
 10
-0.5376984193656967
 20
0.2561459643627586
 10
-0.5476897816703872
 20
0.3294159545971382
  0
LWPOLYLINE
  5
330
330
18
100
AcDbEntity
  8
TEXT
100
AcDbPolyline
 90
        2
 70
     0
 43
0.0001332181640625
 10
-0.5476897816703872
 20
0.3027723217846372
 10
-0.5376984193656967
 20
0.2428241479565116
  0
LWPOLYLINE
  5
331
330
18
100
AcDbEntity
  8
TEXT
100
AcDbPolyline
 90
        2
 70
     0
 43
0.0001332181640625
 10
-0.5077243324516357
 20
0.3027723217846372
 10
-0.5177156947563244
 20
0.2428241479565116
  0
LWPOLYLINE
  5
332
330
18
100
AcDbEntity
  8
TEXT
100
AcDbPolyline
 90
        2
 70
     0
 43
0.0001332181640625
 10
-0.5077243324516357
 20
0.3294159545971382
 10
-0.5177156947563244
 20
0.2561459643627586
  0
LWPOLYLINE
  5
333
330
18
100
AcDbEntity
  8
TEXT
100
AcDbPolyline
 90
        3
 70
     0
 43
0.0006660908203125
 10
-0.3944888929985097
 20
0.2161805151440106
 10
-0.3944888929985097
 20
0.3294159545971382
 10
-0.5077243324516357
 20
0.3294159545971382
  0
LWPOLYLINE
  5
334
330
18
100
AcDbEntity
  8
TEXT
100
AcDbPolyline
 90
        3
 70
     0
 43
0.0006660908203125
 10
-0.4211325258110108
 20
0.2161805151440106
 10
-0.4211325258110108
 20
0.3027723217846372
 10
-0.5077243324516357
 20
0.3027723217846372
  0
LWPOLYLINE
  5
335
330
18
100
AcDbEntity
  8
TEXT
100
AcDbPolyline
 90
        2
 70
     0
 43
0.0001332181640625
 10
-0.4211325258110108
 20
0.3027723217846372
 10
-0.4810806996391346
 20
0.2428241479565116
  0
LWPOLYLINE
  5
336
330
18
100
AcDbEntity
  8
TEXT
100
AcDbPolyline
 90
        2
 70
     0
 43
0.0001332181640625
 10
-0.634281588311012
 20
0.3027723217846372
 10
-0.5743334144828865
 20
0.2428241479565116
  0
LWPOLYLINE
  5
337
330
18
100
AcDbEntity
  8
TEXT
100
AcDbPolyline
 90
        3
 70
     0
 43
0.0006660908203125
 10
-0.5476897816703872
 20
0.3294159545971382
 10
-0.6609252211235095
 20
0.3294159545971382
 10
-0.6609252211235095
 20
0.2161805151440106
  0
LWPOLYLINE
  5
338
330
18
100
AcDbEntity
  8
TEXT
100
AcDbPolyline
 90
        3
 70
     0
 43
0.0006660908203125
 10
-0.5476897816703872
 20
0.3027723217846372
 10
-0.634281588311012
 20
0.3027723217846372
 10
-0.634281588311012
 20
0.2161805151440106
  0
LINE
  5
339
330
18
100
AcDbEntity
  8
TEXT
100
AcDbLine
 10
-0.0587746199061829
 20
0.2293345383297414
 30
0.0
 11
-0.124374756150484
 21
0.2293345383297414
 31
0.0
  0
LINE
  5
33A
330
18
100
AcDbEntity
  8
TEXT
100
AcDbLine
 10
-0.1296120862647321
 20
0.1652410357041276
 30
0.0
 11
-0.0538342459999033
 21
0.1652410357041276
 31
0.0
  0
LINE
  5
33B
330
18
100
AcDbEntity
  8
TEXT
100
AcDbLine
 10
-0.2116995457112356
 20
0.0629429216086237
 30
0.0
 11
-0.0587746199061829
 21
0.0629429216086237
 31
0.0
  0
LINE
  5
33C
330
18
100
AcDbEntity
  8
TEXT
100
AcDbLine
 10
-0.0538342459999033
 20
0.131299927942063
 30
0.0
 11
-0.2116995457112374
 21
0.131299927942063
 31
0.0
  0
LINE
  5
33D
330
18
100
AcDbEntity
  8
TEXT
100
AcDbLine
 10
-0.124374756150484
 20
0.2651392599403692
 30
0.0
 11
0.0425308978784855
 21
0.2651392599403692
 31
0.0
  0
LWPOLYLINE
  5
33E
330
18
100
AcDbEntity
  8
TEXT
100
AcDbPolyline
 90
        2
 70
     0
 43
0.0006660908203125
 10
-0.4211325258110108
 20
0.2161805151440106
 10
-0.3944888929985097
 20
0.2161805151440106
  0
LWPOLYLINE
  5
33F
330
18
100
AcDbEntity
  8
TEXT
100
AcDbPolyline
 90
        2
 70
     0
 43
0.0001332181640625
 10
-0.4677588832328859
 20
0.2061891528393218
 10
-0.3944888929985097
 20
0.2161805151440106
  0
LWPOLYLINE
  5
340
330
18
100
AcDbEntity
  8
TEXT
100
AcDbPolyline
 90
        2
 70
     0
 43
0.0006660908203125
 10
-0.4211325258110108
 20
0.1762150659252626
 10
-0.3944888929985097
 20
0.1762150659252626
  0
LWPOLYLINE
  5
341
330
18
100
AcDbEntity
  8
TEXT
100
AcDbPolyline
 90
        3
 70
     0
 43
0.0006660908203125
 10
-0.5077243324516357
 20
0.062979626472135
 10
-0.3944888929985097
 20
0.062979626472135
 10
-0.3944888929985097
 20
0.1762150659252626
  0
LWPOLYLINE
  5
342
330
18
100
AcDbEntity
  8
TEXT
100
AcDbPolyline
 90
        2
 70
     0
 43
0.0001332181640625
 10
-0.3944888929985097
 20
0.1762150659252626
 10
-0.4677588832328859
 20
0.1862064282299478
  0
LWPOLYLINE
  5
343
330
18
100
AcDbEntity
  8
TEXT
100
AcDbPolyline
 90
        3
 70
     0
 43
0.0006660908203125
 10
-0.6609252211235095
 20
0.1762150659252626
 10
-0.6609252211235095
 20
0.062979626472135
 10
-0.5476897816703872
 20
0.062979626472135
  0
LWPOLYLINE
  5
344
330
18
100
AcDbEntity
  8
TEXT
100
AcDbPolyline
 90
        3
 70
     0
 43
0.0006660908203125
 10
-0.634281588311012
 20
0.1762150659252626
 10
-0.634281588311012
 20
0.089623259284636
 10
-0.5476897816703872
 20
0.089623259284636
  0
LWPOLYLINE
  5
345
330
18
100
AcDbEntity
  8
TEXT
100
AcDbPolyline
 90
        5
 70
     0
 43
0.0001332181640625
 10
-0.5376984193656967
 20
0.136249616706511
 10
-0.5376984193656967
 20
0.1495714331127615
 10
-0.5743334144828847
 20
0.1495714331127615
 10
-0.5743334144828847
 20
0.1862064282299478
 10
-0.5876552308891352
 20
0.1862064282299478
  0
LWPOLYLINE
  5
346
330
18
100
AcDbEntity
  8
TEXT
100
AcDbPolyline
 90
        5
 70
     0
 43
0.0001332181640625
 10
-0.5876552308891352
 20
0.2061891528393218
 10
-0.5743334144828865
 20
0.2061891528393218
 10
-0.5743334144828865
 20
0.2428241479565116
 10
-0.5376984193656967
 20
0.2428241479565116
 10
-0.5376984193656967
 20
0.2561459643627586
  0
LWPOLYLINE
  5
347
330
18
100
AcDbEntity
  8
TEXT
100
AcDbPolyline
 90
        2
 70
     0
 43
0.0001332181640625
 10
-0.634281588311012
 20
0.2161805151440106
 10
-0.5743334144828865
 20
0.2061891528393218
  0
LWPOLYLINE
  5
348
330
18
100
AcDbEntity
  8
TEXT
100
AcDbPolyline
 90
        2
 70
     0
 43
0.0001332181640625
 10
-0.6609252211235095
 20
0.2161805151440106
 10
-0.5876552308891352
 20
0.2061891528393218
  0
LWPOLYLINE
  5
349
330
18
100
AcDbEntity
  8
TEXT
100
AcDbPolyline
 90
        2
 70
     0
 43
0.0006660908203125
 10
-0.634281588311012
 20
0.2161805151440106
 10
-0.6609252211235095
 20
0.2161805151440106
  0
LWPOLYLINE
  5
34A
330
18
100
AcDbEntity
  8
TEXT
100
AcDbPolyline
 90
        2
 70
     0
 43
0.0001332181640625
 10
-0.634281588311012
 20
0.089623259284636
 10
-0.5743334144828847
 20
0.1495714331127615
  0
LWPOLYLINE
  5
34B
330
18
100
AcDbEntity
  8
TEXT
100
AcDbPolyline
 90
        2
 70
     0
 43
0.0006660908203125
 10
-0.634281588311012
 20
0.1762150659252626
 10
-0.6609252211235095
 20
0.1762150659252626
  0
LWPOLYLINE
  5
34C
330
18
100
AcDbEntity
  8
TEXT
100
AcDbPolyline
 90
        2
 70
     0
 43
0.0001332181640625
 10
-0.5876552308891352
 20
0.1862064282299478
 10
-0.6609252211235095
 20
0.1762150659252626
  0
LWPOLYLINE
  5
34D
330
18
100
AcDbEntity
  8
TEXT
100
AcDbPolyline
 90
        2
 70
     0
 43
0.0001332181640625
 10
-0.634281588311012
 20
0.1762150659252626
 10
-0.5743334144828847
 20
0.1862064282299478
  0
LWPOLYLINE
  5
34E
330
18
100
AcDbEntity
  8
TEXT
100
AcDbPolyline
 90
        5
 70
     0
 43
0.0001332181640625
 10
-0.5177156947563244
 20
0.2561459643627586
 10
-0.5177156947563244
 20
0.2428241479565116
 10
-0.4810806996391346
 20
0.2428241479565116
 10
-0.4810806996391346
 20
0.2061891528393218
 10
-0.4677588832328859
 20
0.2061891528393218
  0
LWPOLYLINE
  5
34F
330
18
100
AcDbEntity
  8
TEXT
100
AcDbPolyline
 90
        2
 70
     0
 43
0.0001332181640625
 10
-0.4211325258110108
 20
0.2161805151440106
 10
-0.4810806996391346
 20
0.2061891528393218
  0
LWPOLYLINE
  5
350
330
18
100
AcDbEntity
  8
TEXT
100
AcDbPolyline
 90
        2
 70
     0
 43
0.0006660908203125
 10
-0.5476897816703872
 20
0.089623259284636
 10
-0.5476897816703872
 20
0.062979626472135
  0
LWPOLYLINE
  5
351
330
18
100
AcDbEntity
  8
TEXT
100
AcDbPolyline
 90
        2
 70
     0
 43
0.0001332181640625
 10
-0.5476897816703872
 20
0.089623259284636
 10
-0.5376984193656967
 20
0.1495714331127615
  0
LWPOLYLINE
  5
352
330
18
100
AcDbEntity
  8
TEXT
100
AcDbPolyline
 90
        2
 70
     0
 43
0.0001332181640625
 10
-0.5476897816703872
 20
0.062979626472135
 10
-0.5376984193656967
 20
0.136249616706511
  0
LWPOLYLINE
  5
353
330
18
100
AcDbEntity
  8
TEXT
100
AcDbPolyline
 90
        2
 70
     0
 43
0.0001332181640625
 10
-0.5077243324516357
 20
0.089623259284636
 10
-0.5177156947563244
 20
0.1495714331127615
  0
LWPOLYLINE
  5
354
330
18
100
AcDbEntity
  8
TEXT
100
AcDbPolyline
 90
        2
 70
     0
 43
0.0001332181640625
 10
-0.5177156947563244
 20
0.136249616706511
 10
-0.5077243324516357
 20
0.062979626472135
  0
LWPOLYLINE
  5
355
330
18
100
AcDbEntity
  8
TEXT
100
AcDbPolyline
 90
        2
 70
     0
 43
0.0006660908203125
 10
-0.5077243324516357
 20
0.089623259284636
 10
-0.5077243324516357
 20
0.062979626472135
  0
LWPOLYLINE
  5
356
330
18
100
AcDbEntity
  8
TEXT
100
AcDbPolyline
 90
        2
 70
     0
 43
0.0001332181640625
 10
-0.4211325258110108
 20
0.089623259284636
 10
-0.4810806996391346
 20
0.1495714331127615
  0
LWPOLYLINE
  5
357
330
18
100
AcDbEntity
  8
TEXT
100
AcDbPolyline
 90
        3
 70
     0
 43
0.0006660908203125
 10
-0.5077243324516357
 20
0.089623259284636
 10
-0.4211325258110108
 20
0.089623259284636
 10
-0.4211325258110108
 20
0.1762150659252626
  0
LWPOLYLINE
  5
358
330
18
100
AcDbEntity
  8
TEXT
100
AcDbPolyline
 90
        2
 70
     0
 43
0.0001332181640625
 10
-0.4211325258110108
 20
0.1762150659252626
 10
-0.4810806996391346
 20
0.1862064282299478
  0
LWPOLYLINE
  5
359
330
18
100
AcDbEntity
  8
TEXT
100
AcDbPolyline
 90
        5
 70
     0
 43
0.0001332181640625
 10
-0.4677588832328859
 20
0.1862064282299478
 10
-0.4810806996391346
 20
0.1862064282299478
 10
-0.4810806996391346
 20
0.1495714331127615
 10
-0.5177156947563244
 20
0.1495714331127615
 10
-0.5177156947563244
 20
0.136249616706511
  0
ARC
  5
35A
330
18
100
AcDbEntity
  8
TEXT
100
AcDbCircle
 10
-0.124374756150484
 20
0.2472368991350571
 30
0.0
 40
0.017902360805315
100
AcDbArc
 50
90.0
 51
270.0
  0
LINE
  5
35B
330
18
100
AcDbEntity
  8
TEXT
100
AcDbLine
 10
-0.2116995457112374
 20
0.131299927942063
 30
0.0
 11
-0.2116995457112356
 21
0.0629429216086237
 31
0.0
  0
TEXT
  5
35C
330
18
100
AcDbEntity
  8
TEXT
100
AcDbText
 10
1.495028470943799
 20
0.0625703032878278
 30
0.0
 40
0.0522247191011236
  1
Phone  1-800-328-2495
 41
1.272321428571429
 72
     5
 11
2.823961055213462
 21
0.0625703032878278
 31
0.0
100
AcDbText
  0
TEXT
  5
35D
330
18
100
AcDbEntity
  8
TEXT
100
AcDbText
 10
1.495028470943799
 20
0.1558287302541199
 30
0.0
 40
0.0522247191011236
  1
Minneapolis, MN 55432-0008
 41
1.11444212721585
 72
     5
 11
2.823961055213462
 21
0.1558287302541199
 31
0.0
100
AcDbText
  0
LINE
  5
35E
330
18
100
AcDbEntity
  8
TEXT
100
AcDbLine
 10
1.049456811645541
 20
0.2651392599403692
 30
0.0
 11
1.126104792938097
 21
0.2651392599403692
 31
0.0
  0
LINE
  5
35F
330
18
100
AcDbEntity
  8
TEXT
100
AcDbLine
 10
0.4914136540148668
 20
0.2651392599403692
 30
0.0
 11
0.5412489338380162
 21
0.2651392599403692
 31
0.0
  0
ARC
  5
360
330
18
100
AcDbEntity
  8
TEXT
100
AcDbCircle
 10
0.1929477617444632
 20
0.1024906438823194
 30
0.0
 40
0.0392772371940762
100
AcDbArc
 50
270.1604552698595
 51
330.0831797321295
  0
ARC
  5
361
330
18
100
AcDbEntity
  8
TEXT
100
AcDbCircle
 10
0.1026469158522385
 20
0.1227353129466735
 30
0.0
 40
0.0601160179737537
100
AcDbArc
 50
180.0000000000003
 51
264.0521544866073
  0
LINE
  5
362
330
18
100
AcDbEntity
  8
TEXT
100
AcDbLine
 10
0.0425308978784855
 20
0.2651392599403692
 30
0.0
 11
0.0425308978784855
 21
0.1227353129466735
 31
0.0
  0
ARC
  5
363
330
18
100
AcDbEntity
  8
TEXT
100
AcDbCircle
 10
-0.0538342459999033
 20
0.1482704818230971
 30
0.0
 40
0.0169705538810321
100
AcDbArc
 50
270.0
 51
90.0
  0
ARC
  5
364
330
18
100
AcDbEntity
  8
TEXT
100
AcDbCircle
 10
-0.0587746199061829
 20
0.1461387299691808
 30
0.0
 40
0.0831958083605586
100
AcDbArc
 50
270.0
 51
90.0
  0
LWPOLYLINE
  5
365
330
18
100
AcDbEntity
  8
TEXT
100
AcDbPolyline
 90
        6
 70
     1
 43
0.0
 10
0.1389413089337417
 20
0.2651392599403692
 10
0.1086247147135335
 20
0.2651392599403692
 10
0.1086247147135335
 20
0.1420282618854749
 42
0.407328721240804
 10
0.1201683658750099
 20
0.1302093472090888
 10
0.1807900649197407
 20
0.1302093472090888
 10
0.1982554053270586
 20
0.163021576252568
  0
LINE
  5
366
330
18
100
AcDbEntity
  8
TEXT
100
AcDbLine
 10
0.0964175053585912
 20
0.0629429216086237
 30
0.0
 11
0.1930577564335856
 21
0.063213560706906
 31
0.0
  0
LWPOLYLINE
  5
367
330
18
100
AcDbEntity
  8
TEXT
100
AcDbPolyline
 90
        2
 70
     0
 43
0.0
 10
0.324291027750121
 20
0.114494263823552
 42
0.3318488747599744
 10
0.393410320315434
 20
0.0629429216086237
 42
-6.868794160588311
  0
LINE
  5
368
330
18
100
AcDbEntity
  8
TEXT
100
AcDbLine
 10
0.324291027750121
 20
0.2472516386489048
 30
0.0
 11
0.324291027750121
 21
0.1144942638235484
 31
0.0
  0
LINE
  5
369
330
18
100
AcDbEntity
  8
TEXT
100
AcDbLine
 10
0.2269913216566763
 20
0.0829014277136366
 30
0.0
 11
0.324291027750121
 21
0.2472516386489048
 31
0.0
  0
ARC
  5
36A
330
18
100
AcDbEntity
  8
TEXT
100
AcDbCircle
 10
0.4075889640722963
 20
0.1439335541081519
 30
0.0
 40
0.0153818062434269
100
AcDbArc
 50
174.7883570302258
 51
270.0
  0
LINE
  5
36B
330
18
100
AcDbEntity
  8
TEXT
100
AcDbLine
 10
0.4245826009568994
 20
0.1285517478647264
 30
0.0
 11
0.4075889640722963
 21
0.1285517478647264
 31
0.0
  0
LINE
  5
36C
330
18
100
AcDbEntity
  8
TEXT
100
AcDbLine
 10
0.3934103203154322
 20
0.0629429216086237
 30
0.0
 11
0.4914136540148668
 21
0.0629429216086237
 31
0.0
  0
LINE
  5
36D
330
18
100
AcDbEntity
  8
TEXT
100
AcDbLine
 10
0.4914136540148668
 20
0.0629429216086237
 30
0.0
 11
0.4914136540148668
 21
0.2651392599403692
 31
0.0
  0
LINE
  5
36E
330
18
100
AcDbEntity
  8
TEXT
100
AcDbLine
 10
0.8542652080029888
 20
0.2651392599403692
 30
0.0
 11
0.7470589346156978
 21
0.2651392599403692
 31
0.0
  0
LINE
  5
36F
330
18
100
AcDbEntity
  8
TEXT
100
AcDbLine
 10
0.8077782935237252
 20
0.227864286478237
 30
0.0
 11
0.8900662833071102
 21
0.227864286478237
 31
0.0
  0
LWPOLYLINE
  5
370
330
18
100
AcDbEntity
  8
TEXT
100
AcDbPolyline
 90
        4
 70
     1
 43
0.0
 10
0.9029973245900091
 20
0.1659068995926489
 10
0.8143370059301506
 20
0.1659068995926489
 42
0.9999999999999998
 10
0.8143370059301506
 20
0.1235083590887882
 10
0.9029973245900091
 20
0.1235083590887882
 42
1.0
  0
LWPOLYLINE
  5
371
330
18
100
AcDbEntity
  8
TEXT
100
AcDbPolyline
 90
        2
 70
     0
 43
0.0
 10
0.7891023720285251
 20
0.0629429216086237
 10
0.9231197896599017
 20
0.0629429216086237
 42
0.9999999999999998
  0
LINE
  5
372
330
18
100
AcDbEntity
  8
TEXT
100
AcDbLine
 10
0.615860769785968
 20
0.2651392599403692
 30
0.0
 11
0.66999436670692
 21
0.2651392599403692
 31
0.0
  0
LINE
  5
373
330
18
100
AcDbEntity
  8
TEXT
100
AcDbLine
 10
0.5488027230041297
 20
0.0629429216086237
 30
0.0
 11
0.615860769785968
 21
0.0629429216086237
 31
0.0
  0
LINE
  5
374
330
18
100
AcDbEntity
  8
TEXT
100
AcDbLine
 10
0.615860769785968
 20
0.0629429216086237
 30
0.0
 11
0.615860769785968
 21
0.2651392599403692
 31
0.0
  0
LINE
  5
375
330
18
100
AcDbEntity
  8
TEXT
100
AcDbLine
 10
0.5488027230041297
 20
0.2575854707742593
 30
0.0
 11
0.5488027230041297
 21
0.0629429216086237
 31
0.0
  0
LWPOLYLINE
  5
376
330
18
100
AcDbEntity
  8
TEXT
100
AcDbPolyline
 90
        2
 70
     0
 43
0.0
 10
0.5412489338380145
 20
0.2651392599403692
 42
-0.4142135623731017
 10
0.548802723004128
 20
0.2575854707742593
 42
-0.9999999999999998
  0
LINE
  5
377
330
18
100
AcDbEntity
  8
TEXT
100
AcDbLine
 10
0.7470589346156978
 20
0.2651392599403692
 30
0.0
 11
0.7470589346156978
 21
0.1900868538661626
 31
0.0
  0
ARC
  5
378
330
18
100
AcDbEntity
  8
TEXT
100
AcDbCircle
 10
0.8077782935237252
 20
0.1601787053341184
 30
0.0
 40
0.0676855811441166
100
AcDbArc
 50
90.0
 51
153.7768192527749
  0
LWPOLYLINE
  5
379
330
18
100
AcDbEntity
  8
TEXT
100
AcDbPolyline
 90
        2
 70
     0
 43
0.0
 10
0.7460264391608895
 20
0.1064338665590618
 42
0.2901071551932823
 10
0.7891023720285251
 20
0.0629429216086237
 42
5.328517124445801
  0
LWPOLYLINE
  5
37A
330
18
100
AcDbEntity
  8
TEXT
100
AcDbPolyline
 90
        2
 70
     0
 43
0.0
 10
0.6699943667069182
 20
0.2651392599403692
 42
-0.4142135623731017
 10
0.6775481558730317
 20
0.2575854707742593
 42
-0.9999999999999998
  0
LWPOLYLINE
  5
37B
330
18
100
AcDbEntity
  8
TEXT
100
AcDbPolyline
 90
        4
 70
     0
 43
0.0
 10
0.6775481558730317
 20
0.2575854707742593
 10
0.6775481558730317
 20
0.0629429216086237
 10
0.7460264391608895
 20
0.0629429216086237
 10
0.7460264391608895
 20
0.1064338665590618
 42
-1.714843617202739
  0
LWPOLYLINE
  5
37C
330
18
100
AcDbEntity
  8
TEXT
100
AcDbPolyline
 90
        2
 70
     0
 43
0.0
 10
0.9661957225275461
 20
0.1064338665590618
 42
-0.2901071551932486
 10
0.9231197896599017
 20
0.0629429216086237
 42
-5.328517124445184
  0
LWPOLYLINE
  5
37D
330
18
100
AcDbEntity
  8
TEXT
100
AcDbPolyline
 90
        2
 70
     0
 43
0.0
 10
0.9661957225275461
 20
0.0629429216086237
 10
1.02455093636288
 20
0.0629429216086237
  0
LWPOLYLINE
  5
37E
330
18
100
AcDbEntity
  8
TEXT
100
AcDbPolyline
 90
        2
 70
     0
 43
0.0
 10
0.9661957225275461
 20
0.1064338665590618
 10
0.9661957225275461
 20
0.0629429216086237
  0
LINE
  5
37F
330
18
100
AcDbEntity
  8
TEXT
100
AcDbLine
 10
0.8900662833071102
 20
0.227864286478237
 30
0.0
 11
0.879801522893544
 21
0.2491148260509313
 31
0.0
  0
LINE
  5
380
330
18
100
AcDbEntity
  8
TEXT
100
AcDbLine
 10
1.024550936362881
 20
0.0629429216086237
 30
0.0
 11
1.024550936362874
 21
0.2402334270400921
 31
0.0
  0
LINE
  5
381
330
18
100
AcDbEntity
  8
TEXT
100
AcDbLine
 10
1.342964882844395
 20
0.0629429216086237
 30
0.0
 11
1.247472659480784
 21
0.2195227116561611
 31
0.0
  0
LINE
  5
382
330
18
100
AcDbEntity
  8
TEXT
100
AcDbLine
 10
1.266386510468187
 20
0.0629429216086237
 30
0.0
 11
1.342964882844395
 21
0.0629429216086237
 31
0.0
  0
LINE
  5
383
330
18
100
AcDbEntity
  8
TEXT
100
AcDbLine
 10
1.126104792938104
 20
0.0629429216086237
 30
0.0
 11
1.190482977256724
 21
0.0629429216086237
 31
0.0
  0
LINE
  5
384
330
18
100
AcDbEntity
  8
TEXT
100
AcDbLine
 10
1.126104792938097
 20
0.2651392599403692
 30
0.0
 11
1.126104792938104
 21
0.0629429216086237
 31
0.0
  0
LINE
  5
385
330
18
100
AcDbEntity
  8
TEXT
100
AcDbLine
 10
1.190482977256724
 20
0.1945224900848039
 30
0.0
 11
1.266386510468187
 21
0.0629429216086237
 31
0.0
  0
LINE
  5
386
330
18
100
AcDbEntity
  8
TEXT
100
AcDbLine
 10
1.190482977256724
 20
0.0629429216086237
 30
0.0
 11
1.190482977256724
 21
0.1945224900848039
 31
0.0
  0
LINE
  5
387
330
18
100
AcDbEntity
  8
TEXT
100
AcDbLine
 10
0.0461196666337784
 20
0.3294159545971347
 30
0.0
 11
-0.1296120862647321
 21
0.3294159545971347
 31
0.0
  0
LWPOLYLINE
  5
388
330
18
100
AcDbEntity
  8
TEXT
100
AcDbPolyline
 90
        2
 70
     0
 43
0.0006660908203125
 10
-0.5476897816703872
 20
0.3027723217846372
 10
-0.5476897816703872
 20
0.3294159545971382
  0
LWPOLYLINE
  5
389
330
18
100
AcDbEntity
  8
TEXT
100
AcDbPolyline
 90
        2
 70
     0
 43
0.0006660908203125
 10
-0.5077243324516357
 20
0.3027723217846372
 10
-0.5077243324516357
 20
0.3294159545971382
  0
TEXT
  5
38A
330
18
100
AcDbEntity
  8
TEXT
100
AcDbText
 10
1.495028470943799
 20
0.3423455841867042
 30
0.0
 40
0.0522247191011236
  1
Stylmark  Incorporated
 41
1.221428571428571
 72
     5
 11
2.823961055213462
 21
0.3423455841867042
 31
0.0
100
AcDbText
  0
LINE
  5
38B
330
18
100
AcDbEntity
  8
TEXT
100
AcDbLine
 10
1.121624905611597
 20
0.3294159545971347
 30
0.0
 11
1.054125187962082
 21
0.3294159545971347
 31
0.0
  0
TEXT
  5
38C
330
18
100
AcDbEntity
  8
TEXT
100
AcDbText
 10
0.3287471222172864
 20
0.5094929459602034
 30
0.0
 40
0.125
  1
PART #110473
  7
ITALICC
 72
     1
 11
1.081723312693476
 21
0.5094929459602034
 31
0.0
100
AcDbText
  0
LINE
  5
38D
330
18
100
AcDbEntity
  8
TEXT
100
AcDbLine
 10
0.5586006568880358
 20
0.3294159545971347
 30
0.0
 11
0.4245826009568994
 21
0.3294159545971347
 31
0.0
  0
LINE
  5
38E
330
18
100
AcDbEntity
  8
TEXT
100
AcDbLine
 10
0.1061622714777854
 20
0.3638038721912729
 30
0.0
 11
0.0461196666337784
 21
0.3638038721912729
 31
0.0
  0
LINE
  5
38F
330
18
100
AcDbEntity
  8
TEXT
100
AcDbLine
 10
0.0461196666337784
 20
0.3638038721912729
 30
0.0
 11
0.0461196666337784
 21
0.3294159545971347
 31
0.0
  0
LINE
  5
390
330
18
100
AcDbEntity
  8
TEXT
100
AcDbLine
 10
0.1779612376216946
 20
0.3294159545971347
 30
0.0
 11
0.1061622714777854
 21
0.3294159545971347
 31
0.0
  0
LINE
  5
391
330
18
100
AcDbEntity
  8
TEXT
100
AcDbLine
 10
0.1061622714777854
 20
0.3294159545971347
 30
0.0
 11
0.1061622714777854
 21
0.3638038721912729
 31
0.0
  0
LINE
  5
392
330
18
100
AcDbEntity
  8
TEXT
100
AcDbLine
 10
0.3922707468192392
 20
0.3974274323359452
 30
0.0
 11
0.3254620342528725
 21
0.3974274323359452
 31
0.0
  0
LINE
  5
393
330
18
100
AcDbEntity
  8
TEXT
100
AcDbLine
 10
0.3254620342528725
 20
0.3294159545971347
 30
0.0
 11
0.2953401214594962
 21
0.3294159545971347
 31
0.0
  0
LINE
  5
394
330
18
100
AcDbEntity
  8
TEXT
100
AcDbLine
 10
0.3254620342528725
 20
0.3974274323359452
 30
0.0
 11
0.3254620342528725
 21
0.3294159545971347
 31
0.0
  0
LINE
  5
395
330
18
100
AcDbEntity
  8
TEXT
100
AcDbLine
 10
0.8832961063474655
 20
0.3294159545971347
 30
0.0
 11
0.7484641971304065
 21
0.3294159545971347
 31
0.0
  0
LWPOLYLINE
  5
396
330
18
100
AcDbEntity
  8
TEXT
100
AcDbPolyline
 90
        3
 70
     0
 43
0.0
 10
0.7126825064172416
 20
0.3294159545971382
 10
0.5943823476011972
 20
0.3294159545971382
 10
0.5943823476011972
 20
0.3022484578362423
 42
-1.960274751411753
  0
LWPOLYLINE
  5
397
330
18
100
AcDbEntity
  8
TEXT
100
AcDbPolyline
 90
        2
 70
     0
 43
0.0
 10
0.5586006568880358
 20
0.3294159545971382
 42
-0.3328679258950098
 10
0.5943823476011972
 20
0.3022484578362423
 42
6.772930709997214
  0
LINE
  5
398
330
18
100
AcDbEntity
  8
TEXT
100
AcDbLine
 10
0.7484641971304065
 20
0.3294159545971347
 30
0.0
 11
0.7484641971304065
 21
0.3010934088274908
 31
0.0
  0
LWPOLYLINE
  5
399
330
18
100
AcDbEntity
  8
TEXT
100
AcDbPolyline
 90
        2
 70
     0
 43
0.0
 10
0.7126825064172416
 20
0.3294159545971382
 42
-0.3277054968067132
 10
0.7484641971304065
 20
0.3010934088274944
 42
6.667889725900311
  0
LINE
  5
39A
330
18
100
AcDbEntity
  8
TEXT
100
AcDbLine
 10
1.026152951522007
 20
0.3294159545971347
 30
0.0
 11
0.9622560452225066
 21
0.3294159545971347
 31
0.0
  0
ARC
  5
39B
330
18
100
AcDbEntity
  8
TEXT
100
AcDbCircle
 10
0.8812691665703979
 20
0.2878323874762323
 30
0.0
 40
0.0416329381542859
100
AcDbArc
 50
26.56974201007528
 51
87.20939649401342
  0
LINE
  5
39C
330
18
100
AcDbEntity
  8
TEXT
100
AcDbLine
 10
1.026152951522007
 20
0.30186830473626
 30
0.0
 11
1.026152951522007
 21
0.3294159545971347
 31
0.0
  0
ARC
  5
39D
330
18
100
AcDbEntity
  8
TEXT
100
AcDbCircle
 10
1.057345768585117
 20
0.2981702273148698
 30
0.0
 40
0.0314112657011332
100
AcDbArc
 50
95.88484768694724
 51
173.2388340632136
  0
LINE
  5
39E
330
18
100
AcDbEntity
  8
TEXT
100
AcDbLine
 10
1.31202977544649
 20
0.3294159545971347
 30
0.0
 11
1.237037942716863
 21
0.3294159545971347
 31
0.0
  0
LINE
  5
39F
330
18
100
AcDbEntity
  8
TEXT
100
AcDbLine
 10
1.121624905611604
 20
0.3948801603647354
 30
0.0
 11
1.121624905611597
 21
0.3294159545971347
 31
0.0
  0
LINE
  5
3A0
330
18
100
AcDbEntity
  8
TEXT
100
AcDbLine
 10
1.189939784160877
 20
0.3948801603647354
 30
0.0
 11
1.121624905611604
 21
0.3948801603647354
 31
0.0
  0
ENDSEC
  0
SECTION
  2
OBJECTS
  0
DICTIONARY
  5
C
330
0
100
AcDbDictionary
  3
ACAD_GROUP
350
D
  3
ACAD_LAYOUT
350
3A5
  3
ACAD_MLINESTYLE
350
E
  3
ACAD_PLOTSETTINGS
350
3A6
  3
ACAD_PLOTSTYLENAME
350
3A3
  3
ACDBHEADERROUNDTRIPXREC
350
3B1
  3
ACDBVARIABLEDICTIONARY
350
3AE
  0
DICTIONARY
  5
3D3
330
18
100
AcDbDictionary
280
     1
  3
ACAD_LAYOUTSELFREF
360
3D4
  0
DICTIONARY
  5
3D1
330
15
100
AcDbDictionary
280
     1
  3
ACAD_LAYOUTSELFREF
360
3D2
  0
DICTIONARY
  5
D
102
{ACAD_REACTORS
330
C
102
}
330
C
100
AcDbDictionary
  0
DICTIONARY
  5
3A5
102
{ACAD_REACTORS
330
C
102
}
330
C
100
AcDbDictionary
  0
DICTIONARY
  5
E
102
{ACAD_REACTORS
330
C
102
}
330
C
100
AcDbDictionary
  3
STANDARD
350
1B
  0
DICTIONARY
  5
3A6
102
{ACAD_REACTORS
330
C
102
}
330
C
100
AcDbDictionary
  0
ACDBDICTIONARYWDFLT
  5
3A3
102
{ACAD_REACTORS
330
C
102
}
330
C
100
AcDbDictionary
281
     1
  3
Normal
350
3A4
100
AcDbDictionaryWithDefault
340
3A4
  0
DICTIONARY
  5
3B1
102
{ACAD_REACTORS
330
C
102
}
330
C
100
AcDbDictionary
  3
CEPSNTYPE
350
3BB
  3
FINGERPRINTGUID
350
3BC
  3
HYPERLINKBASE
350
3B4
  3
INSUNITS
350
3BA
  3
LAYOUTDICT
350
3B6
  3
LWETCUNION
350
3B9
  3
PLOTSETDICT
350
3B7
  3
PLOTSTYLNAMDICT
350
3B8
  3
PSVPSCALE
350
3BE
  3
PUCSBASE
350
3C1
  3
PUCSORGBACK
350
3C7
  3
PUCSORGBOTTOM
350
3C3
  3
PUCSORGFRONT
350
3C6
  3
PUCSORGLEFT
350
3C4
  3
PUCSORGRIGHT
350
3C5
  3
PUCSORGTOP
350
3C2
  3
PUCSORTHOREF
350
3BF
  3
PUCSORTHOVIEW
350
3C0
  3
STYLESHEET
350
3B5
  3
TSTACKALIGN
350
3B2
  3
TSTACKSIZE
350
3B3
  3
UCSBASE
350
3CA
  3
UCSORGBACK
350
3D0
  3
UCSORGBOTTOM
350
3CC
  3
UCSORGFRONT
350
3CF
  3
UCSORGLEFT
350
3CD
  3
UCSORGRIGHT
350
3CE
  3
UCSORGTOP
350
3CB
  3
UCSORTHOREF
350
3C8
  3
UCSORTHOVIEW
350
3C9
  3
VERSIONGUID
350
3BD
  0
DICTIONARY
  5
3AE
102
{ACAD_REACTORS
330
C
102
}
330
C
100
AcDbDictionary
  3
DIMASSOC
350
3AF
  0
XRECORD
  5
3D4
102
{ACAD_REACTORS
330
3D3
102
}
330
3D3
100
AcDbXrecord
340
18
  0
XRECORD
  5
3D2
102
{ACAD_REACTORS
330
3D1
102
}
330
3D1
100
AcDbXrecord
340
15
  0
MLINESTYLE
  5
1B
102
{ACAD_REACTORS
330
E
102
}
330
E
100
AcDbMlineStyle
  2
STANDARD
 70
     0
  3

 62
     0
 51
90.0
 52
90.0
 71
     2
 49
0.5
 62
   256
  6
BYLAYER
 49
-0.5
 62
   256
  6
BYLAYER
  0
ACDBPLACEHOLDER
  5
3A4
102
{ACAD_REACTORS
330
3A3
102
}
330
3A3
100
AcDbPlaceHolder
280
     0
  0
XRECORD
  5
3BB
102
{ACAD_REACTORS
330
3B1
102
}
330
3B1
100
AcDbXrecord
 90
        0
  0
XRECORD
  5
3BC
102
{ACAD_REACTORS
330
3B1
102
}
330
3B1
100
AcDbXrecord
  1
{9DFCA4A0-8DB7-11D6-88E6-0090279574E7}
  0
XRECORD
  5
3B4
102
{ACAD_REACTORS
330
3B1
102
}
330
3B1
100
AcDbXrecord
  1

  0
XRECORD
  5
3BA
102
{ACAD_REACTORS
330
3B1
102
}
330
3B1
100
AcDbXrecord
 90
        0
  0
XRECORD
  5
3B6
102
{ACAD_REACTORS
330
3B1
102
}
330
3B1
100
AcDbXrecord
340
3A5
  0
XRECORD
  5
3B9
102
{ACAD_REACTORS
330
3B1
102
}
330
3B1
100
AcDbXrecord
 90
    14877
  0
XRECORD
  5
3B7
102
{ACAD_REACTORS
330
3B1
102
}
330
3B1
100
AcDbXrecord
340
3A6
  0
XRECORD
  5
3B8
102
{ACAD_REACTORS
330
3B1
102
}
330
3B1
100
AcDbXrecord
340
3A3
  0
XRECORD
  5
3BE
102
{ACAD_REACTORS
330
3B1
102
}
330
3B1
100
AcDbXrecord
 40
0.0
  0
XRECORD
  5
3C1
102
{ACAD_REACTORS
330
3B1
102
}
330
3B1
100
AcDbXrecord
340
0
  0
XRECORD
  5
3C7
102
{ACAD_REACTORS
330
3B1
102
}
330
3B1
100
AcDbXrecord
 10
0.0
 20
0.0
 30
0.0
  0
XRECORD
  5
3C3
102
{ACAD_REACTORS
330
3B1
102
}
330
3B1
100
AcDbXrecord
 10
0.0
 20
0.0
 30
0.0
  0
XRECORD
  5
3C6
102
{ACAD_REACTORS
330
3B1
102
}
330
3B1
100
AcDbXrecord
 10
0.0
 20
0.0
 30
0.0
  0
XRECORD
  5
3C4
102
{ACAD_REACTORS
330
3B1
102
}
330
3B1
100
AcDbXrecord
 10
0.0
 20
0.0
 30
0.0
  0
XRECORD
  5
3C5
102
{ACAD_REACTORS
330
3B1
102
}
330
3B1
100
AcDbXrecord
 10
0.0
 20
0.0
 30
0.0
  0
XRECORD
  5
3C2
102
{ACAD_REACTORS
330
3B1
102
}
330
3B1
100
AcDbXrecord
 10
0.0
 20
0.0
 30
0.0
  0
XRECORD
  5
3BF
102
{ACAD_REACTORS
330
3B1
102
}
330
3B1
100
AcDbXrecord
340
0
  0
XRECORD
  5
3C0
102
{ACAD_REACTORS
330
3B1
102
}
330
3B1
100
AcDbXrecord
 70
     0
  0
XRECORD
  5
3B5
102
{ACAD_REACTORS
330
3B1
102
}
330
3B1
100
AcDbXrecord
  1

  0
XRECORD
  5
3B2
102
{ACAD_REACTORS
330
3B1
102
}
330
3B1
100
AcDbXrecord
 90
        1
  0
XRECORD
  5
3B3
102
{ACAD_REACTORS
330
3B1
102
}
330
3B1
100
AcDbXrecord
 90
       70
  0
XRECORD
  5
3CA
102
{ACAD_REACTORS
330
3B1
102
}
330
3B1
100
AcDbXrecord
340
0
  0
XRECORD
  5
3D0
102
{ACAD_REACTORS
330
3B1
102
}
330
3B1
100
AcDbXrecord
 10
0.0
 20
0.0
 30
0.0
  0
XRECORD
  5
3CC
102
{ACAD_REACTORS
330
3B1
102
}
330
3B1
100
AcDbXrecord
 10
0.0
 20
0.0
 30
0.0
  0
XRECORD
  5
3CF
102
{ACAD_REACTORS
330
3B1
102
}
330
3B1
100
AcDbXrecord
 10
0.0
 20
0.0
 30
0.0
  0
XRECORD
  5
3CD
102
{ACAD_REACTORS
330
3B1
102
}
330
3B1
100
AcDbXrecord
 10
0.0
 20
0.0
 30
0.0
  0
XRECORD
  5
3CE
102
{ACAD_REACTORS
330
3B1
102
}
330
3B1
100
AcDbXrecord
 10
0.0
 20
0.0
 30
0.0
  0
XRECORD
  5
3CB
102
{ACAD_REACTORS
330
3B1
102
}
330
3B1
100
AcDbXrecord
 10
0.0
 20
0.0
 30
0.0
  0
XRECORD
  5
3C8
102
{ACAD_REACTORS
330
3B1
102
}
330
3B1
100
AcDbXrecord
340
0
  0
XRECORD
  5
3C9
102
{ACAD_REACTORS
330
3B1
102
}
330
3B1
100
AcDbXrecord
 70
     0
  0
XRECORD
  5
3BD
102
{ACAD_REACTORS
330
3B1
102
}
330
3B1
100
AcDbXrecord
  1
{9DFCA4A2-8DB7-11D6-88E6-0090279574E7}
  0
DICTIONARYVAR
  5
3AF
102
{ACAD_REACTORS
330
3AE
102
}
330
3AE
100
DictionaryVariables
280
     0
  1
1
  0
ENDSEC
  0
EOF
