  0
SECTION
  2
HEADER
  9
$ACADVER
  1
AC1014
  9
$ACADMAINTVER
 70
     9
  9
$DWGCODEPAGE
  3
ANSI_1252
  9
$INSBASE
 10
0.0
 20
0.0
 30
0.0
  9
$EXTMIN
 10
-0.29424270514624
 20
0.2651996862342749
 30
0.0
  9
$EXTMAX
 10
3.190976616600888
 20
1.647945087861026
 30
0.0
  9
$LIMMIN
 10
0.0
 20
0.0
  9
$LIMMAX
 10
18.0
 20
12.0
  9
$ORTHOMODE
 70
     1
  9
$REGENMODE
 70
     1
  9
$FILLMODE
 70
     1
  9
$QTEXTMODE
 70
     0
  9
$MIRRTEXT
 70
     0
  9
$DRAGMODE
 70
     2
  9
$LTSCALE
 40
1.0
  9
$OSMODE
 70
    39
  9
$ATTMODE
 70
     1
  9
$TEXTSIZE
 40
0.125
  9
$TRACEWID
 40
0.05
  9
$TEXTSTYLE
  7
ROMANS
  9
$CLAYER
  8
TEXT
  9
$CELTYPE
  6
BYLAYER
  9
$CECOLOR
 62
   256
  9
$CELTSCALE
 40
1.0
  9
$DELOBJ
 70
     1
  9
$DISPSILH
 70
     1
  9
$DIMSCALE
 40
1.0
  9
$DIMASZ
 40
0.125
  9
$DIMEXO
 40
0.125
  9
$DIMDLI
 40
0.375
  9
$DIMRND
 40
0.0
  9
$DIMDLE
 40
0.0
  9
$DIMEXE
 40
0.125
  9
$DIMTP
 40
0.0
  9
$DIMTM
 40
0.0
  9
$DIMTXT
 40
0.125
  9
$DIMCEN
 40
-0.125
  9
$DIMTSZ
 40
0.0
  9
$DIMTOL
 70
     0
  9
$DIMLIM
 70
     1
  9
$DIMTIH
 70
     1
  9
$DIMTOH
 70
     1
  9
$DIMSE1
 70
     1
  9
$DIMSE2
 70
     1
  9
$DIMTAD
 70
     0
  9
$DIMZIN
 70
     4
  9
$DIMBLK
  1

  9
$DIMASO
 70
     1
  9
$DIMSHO
 70
     1
  9
$DIMPOST
  1

  9
$DIMAPOST
  1

  9
$DIMALT
 70
     0
  9
$DIMALTD
 70
     2
  9
$DIMALTF
 40
25.4
  9
$DIMLFAC
 40
0.5
  9
$DIMTOFL
 70
     0
  9
$DIMTVP
 40
0.0
  9
$DIMTIX
 70
     0
  9
$DIMSOXD
 70
     0
  9
$DIMSAH
 70
     0
  9
$DIMBLK1
  1

  9
$DIMBLK2
  1

  9
$DIMSTYLE
  2
STANDARD
  9
$DIMCLRD
 70
     0
  9
$DIMCLRE
 70
     0
  9
$DIMCLRT
 70
     0
  9
$DIMTFAC
 40
1.0
  9
$DIMGAP
 40
0.09
  9
$DIMJUST
 70
     0
  9
$DIMSD1
 70
     0
  9
$DIMSD2
 70
     0
  9
$DIMTOLJ
 70
     1
  9
$DIMTZIN
 70
     4
  9
$DIMALTZ
 70
     0
  9
$DIMALTTZ
 70
     0
  9
$DIMFIT
 70
     3
  9
$DIMUPT
 70
     0
  9
$DIMUNIT
 70
     2
  9
$DIMDEC
 70
     3
  9
$DIMTDEC
 70
     3
  9
$DIMALTU
 70
     2
  9
$DIMALTTD
 70
     2
  9
$DIMTXSTY
  7
ROMANS
  9
$DIMAUNIT
 70
     0
  9
$LUNITS
 70
     2
  9
$LUPREC
 70
     3
  9
$SKETCHINC
 40
0.1
  9
$FILLETRAD
 40
0.062
  9
$AUNITS
 70
     0
  9
$AUPREC
 70
     0
  9
$MENU
  1
ACAD
  9
$ELEVATION
 40
0.0
  9
$PELEVATION
 40
0.0
  9
$THICKNESS
 40
0.0
  9
$LIMCHECK
 70
     1
  9
$BLIPMODE
 70
     0
  9
$CHAMFERA
 40
0.0
  9
$CHAMFERB
 40
0.0
  9
$CHAMFERC
 40
0.0
  9
$CHAMFERD
 40
0.0
  9
$SKPOLY
 70
     0
  9
$TDCREATE
 40
2449091.556013773
  9
$TDUPDATE
 40
2452458.313395636
  9
$TDINDWG
 40
0.1048341204
  9
$TDUSRTIMER
 40
0.1048341204
  9
$USRTIMER
 70
     1
  9
$ANGBASE
 50
0.0
  9
$ANGDIR
 70
     0
  9
$PDMODE
 70
     0
  9
$PDSIZE
 40
0.0
  9
$PLINEWID
 40
0.0
  9
$COORDS
 70
     2
  9
$SPLFRAME
 70
     0
  9
$SPLINETYPE
 70
     6
  9
$SPLINESEGS
 70
     8
  9
$ATTDIA
 70
     0
  9
$ATTREQ
 70
     1
  9
$HANDLING
 70
 22529
  9
$HANDSEED
  5
841
  9
$SURFTAB1
 70
     6
  9
$SURFTAB2
 70
     6
  9
$SURFTYPE
 70
     6
  9
$SURFU
 70
     6
  9
$SURFV
 70
     6
  9
$UCSNAME
  2

  9
$UCSORG
 10
0.0
 20
0.0
 30
0.0
  9
$UCSXDIR
 10
1.0
 20
0.0
 30
0.0
  9
$UCSYDIR
 10
0.0
 20
1.0
 30
0.0
  9
$PUCSNAME
  2

  9
$PUCSORG
 10
0.0
 20
0.0
 30
0.0
  9
$PUCSXDIR
 10
1.0
 20
0.0
 30
0.0
  9
$PUCSYDIR
 10
0.0
 20
1.0
 30
0.0
  9
$USERI1
 70
     0
  9
$USERI2
 70
     0
  9
$USERI3
 70
     0
  9
$USERI4
 70
     0
  9
$USERI5
 70
     0
  9
$USERR1
 40
0.0
  9
$USERR2
 40
0.0
  9
$USERR3
 40
0.0
  9
$USERR4
 40
0.0
  9
$USERR5
 40
0.0
  9
$WORLDVIEW
 70
     1
  9
$SHADEDGE
 70
     3
  9
$SHADEDIF
 70
    70
  9
$TILEMODE
 70
     1
  9
$MAXACTVP
 70
    16
  9
$PINSBASE
 10
0.0
 20
0.0
 30
0.0
  9
$PLIMCHECK
 70
     0
  9
$PEXTMIN
 10
1.000000000000000E+20
 20
1.000000000000000E+20
 30
1.000000000000000E+20
  9
$PEXTMAX
 10
-1.000000000000000E+20
 20
-1.000000000000000E+20
 30
-1.000000000000000E+20
  9
$PLIMMIN
 10
0.0
 20
0.0
  9
$PLIMMAX
 10
12.0
 20
9.0
  9
$UNITMODE
 70
     0
  9
$VISRETAIN
 70
     0
  9
$PLINEGEN
 70
     1
  9
$PSLTSCALE
 70
     0
  9
$TREEDEPTH
 70
  3020
  9
$PICKSTYLE
 70
     1
  9
$CMLSTYLE
  2
STANDARD
  9
$CMLJUST
 70
     0
  9
$CMLSCALE
 40
1.0
  9
$PROXYGRAPHICS
 70
     1
  9
$MEASUREMENT
 70
     0
  0
ENDSEC
  0
SECTION
  2
CLASSES
  0
CLASS
  1
LWPOLYLINE
  2
AcDbPolyline
  3
AutoCAD 2000
 90
        0
280
     0
281
     1
  0
CLASS
  1
ACDBDICTIONARYWDFLT
  2
AcDbDictionaryWithDefault
  3
AutoCAD 2000
 90
        0
280
     0
281
     0
  0
CLASS
  1
ACDBPLACEHOLDER
  2
AcDbPlaceHolder
  3
AutoCAD 2000
 90
        0
280
     0
281
     0
  0
CLASS
  1
LAYOUT
  2
AcDbLayout
  3
AutoCAD 2000
 90
        0
280
     0
281
     0
  0
CLASS
  1
DICTIONARYVAR
  2
AcDbDictionaryVar
  3
AutoCAD 2000
 90
        0
280
     0
281
     0
  0
CLASS
  1
LONG_TRANSACTION
  2
AcDbLongTransaction
  3
AutoCAD 2000
 90
        0
280
     0
281
     0
  0
CLASS
  1
LWPOLYLINE
  2
AcDbPolyline
  3
AutoCAD 2000
 90
        0
280
     0
281
     1
  0
CLASS
  1
HATCH
  2
AcDbHatch
  3
AutoCAD 2000
 90
        0
280
     0
281
     1
  0
CLASS
  1
XRECORD
  2
AcDbXrecord
  3
AutoCAD 2000
 90
        0
280
     0
281
     0
  0
ENDSEC
  0
SECTION
  2
TABLES
  0
TABLE
  2
VPORT
  5
8
330
0
100
AcDbSymbolTable
 70
     2
  0
VPORT
  5
81C
330
8
100
AcDbSymbolTableRecord
100
AcDbViewportTableRecord
  2
*ACTIVE
 70
     0
 10
0.0
 20
0.0
 11
1.0
 21
1.0
 12
4.371819813683494
 22
0.9565786493470389
 13
0.0
 23
0.0
 14
0.5
 24
0.5
 15
0.5
 25
0.5
 16
0.0
 26
0.0
 36
1.0
 17
0.0
 27
0.0
 37
0.0
 40
2.164490187770486
 41
4.320930232558139
 42
50.0
 43
0.0
 44
0.0
 50
0.0
 51
0.0
 71
     0
 72
  2000
 73
     1
 74
     1
 75
     0
 76
     0
 77
     0
 78
     0
  0
ENDTAB
  0
TABLE
  2
LTYPE
  5
5
330
0
100
AcDbSymbolTable
 70
     1
  0
LTYPE
  5
12
330
5
100
AcDbSymbolTableRecord
100
AcDbLinetypeTableRecord
  2
BYBLOCK
 70
     0
  3

 72
    65
 73
     0
 40
0.0
  0
LTYPE
  5
13
330
5
100
AcDbSymbolTableRecord
100
AcDbLinetypeTableRecord
  2
BYLAYER
 70
     0
  3

 72
    65
 73
     0
 40
0.0
  0
LTYPE
  5
14
330
5
100
AcDbSymbolTableRecord
100
AcDbLinetypeTableRecord
  2
CONTINUOUS
 70
     0
  3
Solid line
 72
    65
 73
     0
 40
0.0
  0
ENDTAB
  0
TABLE
  2
LAYER
  5
2
330
0
100
AcDbSymbolTable
 70
     2
  0
LAYER
  5
F
330
2
100
AcDbSymbolTableRecord
100
AcDbLayerTableRecord
  2
0
 70
     0
 62
     7
  6
CONTINUOUS
  0
LAYER
  5
22
330
2
100
AcDbSymbolTableRecord
100
AcDbLayerTableRecord
  2
TEXT
 70
     0
 62
     3
  6
CONTINUOUS
  0
ENDTAB
  0
TABLE
  2
STYLE
  5
3
330
0
100
AcDbSymbolTable
 70
     3
  0
STYLE
  5
10
330
3
100
AcDbSymbolTableRecord
100
AcDbTextStyleTableRecord
  2
STANDARD
 70
     0
 40
0.0
 41
0.8
 50
0.0
 71
     0
 42
0.125
  3
TXT
  4

  0
STYLE
  5
35B
330
3
100
AcDbSymbolTableRecord
100
AcDbTextStyleTableRecord
  2
ROMANS
 70
     0
 40
0.0
 41
1.0
 50
0.0
 71
     0
 42
0.125
  3
romans.shx
  4

  0
STYLE
  5
70A
330
3
100
AcDbSymbolTableRecord
100
AcDbTextStyleTableRecord
  2
ITALICC
 70
     0
 40
0.0
 41
1.0
 50
0.0
 71
     0
 42
0.125
  3
italicc
  4

  0
ENDTAB
  0
TABLE
  2
VIEW
  5
6
330
0
100
AcDbSymbolTable
 70
     0
  0
ENDTAB
  0
TABLE
  2
UCS
  5
7
330
0
100
AcDbSymbolTable
 70
     0
  0
ENDTAB
  0
TABLE
  2
APPID
  5
9
330
0
100
AcDbSymbolTable
 70
     1
  0
APPID
  5
11
330
9
100
AcDbSymbolTableRecord
100
AcDbRegAppTableRecord
  2
ACAD
 70
     0
  0
ENDTAB
  0
TABLE
  2
DIMSTYLE
  5
A
330
0
100
AcDbSymbolTable
 70
     1
  0
DIMSTYLE
105
353
330
A
100
AcDbSymbolTableRecord
100
AcDbDimStyleTableRecord
  2
STANDARD
 70
     0
  3

  4

  5

  6

  7

 40
1.0
 41
0.125
 42
0.125
 43
0.375
 44
0.125
 45
0.0
 46
0.0
 47
0.0
 48
0.0
140
0.125
141
-0.125
142
0.0
143
25.4
144
0.5
145
0.0
146
1.0
147
0.09
 71
     0
 72
     1
 73
     1
 74
     1
 75
     1
 76
     1
 77
     0
 78
     4
170
     0
171
     2
172
     0
173
     0
174
     0
175
     0
176
     0
177
     0
178
     0
270
     2
271
     3
272
     3
273
     2
274
     2
340
35B
275
     0
280
     0
281
     0
282
     0
283
     1
284
     4
285
     0
286
     0
287
     3
288
     0
  0
ENDTAB
  0
TABLE
  2
BLOCK_RECORD
  5
1
330
0
100
AcDbSymbolTable
 70
     0
  0
BLOCK_RECORD
  5
18
102
{ACAD_XDICTIONARY
360
83F
102
}
330
1
100
AcDbSymbolTableRecord
100
AcDbBlockTableRecord
  2
*MODEL_SPACE
  0
BLOCK_RECORD
  5
15
102
{ACAD_XDICTIONARY
360
83D
102
}
330
1
100
AcDbSymbolTableRecord
100
AcDbBlockTableRecord
  2
*PAPER_SPACE
  0
ENDTAB
  0
ENDSEC
  0
SECTION
  2
BLOCKS
  0
BLOCK
  5
27
330
18
100
AcDbEntity
  8
0
100
AcDbBlockBegin
  2
*MODEL_SPACE
 70
     0
 10
0.0
 20
0.0
 30
0.0
  3
*MODEL_SPACE
  1

  0
ENDBLK
  5
28
330
18
100
AcDbEntity
  8
0
100
AcDbBlockEnd
  0
BLOCK
  5
25
330
15
100
AcDbEntity
 67
     1
  8
0
100
AcDbBlockBegin
  2
*PAPER_SPACE
 70
     0
 10
0.0
 20
0.0
 30
0.0
  3
*PAPER_SPACE
  1

  0
ENDBLK
  5
26
330
15
100
AcDbEntity
 67
     1
  8
0
100
AcDbBlockEnd
  0
ENDSEC
  0
SECTION
  2
ENTITIES
  0
LWPOLYLINE
  5
267
330
18
100
AcDbEntity
  8
0
100
AcDbPolyline
 90
       54
 70
     1
 43
0.0
 10
2.489120295384449
 20
1.526918229494117
 10
2.481120295384446
 20
1.526918229494113
 10
2.481120295384446
 20
1.43391822949411
 42
1.0
 10
2.591120295384445
 20
1.43391822949411
 10
2.591120295384445
 20
1.526918229494113
 10
2.58312029538445
 20
1.526918229494113
 42
-0.4142135623730431
 10
2.623120295384449
 20
1.566918229494105
 10
2.645120295384451
 20
1.566918229494105
 42
-0.4142135623730966
 10
2.685120295384451
 20
1.526918229494104
 10
2.685120295384447
 20
0.9419182294941119
 10
2.010449966301336
 20
0.9419182294941119
 10
2.010449966301336
 20
1.031918229494113
 10
2.010449966301336
 20
1.238784378938913
 42
0.1989123685023703
 10
2.001297053117957
 20
1.26088146594645
 10
1.969113433959596
 20
1.293065084846054
 42
-0.4142135623730921
 10
1.969113433770207
 20
1.33690570527962
 10
2.001297053308873
 20
1.369089325077042
 42
0.1989123662569459
 10
2.010449966301335
 20
1.391186411893665
 10
2.010449966301336
 20
1.43648259927707
 42
0.414213562373093
 10
1.979449966301336
 20
1.467482599277071
 10
1.530678138975343
 20
1.467482599277071
 10
1.510678138975344
 20
1.48748259927707
 10
1.490678138975343
 20
1.46748259927707
 10
1.042993441662393
 20
1.467482599277071
 42
0.4142135623730931
 10
1.011993441662393
 20
1.43648259927707
 10
1.011993441662393
 20
1.391186411893665
 42
0.1989123662569446
 10
1.021146354654856
 20
1.369089325077042
 10
1.05315319740353
 20
1.337082482051833
 42
-0.4142135623730951
 10
1.05315319740353
 20
1.292888308227674
 10
1.021146354845771
 20
1.26088146594645
 42
0.1989123685023706
 10
1.011993441662392
 20
1.238784378938913
 10
1.011993441662392
 20
0.9419182294941119
 10
0.3460180421494035
 20
0.9419182294941119
 10
0.3460180421494035
 20
1.526918229494073
 42
-0.4142135623725745
 10
0.3860180421493324
 20
1.566918229494073
 10
0.4080180421494011
 20
1.566918229494112
 10
0.4060180421494022
 20
1.566918229494109
 10
0.4080180421494011
 20
1.566918229494105
 42
-0.414213562373069
 10
0.4480180421494003
 20
1.52691822949411
 10
0.4400180421494047
 20
1.526918229494113
 10
0.4400180421494047
 20
1.43391822949411
 42
1.0
 10
0.5500180421494041
 20
1.43391822949411
 10
0.5500180421494041
 20
1.526918229494113
 10
0.542018042149405
 20
1.526918229494113
 42
-0.4142135623730821
 10
0.5820180421494042
 20
1.566918229494112
 10
1.400491046487205
 20
1.566918229494112
 42
0.4142135623731015
 10
1.410491046487205
 20
1.576918229494112
 10
1.410491046487205
 20
1.610524777644243
 42
-0.4142135623730971
 10
1.441491046487204
 20
1.641524777644243
 10
1.579678138975343
 20
1.641524777644243
 42
-0.4142135623730971
 10
1.610678138975343
 20
1.610524777644243
 10
1.610678138975343
 20
1.576918229494112
 42
0.4142135623731015
 10
1.620678138975343
 20
1.566918229494111
 10
2.44912029538445
 20
1.566918229494112
 42
-0.4142135623730625
  0
LWPOLYLINE
  5
29F
330
18
100
AcDbEntity
  8
0
100
AcDbPolyline
 90
       12
 70
     1
 43
0.0
 10
0.4360180421494034
 20
1.062918229494112
 42
0.4142135623730951
 10
0.4670180421494035
 20
1.031918229494111
 10
0.8909934416623933
 20
1.031918229494111
 42
0.4142135623730951
 10
0.9219934416623933
 20
1.062918229494112
 10
0.9219934416623933
 20
1.445918229494111
 42
0.4142135623730939
 10
0.8909934416623933
 20
1.476918229494111
 10
0.6710180421493992
 20
1.476918229494112
 42
0.4142135623731121
 10
0.6400180421493991
 20
1.445918229494111
 10
0.6400180421494009
 20
1.413918229494116
 42
-0.4142135623731104
 10
0.5150180421494009
 20
1.28891822949411
 10
0.4670180421494035
 20
1.28891822949411
 42
0.4142135623730953
 10
0.4360180421494034
 20
1.25791822949411
  0
LWPOLYLINE
  5
2AD
330
18
100
AcDbEntity
  8
0
100
AcDbPolyline
 90
       12
 70
     1
 43
0.0
 10
2.564120295384446
 20
1.031918229494111
 42
0.414213562373088
 10
2.595120295384447
 20
1.062918229494111
 10
2.595120295384452
 20
1.25791822949411
 42
0.4142135623731022
 10
2.564120295384451
 20
1.28891822949411
 10
2.516120295384453
 20
1.28891822949411
 42
-0.4142135623731259
 10
2.391120295384453
 20
1.413918229494123
 10
2.391120295384458
 20
1.445918229494104
 42
0.4142135623731372
 10
2.360120295384458
 20
1.476918229494108
 10
2.131699966301336
 20
1.47691822949411
 42
0.4142135623730951
 10
2.100449966301336
 20
1.44566822949411
 10
2.100449966301336
 20
1.063168229494112
 42
0.4142135623730951
 10
2.131699966301336
 20
1.031918229494112
  0
LINE
  5
78F
330
18
100
AcDbEntity
  8
TEXT
100
AcDbLine
 10
1.556955345548303
 20
0.4672759725422502
 30
0.0
 11
1.556955345548303
 21
0.608605504721389
 31
0.0
  0
LINE
  5
790
330
18
100
AcDbEntity
  8
TEXT
100
AcDbLine
 10
1.604053504104285
 20
0.5431412989537883
 30
0.0
 11
1.556955345548303
 21
0.4672759725422502
 31
0.0
  0
LINE
  5
791
330
18
100
AcDbEntity
  8
TEXT
100
AcDbLine
 10
1.61448822086821
 20
0.4332480560128147
 30
0.0
 11
1.679045336833915
 21
0.5431412989537883
 31
0.0
  0
TEXT
  5
792
330
18
100
AcDbEntity
  8
TEXT
100
AcDbText
 10
1.862044032331224
 20
0.4628125015770657
 30
0.0
 40
0.0522247191011236
  1
6536 Main St. N.E. * P.O. Box 32008
 41
0.8388932496075355
 72
     5
 11
3.190976616600888
 21
0.4628125015770657
 31
0.0
100
AcDbText
  0
ARC
  5
793
330
18
100
AcDbEntity
  8
TEXT
100
AcDbCircle
 10
1.416472373032965
 20
0.4539587290143601
 30
0.0
 40
0.0249058752826653
100
AcDbArc
 50
89.99971217465335
 51
179.9999999999985
  0
LINE
  5
794
330
18
100
AcDbEntity
  8
TEXT
100
AcDbLine
 10
1.329271606609932
 20
0.437929320400361
 30
0.0
 11
1.28552083542803
 21
0.5201795963965062
 31
0.0
  0
LINE
  5
795
330
18
100
AcDbEntity
  8
TEXT
100
AcDbLine
 10
1.329271606609932
 20
0.5431412989537883
 30
0.0
 11
1.329271606609932
 21
0.437929320400361
 31
0.0
  0
ARC
  5
796
330
18
100
AcDbEntity
  8
TEXT
100
AcDbCircle
 10
1.221280769390412
 20
0.4505052292970256
 30
0.0
 40
0.028359375
100
AcDbArc
 50
25.78218179591245
 51
90.0
  0
LINE
  5
797
330
18
100
AcDbEntity
  8
TEXT
100
AcDbLine
 10
0.759286308206665
 20
0.3590561040682765
 30
0.0
 11
0.759286308206665
 21
0.6111527766925989
 31
0.0
  0
LINE
  5
798
330
18
100
AcDbEntity
  8
TEXT
100
AcDbLine
 10
0.7915981623443252
 20
0.5431412989537883
 30
0.0
 11
0.7915981623443252
 21
0.34227709222138
 31
0.0
  0
LINE
  5
799
330
18
100
AcDbEntity
  8
TEXT
100
AcDbLine
 10
0.662355682846922
 20
0.5431412989537883
 30
0.0
 11
0.6036071200410582
 21
0.4422693028406677
 31
0.0
  0
LINE
  5
79A
330
18
100
AcDbEntity
  8
TEXT
100
AcDbLine
 10
0.6036071200410582
 20
0.4422693028406677
 30
0.0
 11
0.5449767990091204
 21
0.5431412989537883
 31
0.0
  0
ARC
  5
79B
330
18
100
AcDbEntity
  8
TEXT
100
AcDbCircle
 10
0.2374034751226937
 20
0.4610538395072866
 30
0.0
 40
0.0820874594465043
100
AcDbArc
 50
90.0
 51
270.0
  0
LWPOLYLINE
  5
79C
330
18
100
AcDbEntity
  8
TEXT
100
AcDbPolyline
 90
        2
 70
     0
 43
0.0001332181640625
 10
-0.1706828579782709
 20
0.4698713087194122
 10
-0.1806742202829614
 20
0.5431412989537919
  0
LWPOLYLINE
  5
79D
330
18
100
AcDbEntity
  8
TEXT
100
AcDbPolyline
 90
        2
 70
     0
 43
0.0001332181640625
 10
-0.1806742202829614
 20
0.5164976661412908
 10
-0.1706828579782709
 20
0.4565494923131653
  0
LWPOLYLINE
  5
79E
330
18
100
AcDbEntity
  8
TEXT
100
AcDbPolyline
 90
        2
 70
     0
 43
0.0001332181640625
 10
-0.1407087710642099
 20
0.5164976661412908
 10
-0.1507001333688986
 20
0.4565494923131653
  0
LWPOLYLINE
  5
79F
330
18
100
AcDbEntity
  8
TEXT
100
AcDbPolyline
 90
        2
 70
     0
 43
0.0001332181640625
 10
-0.1407087710642099
 20
0.5431412989537919
 10
-0.1507001333688986
 20
0.4698713087194122
  0
LWPOLYLINE
  5
7A0
330
18
100
AcDbEntity
  8
TEXT
100
AcDbPolyline
 90
        3
 70
     0
 43
0.0006660908203125
 10
-0.027473331611084
 20
0.4299058595006642
 10
-0.027473331611084
 20
0.5431412989537919
 10
-0.1407087710642099
 20
0.5431412989537919
  0
LWPOLYLINE
  5
7A1
330
18
100
AcDbEntity
  8
TEXT
100
AcDbPolyline
 90
        3
 70
     0
 43
0.0006660908203125
 10
-0.0541169644235851
 20
0.4299058595006642
 10
-0.0541169644235851
 20
0.5164976661412908
 10
-0.1407087710642099
 20
0.5164976661412908
  0
LWPOLYLINE
  5
7A2
330
18
100
AcDbEntity
  8
TEXT
100
AcDbPolyline
 90
        2
 70
     0
 43
0.0001332181640625
 10
-0.0541169644235851
 20
0.5164976661412908
 10
-0.1140651382517088
 20
0.4565494923131653
  0
LWPOLYLINE
  5
7A3
330
18
100
AcDbEntity
  8
TEXT
100
AcDbPolyline
 90
        2
 70
     0
 43
0.0001332181640625
 10
-0.2672660269235862
 20
0.5164976661412908
 10
-0.2073178530954607
 20
0.4565494923131653
  0
LWPOLYLINE
  5
7A4
330
18
100
AcDbEntity
  8
TEXT
100
AcDbPolyline
 90
        3
 70
     0
 43
0.0006660908203125
 10
-0.1806742202829614
 20
0.5431412989537919
 10
-0.2939096597360837
 20
0.5431412989537919
 10
-0.2939096597360837
 20
0.4299058595006642
  0
LWPOLYLINE
  5
7A5
330
18
100
AcDbEntity
  8
TEXT
100
AcDbPolyline
 90
        3
 70
     0
 43
0.0006660908203125
 10
-0.1806742202829614
 20
0.5164976661412908
 10
-0.2672660269235862
 20
0.5164976661412908
 10
-0.2672660269235862
 20
0.4299058595006642
  0
LINE
  5
7A6
330
18
100
AcDbEntity
  8
TEXT
100
AcDbLine
 10
0.3082409414812428
 20
0.443059882686395
 30
0.0
 11
0.2426408052369418
 21
0.443059882686395
 31
0.0
  0
LINE
  5
7A7
330
18
100
AcDbEntity
  8
TEXT
100
AcDbLine
 10
0.2374034751226937
 20
0.3789663800607812
 30
0.0
 11
0.3131813153875225
 21
0.3789663800607812
 31
0.0
  0
LINE
  5
7A8
330
18
100
AcDbEntity
  8
TEXT
100
AcDbLine
 10
0.1553160156761901
 20
0.2766682659652773
 30
0.0
 11
0.3082409414812428
 21
0.2766682659652773
 31
0.0
  0
LINE
  5
7A9
330
18
100
AcDbEntity
  8
TEXT
100
AcDbLine
 10
0.3131813153875225
 20
0.3450252722987166
 30
0.0
 11
0.1553160156761884
 21
0.3450252722987166
 31
0.0
  0
LINE
  5
7AA
330
18
100
AcDbEntity
  8
TEXT
100
AcDbLine
 10
0.2426408052369418
 20
0.4788646042970229
 30
0.0
 11
0.4095464592659113
 21
0.4788646042970229
 31
0.0
  0
LWPOLYLINE
  5
7AB
330
18
100
AcDbEntity
  8
TEXT
100
AcDbPolyline
 90
        2
 70
     0
 43
0.0006660908203125
 10
-0.0541169644235851
 20
0.4299058595006642
 10
-0.027473331611084
 20
0.4299058595006642
  0
LWPOLYLINE
  5
7AC
330
18
100
AcDbEntity
  8
TEXT
100
AcDbPolyline
 90
        2
 70
     0
 43
0.0001332181640625
 10
-0.1007433218454601
 20
0.4199144971959754
 10
-0.027473331611084
 20
0.4299058595006642
  0
LWPOLYLINE
  5
7AD
330
18
100
AcDbEntity
  8
TEXT
100
AcDbPolyline
 90
        2
 70
     0
 43
0.0006660908203125
 10
-0.0541169644235851
 20
0.3899404102819162
 10
-0.027473331611084
 20
0.3899404102819162
  0
LWPOLYLINE
  5
7AE
330
18
100
AcDbEntity
  8
TEXT
100
AcDbPolyline
 90
        3
 70
     0
 43
0.0006660908203125
 10
-0.1407087710642099
 20
0.2767049708287885
 10
-0.027473331611084
 20
0.2767049708287885
 10
-0.027473331611084
 20
0.3899404102819162
  0
LWPOLYLINE
  5
7AF
330
18
100
AcDbEntity
  8
TEXT
100
AcDbPolyline
 90
        2
 70
     0
 43
0.0001332181640625
 10
-0.027473331611084
 20
0.3899404102819162
 10
-0.1007433218454601
 20
0.3999317725866014
  0
LWPOLYLINE
  5
7B0
330
18
100
AcDbEntity
  8
TEXT
100
AcDbPolyline
 90
        3
 70
     0
 43
0.0006660908203125
 10
-0.2939096597360837
 20
0.3899404102819162
 10
-0.2939096597360837
 20
0.2767049708287885
 10
-0.1806742202829614
 20
0.2767049708287885
  0
LWPOLYLINE
  5
7B1
330
18
100
AcDbEntity
  8
TEXT
100
AcDbPolyline
 90
        3
 70
     0
 43
0.0006660908203125
 10
-0.2672660269235862
 20
0.3899404102819162
 10
-0.2672660269235862
 20
0.3033486036412896
 10
-0.1806742202829614
 20
0.3033486036412896
  0
LWPOLYLINE
  5
7B2
330
18
100
AcDbEntity
  8
TEXT
100
AcDbPolyline
 90
        5
 70
     0
 43
0.0001332181640625
 10
-0.1706828579782709
 20
0.3499749610631646
 10
-0.1706828579782709
 20
0.3632967774694151
 10
-0.2073178530954589
 20
0.3632967774694151
 10
-0.2073178530954589
 20
0.3999317725866014
 10
-0.2206396695017094
 20
0.3999317725866014
  0
LWPOLYLINE
  5
7B3
330
18
100
AcDbEntity
  8
TEXT
100
AcDbPolyline
 90
        5
 70
     0
 43
0.0001332181640625
 10
-0.2206396695017094
 20
0.4199144971959754
 10
-0.2073178530954607
 20
0.4199144971959754
 10
-0.2073178530954607
 20
0.4565494923131653
 10
-0.1706828579782709
 20
0.4565494923131653
 10
-0.1706828579782709
 20
0.4698713087194122
  0
LWPOLYLINE
  5
7B4
330
18
100
AcDbEntity
  8
TEXT
100
AcDbPolyline
 90
        2
 70
     0
 43
0.0001332181640625
 10
-0.2672660269235862
 20
0.4299058595006642
 10
-0.2073178530954607
 20
0.4199144971959754
  0
LWPOLYLINE
  5
7B5
330
18
100
AcDbEntity
  8
TEXT
100
AcDbPolyline
 90
        2
 70
     0
 43
0.0001332181640625
 10
-0.2939096597360837
 20
0.4299058595006642
 10
-0.2206396695017094
 20
0.4199144971959754
  0
LWPOLYLINE
  5
7B6
330
18
100
AcDbEntity
  8
TEXT
100
AcDbPolyline
 90
        2
 70
     0
 43
0.0006660908203125
 10
-0.2672660269235862
 20
0.4299058595006642
 10
-0.2939096597360837
 20
0.4299058595006642
  0
LWPOLYLINE
  5
7B7
330
18
100
AcDbEntity
  8
TEXT
100
AcDbPolyline
 90
        2
 70
     0
 43
0.0001332181640625
 10
-0.2672660269235862
 20
0.3033486036412896
 10
-0.2073178530954589
 20
0.3632967774694151
  0
LWPOLYLINE
  5
7B8
330
18
100
AcDbEntity
  8
TEXT
100
AcDbPolyline
 90
        2
 70
     0
 43
0.0006660908203125
 10
-0.2672660269235862
 20
0.3899404102819162
 10
-0.2939096597360837
 20
0.3899404102819162
  0
LWPOLYLINE
  5
7B9
330
18
100
AcDbEntity
  8
TEXT
100
AcDbPolyline
 90
        2
 70
     0
 43
0.0001332181640625
 10
-0.2206396695017094
 20
0.3999317725866014
 10
-0.2939096597360837
 20
0.3899404102819162
  0
LWPOLYLINE
  5
7BA
330
18
100
AcDbEntity
  8
TEXT
100
AcDbPolyline
 90
        2
 70
     0
 43
0.0001332181640625
 10
-0.2672660269235862
 20
0.3899404102819162
 10
-0.2073178530954589
 20
0.3999317725866014
  0
LWPOLYLINE
  5
7BB
330
18
100
AcDbEntity
  8
TEXT
100
AcDbPolyline
 90
        5
 70
     0
 43
0.0001332181640625
 10
-0.1507001333688986
 20
0.4698713087194122
 10
-0.1507001333688986
 20
0.4565494923131653
 10
-0.1140651382517088
 20
0.4565494923131653
 10
-0.1140651382517088
 20
0.4199144971959754
 10
-0.1007433218454601
 20
0.4199144971959754
  0
LWPOLYLINE
  5
7BC
330
18
100
AcDbEntity
  8
TEXT
100
AcDbPolyline
 90
        2
 70
     0
 43
0.0001332181640625
 10
-0.0541169644235851
 20
0.4299058595006642
 10
-0.1140651382517088
 20
0.4199144971959754
  0
LWPOLYLINE
  5
7BD
330
18
100
AcDbEntity
  8
TEXT
100
AcDbPolyline
 90
        2
 70
     0
 43
0.0006660908203125
 10
-0.1806742202829614
 20
0.3033486036412896
 10
-0.1806742202829614
 20
0.2767049708287885
  0
LWPOLYLINE
  5
7BE
330
18
100
AcDbEntity
  8
TEXT
100
AcDbPolyline
 90
        2
 70
     0
 43
0.0001332181640625
 10
-0.1806742202829614
 20
0.3033486036412896
 10
-0.1706828579782709
 20
0.3632967774694151
  0
LWPOLYLINE
  5
7BF
330
18
100
AcDbEntity
  8
TEXT
100
AcDbPolyline
 90
        2
 70
     0
 43
0.0001332181640625
 10
-0.1806742202829614
 20
0.2767049708287885
 10
-0.1706828579782709
 20
0.3499749610631646
  0
LWPOLYLINE
  5
7C0
330
18
100
AcDbEntity
  8
TEXT
100
AcDbPolyline
 90
        2
 70
     0
 43
0.0001332181640625
 10
-0.1407087710642099
 20
0.3033486036412896
 10
-0.1507001333688986
 20
0.3632967774694151
  0
LWPOLYLINE
  5
7C1
330
18
100
AcDbEntity
  8
TEXT
100
AcDbPolyline
 90
        2
 70
     0
 43
0.0001332181640625
 10
-0.1507001333688986
 20
0.3499749610631646
 10
-0.1407087710642099
 20
0.2767049708287885
  0
LWPOLYLINE
  5
7C2
330
18
100
AcDbEntity
  8
TEXT
100
AcDbPolyline
 90
        2
 70
     0
 43
0.0006660908203125
 10
-0.1407087710642099
 20
0.3033486036412896
 10
-0.1407087710642099
 20
0.2767049708287885
  0
LWPOLYLINE
  5
7C3
330
18
100
AcDbEntity
  8
TEXT
100
AcDbPolyline
 90
        2
 70
     0
 43
0.0001332181640625
 10
-0.0541169644235851
 20
0.3033486036412896
 10
-0.1140651382517088
 20
0.3632967774694151
  0
LWPOLYLINE
  5
7C4
330
18
100
AcDbEntity
  8
TEXT
100
AcDbPolyline
 90
        3
 70
     0
 43
0.0006660908203125
 10
-0.1407087710642099
 20
0.3033486036412896
 10
-0.0541169644235851
 20
0.3033486036412896
 10
-0.0541169644235851
 20
0.3899404102819162
  0
LWPOLYLINE
  5
7C5
330
18
100
AcDbEntity
  8
TEXT
100
AcDbPolyline
 90
        2
 70
     0
 43
0.0001332181640625
 10
-0.0541169644235851
 20
0.3899404102819162
 10
-0.1140651382517088
 20
0.3999317725866014
  0
LWPOLYLINE
  5
7C6
330
18
100
AcDbEntity
  8
TEXT
100
AcDbPolyline
 90
        5
 70
     0
 43
0.0001332181640625
 10
-0.1007433218454601
 20
0.3999317725866014
 10
-0.1140651382517088
 20
0.3999317725866014
 10
-0.1140651382517088
 20
0.3632967774694151
 10
-0.1507001333688986
 20
0.3632967774694151
 10
-0.1507001333688986
 20
0.3499749610631646
  0
ARC
  5
7C7
330
18
100
AcDbEntity
  8
TEXT
100
AcDbCircle
 10
0.2426408052369418
 20
0.4609622434917107
 30
0.0
 40
0.017902360805315
100
AcDbArc
 50
90.0
 51
270.0
  0
LINE
  5
7C8
330
18
100
AcDbEntity
  8
TEXT
100
AcDbLine
 10
0.1553160156761884
 20
0.3450252722987166
 30
0.0
 11
0.1553160156761901
 21
0.2766682659652773
 31
0.0
  0
TEXT
  5
7C9
330
18
100
AcDbEntity
  8
TEXT
100
AcDbText
 10
1.862044032331224
 20
0.2762956476444813
 30
0.0
 40
0.0522247191011236
  1
Phone  1-800-328-2495
 41
1.272321428571429
 72
     5
 11
3.190976616600888
 21
0.2762956476444813
 31
0.0
100
AcDbText
  0
TEXT
  5
7CA
330
18
100
AcDbEntity
  8
TEXT
100
AcDbText
 10
1.862044032331224
 20
0.3695540746107735
 30
0.0
 40
0.0522247191011236
  1
Minneapolis, MN 55432-0008
 41
1.11444212721585
 72
     5
 11
3.190976616600888
 21
0.3695540746107735
 31
0.0
100
AcDbText
  0
LINE
  5
7CB
330
18
100
AcDbEntity
  8
TEXT
100
AcDbLine
 10
1.416472373032966
 20
0.4788646042970229
 30
0.0
 11
1.493120354325522
 21
0.4788646042970229
 31
0.0
  0
LINE
  5
7CC
330
18
100
AcDbEntity
  8
TEXT
100
AcDbLine
 10
0.8584292154022925
 20
0.4788646042970229
 30
0.0
 11
0.9082644952254419
 21
0.4788646042970229
 31
0.0
  0
ARC
  5
7CD
330
18
100
AcDbEntity
  8
TEXT
100
AcDbCircle
 10
0.5599633231318891
 20
0.316215988238973
 30
0.0
 40
0.0392772371940762
100
AcDbArc
 50
270.1604552698595
 51
330.0831797321295
  0
ARC
  5
7CE
330
18
100
AcDbEntity
  8
TEXT
100
AcDbCircle
 10
0.4696624772396643
 20
0.3364606573033271
 30
0.0
 40
0.0601160179737537
100
AcDbArc
 50
180.0000000000003
 51
264.0521544866073
  0
LINE
  5
7CF
330
18
100
AcDbEntity
  8
TEXT
100
AcDbLine
 10
0.4095464592659113
 20
0.4788646042970229
 30
0.0
 11
0.4095464592659113
 21
0.3364606573033271
 31
0.0
  0
ARC
  5
7D0
330
18
100
AcDbEntity
  8
TEXT
100
AcDbCircle
 10
0.3131813153875225
 20
0.3619958261797507
 30
0.0
 40
0.0169705538810321
100
AcDbArc
 50
270.0
 51
90.0
  0
ARC
  5
7D1
330
18
100
AcDbEntity
  8
TEXT
100
AcDbCircle
 10
0.3082409414812428
 20
0.3598640743258343
 30
0.0
 40
0.0831958083605586
100
AcDbArc
 50
270.0
 51
90.0
  0
LWPOLYLINE
  5
7D2
330
18
100
AcDbEntity
  8
TEXT
100
AcDbPolyline
 90
        6
 70
     1
 43
0.0
 10
0.5059568703211675
 20
0.4788646042970229
 10
0.4756402761009593
 20
0.4788646042970229
 10
0.4756402761009593
 20
0.3557536062421285
 42
0.407328721240804
 10
0.4871839272624357
 20
0.3439346915657424
 10
0.5478056263071665
 20
0.3439346915657424
 10
0.5652709667144844
 20
0.3767469206092215
  0
LINE
  5
7D3
330
18
100
AcDbEntity
  8
TEXT
100
AcDbLine
 10
0.463433066746017
 20
0.2766682659652773
 30
0.0
 11
0.5600733178210114
 21
0.2769389050635596
 31
0.0
  0
LWPOLYLINE
  5
7D4
330
18
100
AcDbEntity
  8
TEXT
100
AcDbPolyline
 90
        2
 70
     0
 43
0.0
 10
0.6913065891375468
 20
0.3282196081802056
 42
0.3318488747599744
 10
0.7604258817028598
 20
0.2766682659652773
 42
-6.868794160588311
  0
LINE
  5
7D5
330
18
100
AcDbEntity
  8
TEXT
100
AcDbLine
 10
0.6913065891375468
 20
0.4609769830055584
 30
0.0
 11
0.6913065891375468
 21
0.328219608180202
 31
0.0
  0
LINE
  5
7D6
330
18
100
AcDbEntity
  8
TEXT
100
AcDbLine
 10
0.5940068830441021
 20
0.2966267720702902
 30
0.0
 11
0.6913065891375468
 21
0.4609769830055584
 31
0.0
  0
ARC
  5
7D7
330
18
100
AcDbEntity
  8
TEXT
100
AcDbCircle
 10
0.7746045254597221
 20
0.3576588984648055
 30
0.0
 40
0.0153818062434269
100
AcDbArc
 50
174.7883570302258
 51
270.0
  0
LINE
  5
7D8
330
18
100
AcDbEntity
  8
TEXT
100
AcDbLine
 10
0.7915981623443252
 20
0.34227709222138
 30
0.0
 11
0.7746045254597221
 21
0.34227709222138
 31
0.0
  0
LINE
  5
7D9
330
18
100
AcDbEntity
  8
TEXT
100
AcDbLine
 10
0.760425881702858
 20
0.2766682659652773
 30
0.0
 11
0.8584292154022925
 21
0.2766682659652773
 31
0.0
  0
LINE
  5
7DA
330
18
100
AcDbEntity
  8
TEXT
100
AcDbLine
 10
0.8584292154022925
 20
0.2766682659652773
 30
0.0
 11
0.8584292154022925
 21
0.4788646042970229
 31
0.0
  0
LINE
  5
7DB
330
18
100
AcDbEntity
  8
TEXT
100
AcDbLine
 10
1.221280769390414
 20
0.4788646042970229
 30
0.0
 11
1.114074496003123
 21
0.4788646042970229
 31
0.0
  0
LINE
  5
7DC
330
18
100
AcDbEntity
  8
TEXT
100
AcDbLine
 10
1.17479385491115
 20
0.4415896308348906
 30
0.0
 11
1.257081844694535
 21
0.4415896308348906
 31
0.0
  0
LWPOLYLINE
  5
7DD
330
18
100
AcDbEntity
  8
TEXT
100
AcDbPolyline
 90
        4
 70
     1
 43
0.0
 10
1.270012885977434
 20
0.3796322439493025
 10
1.181352567317576
 20
0.3796322439493025
 42
0.9999999999999998
 10
1.181352567317576
 20
0.3372337034454418
 10
1.270012885977434
 20
0.3372337034454418
 42
1.0
  0
LWPOLYLINE
  5
7DE
330
18
100
AcDbEntity
  8
TEXT
100
AcDbPolyline
 90
        2
 70
     0
 43
0.0
 10
1.15611793341595
 20
0.2766682659652773
 10
1.290135351047327
 20
0.2766682659652773
 42
0.9999999999999998
  0
LINE
  5
7DF
330
18
100
AcDbEntity
  8
TEXT
100
AcDbLine
 10
0.9828763311733936
 20
0.4788646042970229
 30
0.0
 11
1.037009928094345
 21
0.4788646042970229
 31
0.0
  0
LINE
  5
7E0
330
18
100
AcDbEntity
  8
TEXT
100
AcDbLine
 10
0.9158182843915554
 20
0.2766682659652773
 30
0.0
 11
0.9828763311733936
 21
0.2766682659652773
 31
0.0
  0
LINE
  5
7E1
330
18
100
AcDbEntity
  8
TEXT
100
AcDbLine
 10
0.9828763311733936
 20
0.2766682659652773
 30
0.0
 11
0.9828763311733936
 21
0.4788646042970229
 31
0.0
  0
LINE
  5
7E2
330
18
100
AcDbEntity
  8
TEXT
100
AcDbLine
 10
0.9158182843915554
 20
0.4713108151309129
 30
0.0
 11
0.9158182843915554
 21
0.2766682659652773
 31
0.0
  0
LWPOLYLINE
  5
7E3
330
18
100
AcDbEntity
  8
TEXT
100
AcDbPolyline
 90
        2
 70
     0
 43
0.0
 10
0.9082644952254401
 20
0.4788646042970229
 42
-0.4142135623731017
 10
0.9158182843915536
 20
0.4713108151309129
 42
-0.9999999999999998
  0
LINE
  5
7E4
330
18
100
AcDbEntity
  8
TEXT
100
AcDbLine
 10
1.114074496003123
 20
0.4788646042970229
 30
0.0
 11
1.114074496003123
 21
0.4038121982228163
 31
0.0
  0
ARC
  5
7E5
330
18
100
AcDbEntity
  8
TEXT
100
AcDbCircle
 10
1.17479385491115
 20
0.373904049690772
 30
0.0
 40
0.0676855811441166
100
AcDbArc
 50
90.0
 51
153.7768192527749
  0
LWPOLYLINE
  5
7E6
330
18
100
AcDbEntity
  8
TEXT
100
AcDbPolyline
 90
        2
 70
     0
 43
0.0
 10
1.113042000548315
 20
0.3201592109157154
 42
0.2901071551932823
 10
1.15611793341595
 20
0.2766682659652773
 42
5.328517124445801
  0
LWPOLYLINE
  5
7E7
330
18
100
AcDbEntity
  8
TEXT
100
AcDbPolyline
 90
        2
 70
     0
 43
0.0
 10
1.037009928094343
 20
0.4788646042970229
 42
-0.4142135623731017
 10
1.044563717260457
 20
0.4713108151309129
 42
-0.9999999999999998
  0
LWPOLYLINE
  5
7E8
330
18
100
AcDbEntity
  8
TEXT
100
AcDbPolyline
 90
        4
 70
     0
 43
0.0
 10
1.044563717260457
 20
0.4713108151309129
 10
1.044563717260457
 20
0.2766682659652773
 10
1.113042000548315
 20
0.2766682659652773
 10
1.113042000548315
 20
0.3201592109157154
 42
-1.714843617202739
  0
LWPOLYLINE
  5
7E9
330
18
100
AcDbEntity
  8
TEXT
100
AcDbPolyline
 90
        2
 70
     0
 43
0.0
 10
1.333211283914971
 20
0.3201592109157154
 42
-0.2901071551932486
 10
1.290135351047327
 20
0.2766682659652773
 42
-5.328517124445184
  0
LWPOLYLINE
  5
7EA
330
18
100
AcDbEntity
  8
TEXT
100
AcDbPolyline
 90
        2
 70
     0
 43
0.0
 10
1.333211283914971
 20
0.2766682659652773
 10
1.391566497750305
 20
0.2766682659652773
  0
LWPOLYLINE
  5
7EB
330
18
100
AcDbEntity
  8
TEXT
100
AcDbPolyline
 90
        2
 70
     0
 43
0.0
 10
1.333211283914971
 20
0.3201592109157154
 10
1.333211283914971
 20
0.2766682659652773
  0
LINE
  5
7EC
330
18
100
AcDbEntity
  8
TEXT
100
AcDbLine
 10
1.257081844694535
 20
0.4415896308348906
 30
0.0
 11
1.246817084280969
 21
0.4628401704075849
 31
0.0
  0
LINE
  5
7ED
330
18
100
AcDbEntity
  8
TEXT
100
AcDbLine
 10
1.391566497750307
 20
0.2766682659652773
 30
0.0
 11
1.3915664977503
 21
0.4539587713967457
 31
0.0
  0
LINE
  5
7EE
330
18
100
AcDbEntity
  8
TEXT
100
AcDbLine
 10
1.70998044423182
 20
0.2766682659652773
 30
0.0
 11
1.61448822086821
 21
0.4332480560128147
 31
0.0
  0
LINE
  5
7EF
330
18
100
AcDbEntity
  8
TEXT
100
AcDbLine
 10
1.633402071855613
 20
0.2766682659652773
 30
0.0
 11
1.70998044423182
 21
0.2766682659652773
 31
0.0
  0
LINE
  5
7F0
330
18
100
AcDbEntity
  8
TEXT
100
AcDbLine
 10
1.49312035432553
 20
0.2766682659652773
 30
0.0
 11
1.55749853864415
 21
0.2766682659652773
 31
0.0
  0
LINE
  5
7F1
330
18
100
AcDbEntity
  8
TEXT
100
AcDbLine
 10
1.493120354325522
 20
0.4788646042970229
 30
0.0
 11
1.49312035432553
 21
0.2766682659652773
 31
0.0
  0
LINE
  5
7F2
330
18
100
AcDbEntity
  8
TEXT
100
AcDbLine
 10
1.55749853864415
 20
0.4082478344414576
 30
0.0
 11
1.633402071855613
 21
0.2766682659652773
 31
0.0
  0
LINE
  5
7F3
330
18
100
AcDbEntity
  8
TEXT
100
AcDbLine
 10
1.55749853864415
 20
0.2766682659652773
 30
0.0
 11
1.55749853864415
 21
0.4082478344414576
 31
0.0
  0
LINE
  5
7F4
330
18
100
AcDbEntity
  8
TEXT
100
AcDbLine
 10
0.4131352280212042
 20
0.5431412989537883
 30
0.0
 11
0.2374034751226937
 21
0.5431412989537883
 31
0.0
  0
LWPOLYLINE
  5
7F5
330
18
100
AcDbEntity
  8
TEXT
100
AcDbPolyline
 90
        2
 70
     0
 43
0.0006660908203125
 10
-0.1806742202829614
 20
0.5164976661412908
 10
-0.1806742202829614
 20
0.5431412989537919
  0
LWPOLYLINE
  5
7F6
330
18
100
AcDbEntity
  8
TEXT
100
AcDbPolyline
 90
        2
 70
     0
 43
0.0006660908203125
 10
-0.1407087710642099
 20
0.5164976661412908
 10
-0.1407087710642099
 20
0.5431412989537919
  0
TEXT
  5
7F7
330
18
100
AcDbEntity
  8
TEXT
100
AcDbText
 10
1.862044032331224
 20
0.5560709285433579
 30
0.0
 40
0.0522247191011236
  1
Stylmark  Incorporated
 41
1.221428571428571
 72
     5
 11
3.190976616600888
 21
0.5560709285433579
 31
0.0
100
AcDbText
  0
LINE
  5
7F8
330
18
100
AcDbEntity
  8
TEXT
100
AcDbLine
 10
1.488640466999022
 20
0.5431412989537883
 30
0.0
 11
1.421140749349508
 21
0.5431412989537883
 31
0.0
  0
TEXT
  5
7F9
330
18
100
AcDbEntity
  8
TEXT
100
AcDbText
 10
0.6957626836047122
 20
0.723218290316857
 30
0.0
 40
0.125
  1
PART #110472
  7
ITALICC
 72
     1
 11
1.448738874080902
 21
0.723218290316857
 31
0.0
100
AcDbText
  0
LINE
  5
7FA
330
18
100
AcDbEntity
  8
TEXT
100
AcDbLine
 10
0.9256162182754614
 20
0.5431412989537883
 30
0.0
 11
0.7915981623443252
 21
0.5431412989537883
 31
0.0
  0
LINE
  5
7FB
330
18
100
AcDbEntity
  8
TEXT
100
AcDbLine
 10
0.4731778328652112
 20
0.5775292165479265
 30
0.0
 11
0.4131352280212042
 21
0.5775292165479265
 31
0.0
  0
LINE
  5
7FC
330
18
100
AcDbEntity
  8
TEXT
100
AcDbLine
 10
0.4131352280212042
 20
0.5775292165479265
 30
0.0
 11
0.4131352280212042
 21
0.5431412989537883
 31
0.0
  0
LINE
  5
7FD
330
18
100
AcDbEntity
  8
TEXT
100
AcDbLine
 10
0.5449767990091204
 20
0.5431412989537883
 30
0.0
 11
0.4731778328652112
 21
0.5431412989537883
 31
0.0
  0
LINE
  5
7FE
330
18
100
AcDbEntity
  8
TEXT
100
AcDbLine
 10
0.4731778328652112
 20
0.5431412989537883
 30
0.0
 11
0.4731778328652112
 21
0.5775292165479265
 31
0.0
  0
LINE
  5
7FF
330
18
100
AcDbEntity
  8
TEXT
100
AcDbLine
 10
0.759286308206665
 20
0.6111527766925989
 30
0.0
 11
0.6924775956402982
 21
0.6111527766925989
 31
0.0
  0
LINE
  5
800
330
18
100
AcDbEntity
  8
TEXT
100
AcDbLine
 10
0.6924775956402982
 20
0.5431412989537883
 30
0.0
 11
0.662355682846922
 21
0.5431412989537883
 31
0.0
  0
LINE
  5
801
330
18
100
AcDbEntity
  8
TEXT
100
AcDbLine
 10
0.6924775956402982
 20
0.6111527766925989
 30
0.0
 11
0.6924775956402982
 21
0.5431412989537883
 31
0.0
  0
LINE
  5
802
330
18
100
AcDbEntity
  8
TEXT
100
AcDbLine
 10
1.250311667734891
 20
0.5431412989537883
 30
0.0
 11
1.115479758517832
 21
0.5431412989537883
 31
0.0
  0
LWPOLYLINE
  5
803
330
18
100
AcDbEntity
  8
TEXT
100
AcDbPolyline
 90
        3
 70
     0
 43
0.0
 10
1.079698067804667
 20
0.5431412989537919
 10
0.9613979089886228
 20
0.5431412989537919
 10
0.9613979089886228
 20
0.5159738021928959
 42
-1.960274751411753
  0
LWPOLYLINE
  5
804
330
18
100
AcDbEntity
  8
TEXT
100
AcDbPolyline
 90
        2
 70
     0
 43
0.0
 10
0.9256162182754614
 20
0.5431412989537919
 42
-0.3328679258950098
 10
0.9613979089886228
 20
0.5159738021928959
 42
6.772930709997214
  0
LINE
  5
805
330
18
100
AcDbEntity
  8
TEXT
100
AcDbLine
 10
1.115479758517832
 20
0.5431412989537883
 30
0.0
 11
1.115479758517832
 21
0.5148187531841444
 31
0.0
  0
LWPOLYLINE
  5
806
330
18
100
AcDbEntity
  8
TEXT
100
AcDbPolyline
 90
        2
 70
     0
 43
0.0
 10
1.079698067804667
 20
0.5431412989537919
 42
-0.3277054968067132
 10
1.115479758517832
 20
0.514818753184148
 42
6.667889725900311
  0
LINE
  5
807
330
18
100
AcDbEntity
  8
TEXT
100
AcDbLine
 10
1.393168512909433
 20
0.5431412989537883
 30
0.0
 11
1.329271606609932
 21
0.5431412989537883
 31
0.0
  0
ARC
  5
808
330
18
100
AcDbEntity
  8
TEXT
100
AcDbCircle
 10
1.248284727957823
 20
0.5015577318328859
 30
0.0
 40
0.0416329381542859
100
AcDbArc
 50
26.56974201007528
 51
87.20939649401342
  0
LINE
  5
809
330
18
100
AcDbEntity
  8
TEXT
100
AcDbLine
 10
1.393168512909433
 20
0.5155936490929136
 30
0.0
 11
1.393168512909433
 21
0.5431412989537883
 31
0.0
  0
ARC
  5
80A
330
18
100
AcDbEntity
  8
TEXT
100
AcDbCircle
 10
1.424361329972542
 20
0.5118955716715235
 30
0.0
 40
0.0314112657011332
100
AcDbArc
 50
95.88484768694724
 51
173.2388340632136
  0
LINE
  5
80B
330
18
100
AcDbEntity
  8
TEXT
100
AcDbLine
 10
1.679045336833915
 20
0.5431412989537883
 30
0.0
 11
1.604053504104289
 21
0.5431412989537883
 31
0.0
  0
LINE
  5
80C
330
18
100
AcDbEntity
  8
TEXT
100
AcDbLine
 10
1.488640466999029
 20
0.608605504721389
 30
0.0
 11
1.488640466999022
 21
0.5431412989537883
 31
0.0
  0
LINE
  5
80D
330
18
100
AcDbEntity
  8
TEXT
100
AcDbLine
 10
1.556955345548303
 20
0.608605504721389
 30
0.0
 11
1.488640466999029
 21
0.608605504721389
 31
0.0
  0
VIEWPORT
  5
51F
330
15
100
AcDbEntity
 67
     1
  8
0
100
AcDbViewport
 10
6.412891986062717
 20
4.5
 30
0.0
 40
12.82578397212543
 41
9.0
 68
     1
 69
     1
1001
ACAD
1000
MVIEW
1002
{
1070
    16
1010
0.0
1020
0.0
1030
0.0
1010
0.0
1020
0.0
1030
1.0
1040
0.0
1040
9.0
1040
6.412891986062717
1040
4.5
1040
50.0
1040
0.0
1040
0.0
1070
     0
1070
  2000
1070
     1
1070
     1
1070
     0
1070
     0
1070
     0
1070
     0
1040
0.0
1040
0.0
1040
0.0
1040
0.5
1040
0.5
1040
0.5
1040
0.5
1070
     0
1002
{
1002
}
1002
}
  0
ENDSEC
  0
SECTION
  2
OBJECTS
  0
DICTIONARY
  5
C
330
0
100
AcDbDictionary
  3
ACAD_GROUP
350
D
  3
ACAD_LAYOUT
350
812
  3
ACAD_MLINESTYLE
350
E
  3
ACAD_PLOTSETTINGS
350
813
  3
ACAD_PLOTSTYLENAME
350
810
  3
ACDBHEADERROUNDTRIPXREC
350
81D
  3
ACDBVARIABLEDICTIONARY
350
81A
  0
DICTIONARY
  5
83F
330
18
100
AcDbDictionary
280
     1
  3
ACAD_LAYOUTSELFREF
360
840
  0
DICTIONARY
  5
83D
330
15
100
AcDbDictionary
280
     1
  3
ACAD_LAYOUTSELFREF
360
83E
  0
DICTIONARY
  5
D
102
{ACAD_REACTORS
330
C
102
}
330
C
100
AcDbDictionary
  3
*A1
350
35D
  3
*A2
350
516
  3
*A3
350
52F
  3
*A4
350
6E8
  0
DICTIONARY
  5
812
102
{ACAD_REACTORS
330
C
102
}
330
C
100
AcDbDictionary
  0
DICTIONARY
  5
E
102
{ACAD_REACTORS
330
C
102
}
330
C
100
AcDbDictionary
  3
STANDARD
350
1B
  0
DICTIONARY
  5
813
102
{ACAD_REACTORS
330
C
102
}
330
C
100
AcDbDictionary
  0
ACDBDICTIONARYWDFLT
  5
810
102
{ACAD_REACTORS
330
C
102
}
330
C
100
AcDbDictionary
281
     1
  3
Normal
350
811
100
AcDbDictionaryWithDefault
340
811
  0
DICTIONARY
  5
81D
102
{ACAD_REACTORS
330
C
102
}
330
C
100
AcDbDictionary
  3
CEPSNTYPE
350
827
  3
FINGERPRINTGUID
350
828
  3
HYPERLINKBASE
350
820
  3
INSUNITS
350
826
  3
LAYOUTDICT
350
822
  3
LWETCUNION
350
825
  3
PLOTSETDICT
350
823
  3
PLOTSTYLNAMDICT
350
824
  3
PSVPSCALE
350
82A
  3
PUCSBASE
350
82D
  3
PUCSORGBACK
350
833
  3
PUCSORGBOTTOM
350
82F
  3
PUCSORGFRONT
350
832
  3
PUCSORGLEFT
350
830
  3
PUCSORGRIGHT
350
831
  3
PUCSORGTOP
350
82E
  3
PUCSORTHOREF
350
82B
  3
PUCSORTHOVIEW
350
82C
  3
STYLESHEET
350
821
  3
TSTACKALIGN
350
81E
  3
TSTACKSIZE
350
81F
  3
UCSBASE
350
836
  3
UCSORGBACK
350
83C
  3
UCSORGBOTTOM
350
838
  3
UCSORGFRONT
350
83B
  3
UCSORGLEFT
350
839
  3
UCSORGRIGHT
350
83A
  3
UCSORGTOP
350
837
  3
UCSORTHOREF
350
834
  3
UCSORTHOVIEW
350
835
  3
VERSIONGUID
350
829
  0
DICTIONARY
  5
81A
102
{ACAD_REACTORS
330
C
102
}
330
C
100
AcDbDictionary
  3
DIMASSOC
350
81B
  0
XRECORD
  5
840
102
{ACAD_REACTORS
330
83F
102
}
330
83F
100
AcDbXrecord
340
18
  0
XRECORD
  5
83E
102
{ACAD_REACTORS
330
83D
102
}
330
83D
100
AcDbXrecord
340
15
  0
GROUP
  5
35D
102
{ACAD_REACTORS
330
D
102
}
330
D
100
AcDbGroup
300
BORDER FRAME 10-1-95
 70
     3
 71
     1
  0
GROUP
  5
516
102
{ACAD_REACTORS
330
D
102
}
330
D
100
AcDbGroup
300

 70
     1
 71
     1
  0
GROUP
  5
52F
102
{ACAD_REACTORS
330
D
102
}
330
D
100
AcDbGroup
300
BORDER FRAME 10-1-95
 70
     3
 71
     1
  0
GROUP
  5
6E8
102
{ACAD_REACTORS
330
D
102
}
330
D
100
AcDbGroup
300

 70
     1
 71
     1
  0
MLINESTYLE
  5
1B
102
{ACAD_REACTORS
330
E
102
}
330
E
100
AcDbMlineStyle
  2
STANDARD
 70
     0
  3

 62
     0
 51
90.0
 52
90.0
 71
     2
 49
0.5
 62
   256
  6
BYLAYER
 49
-0.5
 62
   256
  6
BYLAYER
  0
ACDBPLACEHOLDER
  5
811
102
{ACAD_REACTORS
330
810
102
}
330
810
100
AcDbPlaceHolder
280
     0
  0
XRECORD
  5
827
102
{ACAD_REACTORS
330
81D
102
}
330
81D
100
AcDbXrecord
 90
        0
  0
XRECORD
  5
828
102
{ACAD_REACTORS
330
81D
102
}
330
81D
100
AcDbXrecord
  1
{99658D70-8DB7-11D6-88E6-0090279574E7}
  0
XRECORD
  5
820
102
{ACAD_REACTORS
330
81D
102
}
330
81D
100
AcDbXrecord
  1

  0
XRECORD
  5
826
102
{ACAD_REACTORS
330
81D
102
}
330
81D
100
AcDbXrecord
 90
        0
  0
XRECORD
  5
822
102
{ACAD_REACTORS
330
81D
102
}
330
81D
100
AcDbXrecord
340
812
  0
XRECORD
  5
825
102
{ACAD_REACTORS
330
81D
102
}
330
81D
100
AcDbXrecord
 90
    14877
  0
XRECORD
  5
823
102
{ACAD_REACTORS
330
81D
102
}
330
81D
100
AcDbXrecord
340
813
  0
XRECORD
  5
824
102
{ACAD_REACTORS
330
81D
102
}
330
81D
100
AcDbXrecord
340
810
  0
XRECORD
  5
82A
102
{ACAD_REACTORS
330
81D
102
}
330
81D
100
AcDbXrecord
 40
0.0
  0
XRECORD
  5
82D
102
{ACAD_REACTORS
330
81D
102
}
330
81D
100
AcDbXrecord
340
0
  0
XRECORD
  5
833
102
{ACAD_REACTORS
330
81D
102
}
330
81D
100
AcDbXrecord
 10
0.0
 20
0.0
 30
0.0
  0
XRECORD
  5
82F
102
{ACAD_REACTORS
330
81D
102
}
330
81D
100
AcDbXrecord
 10
0.0
 20
0.0
 30
0.0
  0
XRECORD
  5
832
102
{ACAD_REACTORS
330
81D
102
}
330
81D
100
AcDbXrecord
 10
0.0
 20
0.0
 30
0.0
  0
XRECORD
  5
830
102
{ACAD_REACTORS
330
81D
102
}
330
81D
100
AcDbXrecord
 10
0.0
 20
0.0
 30
0.0
  0
XRECORD
  5
831
102
{ACAD_REACTORS
330
81D
102
}
330
81D
100
AcDbXrecord
 10
0.0
 20
0.0
 30
0.0
  0
XRECORD
  5
82E
102
{ACAD_REACTORS
330
81D
102
}
330
81D
100
AcDbXrecord
 10
0.0
 20
0.0
 30
0.0
  0
XRECORD
  5
82B
102
{ACAD_REACTORS
330
81D
102
}
330
81D
100
AcDbXrecord
340
0
  0
XRECORD
  5
82C
102
{ACAD_REACTORS
330
81D
102
}
330
81D
100
AcDbXrecord
 70
     0
  0
XRECORD
  5
821
102
{ACAD_REACTORS
330
81D
102
}
330
81D
100
AcDbXrecord
  1

  0
XRECORD
  5
81E
102
{ACAD_REACTORS
330
81D
102
}
330
81D
100
AcDbXrecord
 90
        1
  0
XRECORD
  5
81F
102
{ACAD_REACTORS
330
81D
102
}
330
81D
100
AcDbXrecord
 90
       70
  0
XRECORD
  5
836
102
{ACAD_REACTORS
330
81D
102
}
330
81D
100
AcDbXrecord
340
0
  0
XRECORD
  5
83C
102
{ACAD_REACTORS
330
81D
102
}
330
81D
100
AcDbXrecord
 10
0.0
 20
0.0
 30
0.0
  0
XRECORD
  5
838
102
{ACAD_REACTORS
330
81D
102
}
330
81D
100
AcDbXrecord
 10
0.0
 20
0.0
 30
0.0
  0
XRECORD
  5
83B
102
{ACAD_REACTORS
330
81D
102
}
330
81D
100
AcDbXrecord
 10
0.0
 20
0.0
 30
0.0
  0
XRECORD
  5
839
102
{ACAD_REACTORS
330
81D
102
}
330
81D
100
AcDbXrecord
 10
0.0
 20
0.0
 30
0.0
  0
XRECORD
  5
83A
102
{ACAD_REACTORS
330
81D
102
}
330
81D
100
AcDbXrecord
 10
0.0
 20
0.0
 30
0.0
  0
XRECORD
  5
837
102
{ACAD_REACTORS
330
81D
102
}
330
81D
100
AcDbXrecord
 10
0.0
 20
0.0
 30
0.0
  0
XRECORD
  5
834
102
{ACAD_REACTORS
330
81D
102
}
330
81D
100
AcDbXrecord
340
0
  0
XRECORD
  5
835
102
{ACAD_REACTORS
330
81D
102
}
330
81D
100
AcDbXrecord
 70
     0
  0
XRECORD
  5
829
102
{ACAD_REACTORS
330
81D
102
}
330
81D
100
AcDbXrecord
  1
{99658D72-8DB7-11D6-88E6-0090279574E7}
  0
DICTIONARYVAR
  5
81B
102
{ACAD_REACTORS
330
81A
102
}
330
81A
100
DictionaryVariables
280
     0
  1
1
  0
ENDSEC
  0
EOF
