  0
SECTION
  2
HEADER
  9
$ACADVER
  1
AC1014
  9
$ACADMAINTVER
 70
     9
  9
$DWGCODEPAGE
  3
ANSI_1252
  9
$INSBASE
 10
0.0
 20
0.0
 30
0.0
  9
$EXTMIN
 10
-0.4653938271502523
 20
-0.1227165680444784
 30
0.0
  9
$EXTMAX
 10
3.019825494596876
 20
1.459867898162354
 30
0.0
  9
$LIMMIN
 10
0.0
 20
0.0
  9
$LIMMAX
 10
18.0
 20
12.0
  9
$ORTHOMODE
 70
     0
  9
$REGENMODE
 70
     1
  9
$FILLMODE
 70
     1
  9
$QTEXTMODE
 70
     0
  9
$MIRRTEXT
 70
     0
  9
$DRAGMODE
 70
     2
  9
$LTSCALE
 40
1.0
  9
$OSMODE
 70
    39
  9
$ATTMODE
 70
     1
  9
$TEXTSIZE
 40
0.125
  9
$TRACEWID
 40
0.05
  9
$TEXTSTYLE
  7
ROMANS
  9
$CLAYER
  8
0
  9
$CELTYPE
  6
BYLAYER
  9
$CECOLOR
 62
   256
  9
$CELTSCALE
 40
1.0
  9
$DELOBJ
 70
     1
  9
$DISPSILH
 70
     1
  9
$DIMSCALE
 40
0.0
  9
$DIMASZ
 40
0.125
  9
$DIMEXO
 40
0.125
  9
$DIMDLI
 40
0.38
  9
$DIMRND
 40
0.0
  9
$DIMDLE
 40
0.0
  9
$DIMEXE
 40
0.125
  9
$DIMTP
 40
0.0
  9
$DIMTM
 40
0.0
  9
$DIMTXT
 40
0.125
  9
$DIMCEN
 40
0.0
  9
$DIMTSZ
 40
0.0
  9
$DIMTOL
 70
     0
  9
$DIMLIM
 70
     0
  9
$DIMTIH
 70
     1
  9
$DIMTOH
 70
     1
  9
$DIMSE1
 70
     0
  9
$DIMSE2
 70
     0
  9
$DIMTAD
 70
     0
  9
$DIMZIN
 70
     4
  9
$DIMBLK
  1

  9
$DIMASO
 70
     1
  9
$DIMSHO
 70
     1
  9
$DIMPOST
  1

  9
$DIMAPOST
  1

  9
$DIMALT
 70
     0
  9
$DIMALTD
 70
     2
  9
$DIMALTF
 40
25.4
  9
$DIMLFAC
 40
1.0
  9
$DIMTOFL
 70
     0
  9
$DIMTVP
 40
0.0
  9
$DIMTIX
 70
     0
  9
$DIMSOXD
 70
     0
  9
$DIMSAH
 70
     0
  9
$DIMBLK1
  1

  9
$DIMBLK2
  1

  9
$DIMSTYLE
  2
110471
  9
$DIMCLRD
 70
     0
  9
$DIMCLRE
 70
     0
  9
$DIMCLRT
 70
   256
  9
$DIMTFAC
 40
1.0
  9
$DIMGAP
 40
0.09
  9
$DIMJUST
 70
     0
  9
$DIMSD1
 70
     0
  9
$DIMSD2
 70
     0
  9
$DIMTOLJ
 70
     1
  9
$DIMTZIN
 70
     4
  9
$DIMALTZ
 70
     0
  9
$DIMALTTZ
 70
     0
  9
$DIMFIT
 70
     3
  9
$DIMUPT
 70
     1
  9
$DIMUNIT
 70
     2
  9
$DIMDEC
 70
     3
  9
$DIMTDEC
 70
     3
  9
$DIMALTU
 70
     2
  9
$DIMALTTD
 70
     2
  9
$DIMTXSTY
  7
ROMANS
  9
$DIMAUNIT
 70
     0
  9
$LUNITS
 70
     2
  9
$LUPREC
 70
     3
  9
$SKETCHINC
 40
0.1
  9
$FILLETRAD
 40
0.03125
  9
$AUNITS
 70
     0
  9
$AUPREC
 70
     0
  9
$MENU
  1
acad
  9
$ELEVATION
 40
0.0
  9
$PELEVATION
 40
0.0
  9
$THICKNESS
 40
0.0
  9
$LIMCHECK
 70
     0
  9
$BLIPMODE
 70
     0
  9
$CHAMFERA
 40
0.0
  9
$CHAMFERB
 40
0.0
  9
$CHAMFERC
 40
0.0
  9
$CHAMFERD
 40
0.0
  9
$SKPOLY
 70
     0
  9
$TDCREATE
 40
2449163.412959606
  9
$TDUPDATE
 40
2452458.313302558
  9
$TDINDWG
 40
0.0104045602
  9
$TDUSRTIMER
 40
0.0104045602
  9
$USRTIMER
 70
     1
  9
$ANGBASE
 50
0.0
  9
$ANGDIR
 70
     0
  9
$PDMODE
 70
     0
  9
$PDSIZE
 40
0.0
  9
$PLINEWID
 40
0.0
  9
$COORDS
 70
     2
  9
$SPLFRAME
 70
     0
  9
$SPLINETYPE
 70
     6
  9
$SPLINESEGS
 70
     8
  9
$ATTDIA
 70
     0
  9
$ATTREQ
 70
     1
  9
$HANDLING
 70
 22529
  9
$HANDSEED
  5
864
  9
$SURFTAB1
 70
     6
  9
$SURFTAB2
 70
     6
  9
$SURFTYPE
 70
     6
  9
$SURFU
 70
     6
  9
$SURFV
 70
     6
  9
$UCSNAME
  2

  9
$UCSORG
 10
0.0
 20
0.0
 30
0.0
  9
$UCSXDIR
 10
1.0
 20
0.0
 30
0.0
  9
$UCSYDIR
 10
0.0
 20
1.0
 30
0.0
  9
$PUCSNAME
  2

  9
$PUCSORG
 10
0.0
 20
0.0
 30
0.0
  9
$PUCSXDIR
 10
1.0
 20
0.0
 30
0.0
  9
$PUCSYDIR
 10
0.0
 20
1.0
 30
0.0
  9
$USERI1
 70
     0
  9
$USERI2
 70
     0
  9
$USERI3
 70
     0
  9
$USERI4
 70
     0
  9
$USERI5
 70
     0
  9
$USERR1
 40
0.0
  9
$USERR2
 40
0.0
  9
$USERR3
 40
0.0
  9
$USERR4
 40
0.0
  9
$USERR5
 40
0.0
  9
$WORLDVIEW
 70
     1
  9
$SHADEDGE
 70
     3
  9
$SHADEDIF
 70
    70
  9
$TILEMODE
 70
     1
  9
$MAXACTVP
 70
    16
  9
$PINSBASE
 10
0.0
 20
0.0
 30
0.0
  9
$PLIMCHECK
 70
     0
  9
$PEXTMIN
 10
1.000000000000000E+20
 20
1.000000000000000E+20
 30
1.000000000000000E+20
  9
$PEXTMAX
 10
-1.000000000000000E+20
 20
-1.000000000000000E+20
 30
-1.000000000000000E+20
  9
$PLIMMIN
 10
0.0
 20
0.0
  9
$PLIMMAX
 10
12.0
 20
9.0
  9
$UNITMODE
 70
     0
  9
$VISRETAIN
 70
     0
  9
$PLINEGEN
 70
     1
  9
$PSLTSCALE
 70
     0
  9
$TREEDEPTH
 70
  3020
  9
$PICKSTYLE
 70
     1
  9
$CMLSTYLE
  2
STANDARD
  9
$CMLJUST
 70
     0
  9
$CMLSCALE
 40
1.0
  9
$PROXYGRAPHICS
 70
     1
  9
$MEASUREMENT
 70
     0
  0
ENDSEC
  0
SECTION
  2
CLASSES
  0
CLASS
  1
ACDBDICTIONARYWDFLT
  2
AcDbDictionaryWithDefault
  3
AutoCAD 2000
 90
        0
280
     0
281
     0
  0
CLASS
  1
ACDBPLACEHOLDER
  2
AcDbPlaceHolder
  3
AutoCAD 2000
 90
        0
280
     0
281
     0
  0
CLASS
  1
LAYOUT
  2
AcDbLayout
  3
AutoCAD 2000
 90
        0
280
     0
281
     0
  0
CLASS
  1
LONG_TRANSACTION
  2
AcDbLongTransaction
  3
AutoCAD 2000
 90
        0
280
     0
281
     0
  0
CLASS
  1
LWPOLYLINE
  2
AcDbPolyline
  3
AutoCAD 2000
 90
        0
280
     0
281
     1
  0
CLASS
  1
HATCH
  2
AcDbHatch
  3
AutoCAD 2000
 90
        0
280
     0
281
     1
  0
CLASS
  1
XRECORD
  2
AcDbXrecord
  3
AutoCAD 2000
 90
        0
280
     0
281
     0
  0
CLASS
  1
LONG_TRANSACTION
  2
AcDbLongTransaction
  3
AutoCAD 2000
 90
        0
280
     0
281
     0
  0
CLASS
  1
LWPOLYLINE
  2
AcDbPolyline
  3
AutoCAD 2000
 90
        0
280
     0
281
     1
  0
CLASS
  1
HATCH
  2
AcDbHatch
  3
AutoCAD 2000
 90
        0
280
     0
281
     1
  0
CLASS
  1
XRECORD
  2
AcDbXrecord
  3
AutoCAD 2000
 90
        0
280
     0
281
     0
  0
CLASS
  1
LONG_TRANSACTION
  2
AcDbLongTransaction
  3
AutoCAD 2000
 90
        0
280
     0
281
     0
  0
CLASS
  1
LWPOLYLINE
  2
AcDbPolyline
  3
AutoCAD 2000
 90
        0
280
     0
281
     1
  0
CLASS
  1
HATCH
  2
AcDbHatch
  3
AutoCAD 2000
 90
        0
280
     0
281
     1
  0
CLASS
  1
XRECORD
  2
AcDbXrecord
  3
AutoCAD 2000
 90
        0
280
     0
281
     0
  0
CLASS
  1
DICTIONARYVAR
  2
AcDbDictionaryVar
  3
AutoCAD 2000
 90
        0
280
     0
281
     0
  0
CLASS
  1
LONG_TRANSACTION
  2
AcDbLongTransaction
  3
AutoCAD 2000
 90
        0
280
     0
281
     0
  0
CLASS
  1
LWPOLYLINE
  2
AcDbPolyline
  3
AutoCAD 2000
 90
        0
280
     0
281
     1
  0
CLASS
  1
HATCH
  2
AcDbHatch
  3
AutoCAD 2000
 90
        0
280
     0
281
     1
  0
CLASS
  1
XRECORD
  2
AcDbXrecord
  3
AutoCAD 2000
 90
        0
280
     0
281
     0
  0
ENDSEC
  0
SECTION
  2
TABLES
  0
TABLE
  2
VPORT
  5
4D5
330
0
100
AcDbSymbolTable
 70
     2
  0
VPORT
  5
841
330
4D5
100
AcDbSymbolTableRecord
100
AcDbViewportTableRecord
  2
*ACTIVE
 70
     0
 10
0.0
 20
0.0
 11
1.0
 21
1.0
 12
4.199235644445375
 22
0.668258825140793
 13
0.0
 23
0.0
 14
0.015625
 24
0.015625
 15
0.0
 25
0.0
 16
0.0
 26
0.0
 36
1.0
 17
0.0
 27
0.0
 37
0.0
 40
2.163694101071037
 41
4.320930232558139
 42
50.0
 43
0.0
 44
0.0
 50
0.0
 51
0.0
 71
     0
 72
  2000
 73
     1
 74
     1
 75
     0
 76
     0
 77
     0
 78
     0
  0
ENDTAB
  0
TABLE
  2
LTYPE
  5
4D2
330
0
100
AcDbSymbolTable
 70
     1
  0
LTYPE
  5
4DF
330
4D2
100
AcDbSymbolTableRecord
100
AcDbLinetypeTableRecord
  2
BYBLOCK
 70
     0
  3

 72
    65
 73
     0
 40
0.0
  0
LTYPE
  5
4E0
330
4D2
100
AcDbSymbolTableRecord
100
AcDbLinetypeTableRecord
  2
BYLAYER
 70
     0
  3

 72
    65
 73
     0
 40
0.0
  0
LTYPE
  5
4E1
330
4D2
100
AcDbSymbolTableRecord
100
AcDbLinetypeTableRecord
  2
CONTINUOUS
 70
     0
  3
Solid line
 72
    65
 73
     0
 40
0.0
  0
ENDTAB
  0
TABLE
  2
LAYER
  5
4CF
330
0
100
AcDbSymbolTable
 70
     3
  0
LAYER
  5
4DC
330
4CF
100
AcDbSymbolTableRecord
100
AcDbLayerTableRecord
  2
0
 70
     0
 62
     7
  6
CONTINUOUS
  0
LAYER
  5
4EE
330
4CF
100
AcDbSymbolTableRecord
100
AcDbLayerTableRecord
  2
TEXT
 70
     0
 62
     3
  6
CONTINUOUS
  0
LAYER
  5
6DA
330
4CF
100
AcDbSymbolTableRecord
100
AcDbLayerTableRecord
  2
110471
 70
     0
 62
     1
  6
CONTINUOUS
  0
ENDTAB
  0
TABLE
  2
STYLE
  5
4D0
330
0
100
AcDbSymbolTable
 70
     3
  0
STYLE
  5
4DD
330
4D0
100
AcDbSymbolTableRecord
100
AcDbTextStyleTableRecord
  2
STANDARD
 70
     0
 40
0.0
 41
1.0
 50
0.0
 71
     0
 42
0.125
  3
txt
  4

  0
STYLE
  5
5EC
330
4D0
100
AcDbSymbolTableRecord
100
AcDbTextStyleTableRecord
  2
ROMANS
 70
     0
 40
0.0
 41
1.0
 50
0.0
 71
     0
 42
0.125
  3
romans.shx
  4

  0
STYLE
  5
734
330
4D0
100
AcDbSymbolTableRecord
100
AcDbTextStyleTableRecord
  2
ITALICC
 70
     0
 40
0.0
 41
1.0
 50
0.0
 71
     0
 42
0.125
  3
italicc
  4

  0
ENDTAB
  0
TABLE
  2
VIEW
  5
4D3
330
0
100
AcDbSymbolTable
 70
     0
  0
ENDTAB
  0
TABLE
  2
UCS
  5
4D4
330
0
100
AcDbSymbolTable
 70
     0
  0
ENDTAB
  0
TABLE
  2
APPID
  5
4D6
330
0
100
AcDbSymbolTable
 70
     1
  0
APPID
  5
4DE
330
4D6
100
AcDbSymbolTableRecord
100
AcDbRegAppTableRecord
  2
ACAD
 70
     0
  0
ENDTAB
  0
TABLE
  2
DIMSTYLE
  5
4D7
330
0
100
AcDbSymbolTable
 70
     1
  0
DIMSTYLE
105
680
330
4D7
100
AcDbSymbolTableRecord
100
AcDbDimStyleTableRecord
  2
110471
 70
     0
  3

  4

  5

  6

  7

 40
0.0
 41
0.125
 42
0.125
 43
0.38
 44
0.125
 45
0.0
 46
0.0
 47
0.0
 48
0.0
140
0.125
141
0.0
142
0.0
143
25.4
144
1.0
145
0.0
146
1.0
147
0.09
 71
     0
 72
     0
 73
     1
 74
     1
 75
     0
 76
     0
 77
     0
 78
     4
170
     0
171
     2
172
     0
173
     0
174
     0
175
     0
176
     0
177
     0
178
   256
270
     2
271
     3
272
     3
273
     2
274
     2
340
5EC
275
     0
280
     0
281
     0
282
     0
283
     1
284
     4
285
     0
286
     0
287
     3
288
     1
  0
ENDTAB
  0
TABLE
  2
BLOCK_RECORD
  5
4CE
330
0
100
AcDbSymbolTable
 70
     0
  0
BLOCK_RECORD
  5
4E5
102
{ACAD_XDICTIONARY
360
6D1
102
}
330
4CE
100
AcDbSymbolTableRecord
100
AcDbBlockTableRecord
  2
*MODEL_SPACE
  0
BLOCK_RECORD
  5
4E2
102
{ACAD_XDICTIONARY
360
6CF
102
}
330
4CE
100
AcDbSymbolTableRecord
100
AcDbBlockTableRecord
  2
*PAPER_SPACE
  0
ENDTAB
  0
ENDSEC
  0
SECTION
  2
BLOCKS
  0
BLOCK
  5
4F3
330
4E5
100
AcDbEntity
  8
0
100
AcDbBlockBegin
  2
*MODEL_SPACE
 70
     0
 10
0.0
 20
0.0
 30
0.0
  3
*MODEL_SPACE
  1

  0
ENDBLK
  5
4F4
330
4E5
100
AcDbEntity
  8
0
100
AcDbBlockEnd
  0
BLOCK
  5
4F1
330
4E2
100
AcDbEntity
 67
     1
  8
0
100
AcDbBlockBegin
  2
*PAPER_SPACE
 70
     0
 10
0.0
 20
0.0
 30
0.0
  3
*PAPER_SPACE
  1

  0
ENDBLK
  5
4F2
330
4E2
100
AcDbEntity
 67
     1
  8
0
100
AcDbBlockEnd
  0
ENDSEC
  0
SECTION
  2
ENTITIES
  0
REGION
  5
666
330
4E5
100
AcDbEntity
  8
110471
100
AcDbModelerGeometry
 70
     1
  1
noi mmh n o         
  1
=0;& {rn {n {rn {rn |
  1
3*2/ {rn {rn {m {o |
  1
,7:33 {rn {rn {rn {l {n |
  1
9><: {rn {rn {k {m {rn {j -:):-,:; ;0*=3: 0*+ |
  1
300/ {rn {i {h {l |
  1
/3>1:r,*-9><: {rn nqlohnnhniijhjfkjg nqofllfjkjjfngnifg o o o rn rn o o o V V V V |
  1
300/ {rn {rn {g {l |
  1
<0:;8: {rn {f {no {rn {nn o {k {rn |
  1
<0:;8: {rn {nm {nl {rn {nk o {i {rn |
  1
<0:;8: {rn {nj {h {rn {ni o {k {rn |
  1
<0:;8: {rn {h {nh {rn {ng o {k {rn |
  1
:;8: {rn {nf {mo {h {mn o |
  1
<0:;8: {rn {mm {g {rn {ml o {i {rn |
  1
<0:;8: {rn {g {mk {rn {mj o {i {rn |
  1
:;8: {rn {mi {mh {g {mg o |
  1
<0:;8: {rn {mf {f {rn {lo o {k {rn |
  1
:;8: {rn {mo {ln {f {lm o |
  1
<0:;8: {rn {no {ll {rn {lk o {k {rn |
  1
:;8: {rn {lj {nf {no {li o |
  1
):-+:' {rn {nn {lh |
  1
):-+:' {rn {nn {lg |
  1
,+->687+r<*-): {rn nqlflhmjnkfkmljgkj nqmljnkhfklmkmggji o oqhohnoihgnngijhhgg roqhohnoihgnngijnhok o Y roqoklgkoimoklljihlfk Y o |
  1
<0:;8: {rn {lf {nm {rn {ko o {i {rn |
  1
:;8: {rn {mh {kn {nm {km o |
  1
<0:;8: {rn {nl {kl {rn {kk o {i {rn |
  1
:;8: {rn {kj {mi {nl {ki o |
  1
):-+:' {rn {nk {kh |
  1
):-+:' {rn {nk {kg |
  1
,+->687+r<*-): {rn nqnlohmjnkfkmljgmg nqkmmnkjgnnmjomhnk o o rn o V V |
  1
<0:;8: {rn {kf {nj {rn {jo o {k {rn |
  1
:;8: {rn {ln {jn {nj {jm o |
  1
):-+:' {rn {lo {jl |
  1
,+->687+r<*-): {rn nqlflhmjnkfkmljgkj oqfjniklihfmjhijgli o o rn o Y roqmgljokmilfgjmmhmn Y o |
  1
<0:;8: {rn {nh {kf {rn {jk o {k {rn |
  1
:;8: {rn {jj {lj {nh {ji o |
  1
):-+:' {rn {ng {jh |
  1
,+->687+r<*-): {rn nqlimhmjnkfkmljgmn nqmiinkhfklmkmggjl o n o o Y roqnnofffffffffffhn Y o |
  1
/061+ {rn nqlimhmjnkfkmljgmn nqmiinkhfklmkmggjl o |
  1
/061+ {rn nqlflhmjnkfkmljgkj nqmljnkhfklmkmggji o |
  1
<0:;8: {rn {jg {mm {rn {jf o {i {rn |
  1
:;8: {rn {kn {io {mm {in o |
  1
):-+:' {rn {ml {im |
  1
,+->687+r<*-): {rn nqnlohmjnkfkmljgmg nqnnllflihfmjhijgk o oqhohnoihgnngijkhjh roqhohnoihgnngijkhjh o V V |
  1
<0:;8: {rn {mk {il {rn {ik o {i {rn |
  1
:;8: {rn {ij {kj {mk {ii o |
  1
):-+:' {rn {kk {ih |
  1
:336/,:r<*-): {rn nqninfhjnkfkmljgmg nqkmmnkjgnnmjomhnk o o o n oqolnmj o o n V V |
  1
/061+ {rn nqnlohmjnkfkmljgmg nqkmmnkjgnnmjomhnk o |
  1
/061+ {rn nqnlohmjnkfkmljgmg nqnnllflihfmjhijgk o |
  1
<0:;8: {rn {ll {mf {rn {ig o {k {rn |
  1
:;8: {rn {jn {if {mf {ho o |
  1
):-+:' {rn {jo {hn |
  1
,+->687+r<*-): {rn nqlimhmjnkfkmljgmn oqfmoiklihfmjhijgmm o roqhohnoihgnngijhmgf roqhohnoihgnngijmmnj o Y roqoklgkoimoklljihhnl Y o |
  1
/061+ {rn nqlflhmjnkfkmljgkj oqfjniklihfmjhijgli o |
  1
:;8: {rn {hm {jj {ll {hl o |
  1
):-+:' {rn {lk {hk |
  1
,+->687+r<*-): {rn nqmjnhmjnkfkmljgj nqmiinkhfklmkmggjl o oqhohnoihgnngijhhgg oqhohnoihgnngijnhok o Y roqoklgkoimoklljihlfk Y o |
  1
/061+ {rn nqmjnhmjnkfkmljgj nqmiinkhfklmkmggjl o |
  1
<0:;8: {rn {hj {lf {rn {hi o {i {rn |
  1
:;8: {rn {io {hh {lf {hg o |
  1
):-+:' {rn {ko {hf |
  1
,+->687+r<*-): {rn nqnjohmjnkfkmljgmk nqofllflihfmjhijgg o roqhohnoihgnngijlfif roqhohnoihgnngijjjlk o V V |
  1
/061+ {rn nqnjohmjnkfkmljgmk nqofllflihfmjhijgg o |
  1
<0:;8: {rn {kl {go {rn {gn o {i {rn |
  1
:;8: {rn {gm {ij {kl {gl o |
  1
):-+:' {rn {ik {gk |
  1
,+->687+r<*-): {rn nqnfnfnjilhkgkmkl nqkjllfjgnnmjomhnm o rn hqkninfgjhiniofmhj:ronj o V V |
  1
/061+ {rn nqninfhjnkfkmljgmg nqkjllfjgnnmjomhnk o |
  1
:;8: {rn {if {hm {kf {gj o |
  1
):-+:' {rn {ig {gi |
  1
,+->687+r<*-): {rn nqmjnhmjnkfkmljgnj oqfmoiklihfmjhijgmm o rn o o Y roqnnnooooooooooooij Y o |
  1
/061+ {rn nqlimhmjnkfkmljgmn oqfmoiklihfmjhijgmm o |
  1
):-+:' {rn {jk {gh |
  1
,+->687+r<*-): {rn nqmmohmjnkfkmljgmh nqmljnkhfklmkmggji o o n o Y roqmgljokmilfgjmmhmn Y o |
  1
/061+ {rn nqmmohmjnkfkmljgmh nqmljnkhfklmkmggji o |
  1
<0:;8: {rn {gg {jg {rn {gf o {i {rn |
  1
:;8: {rn {hh {fo {jg {fn o |
  1
):-+:' {rn {jf {fm |
  1
,+->687+r<*-): {rn nqnlohmjnkfkmljgmg nqohllflihfmjhijgg o o rn o V V |
  1
/061+ {rn nqnlohmjnkfkmljgmg nqohllflihfmjhijgg o |
  1
<0:;8: {rn {il {fl {rn {fk n {i {rn |
  1
:;8: {rn {fj {gm {il {fi o |
  1
):-+:' {rn {gn {fh |
  1
:336/,:r<*-): {rn nqnfnfnjilhkgkmkl nqkkllfjgnnmjomhol o o o n oqonoooooooooooonjil o o n V V |
  1
/061+ {rn nqnfnfnjilhkgkmkl nqkjllfjgnnmjomhng o |
  1
,+->687+r<*-): {rn nqmmohmjnkfkmljgmh oqfjniklihfmjhijgli o roqhohnoihgnngijlmli oqhohnoihgnngijimih o Y roqoklgkoimoklljijmon Y o |
  1
/061+ {rn nqmjnhmjnkfkmljgnj oqfmoiklihfmjhijgmm o |
  1
/061+ {rn nqmmohmjnkfkmljgmh oqfjniklihfmjhijgli o |
  1
<0:;8: {rn {fg {hj {rn {ff o {i {rn |
  1
:;8: {rn {fo {noo {hj {non o |
  1
):-+:' {rn {hi {nom |
  1
:336/,:r<*-): {rn nqninfhjnkfkmljgmg oqhikikjgnnmjomhmln o o o n oqolnmj o o n V V |
  1
/061+ {rn nqnlohmjnkfkmljgmg oqhikikjgnnmjomhmln o |
  1
<0:;8: {rn {go {nol {rn {nok o {i {rn |
  1
:;8: {rn {fj {noj {go {noi o |
  1
):-+:' {rn {fk {noh |
  1
,+->687+r<*-): {rn nqmonfnjilhkgkmkki nqkmmlfhfklmkmggjl o o n o V V |
  1
/061+ {rn nqmonfnjilhkgkmkki nqkkllfjgnnmjomhnm o |
  1
<0:;8: {rn {nog {gg {rn {nof o {i {rn |
  1
:;8: {rn {noo {nno {gg {nnn o |
  1
):-+:' {rn {gf {nnm |
  1
,+->687+r<*-): {rn nqninfhjnkfkmljgmg oqhlllfjgnnmjomhmln o n hqkninfgjhiniofmhj:ronj o V V |
  1
/061+ {rn nqninfhjnkfkmljgmg oqhlllfjgnnmjomhmln o |
  1
<0:;8: {rn {fl {nnl {rn {nnk o {i {rn |
  1
:;8: {rn {nnj {noj {fl {nni o |
  1
):-+:' {rn {nok {nnh |
  1
:336/,:r<*-): {rn nqmllnijilhkgkmkki nqkmmlfhfklmkmggjl o o o n oqolnmj o o n V V |
  1
/061+ {rn nqmonfnjilhkgkmkki nqkmmlfhfklmkmggjl o |
  1
<0:;8: {rn {nng {fg {rn {nnf n {i {rn |
  1
:;8: {rn {nno {nmo {fg {nmn o |
  1
):-+:' {rn {ff {nmm |
  1
:336/,:r<*-): {rn nqnfnfnjilhkgkmkl oqhkllfjgnnmjomhlmn o o o n oqonoooooooooooooihj o o n V V |
  1
/061+ {rn nqnfnfnjilhkgkmkl oqhlllfjgnnmjomhmjl o |
  1
<0:;8: {rn {nol {nml {rn {nmk o {i {rn |
  1
:;8: {rn {nmj {nnj {nol {nmi o |
  1
):-+:' {rn {nnk {nmh |
  1
,+->687+r<*-): {rn nqmghmmoggjklgljjn nqlfnnkhfklmkmggjl o rn o o V V |
  1
/061+ {rn nqmllnijilhkgkmkki nqlfnnkhfklmkmggjl o |
  1
<0:;8: {rn {nmg {nog {rn {nmf o {i {rn |
  1
:;8: {rn {nlo {nmo {nog {nln o |
  1
):-+:' {rn {nof {nlm |
  1
,+->687+r<*-): {rn nqmonfnjilhkgkmkki oqhkllfjgnnmjomhmlm o o n o V V |
  1
/061+ {rn nqmonfnjilhkgkmkki oqhkllfjgnnmjomhmlm o |
  1
<0:;8: {rn {nnl {nll {rn {nlk o {i {rn |
  1
:;8: {rn {nlj {nmj {nnl {nli o |
  1
):-+:' {rn {nmk {nlh |
  1
,+->687+r<*-): {rn nqlohmmjnkfkmljgli nqlhnnklihfmjhijgn o roqhohnoihgnngijhn oqhohnoihgnngijmlfm o V V |
  1
/061+ {rn nqmghmmoggjklgljjn nqlfnnkhfklmkmggjl o |
  1
<0:;8: {rn {nlg {nng {rn {nlf o {i {rn |
  1
:;8: {rn {nlo {nko {nng {nkn o |
  1
):-+:' {rn {nnf {nkm |
  1
:336/,:r<*-): {rn nqmllnijilhkgkmkki oqhiklflihfmjhijgmm o o o n oqolnmj o o n V V |
  1
/061+ {rn nqmonfnjilhkgkmkki oqhiklflihfmjhijgmm o |
  1
<0:;8: {rn {nml {nkl {rn {nkk n {i {rn |
  1
:;8: {rn {nkj {nlj {nml {nki o |
  1
):-+:' {rn {nlk {nkh |
  1
,+->687+r<*-): {rn nqlmhmmfknlkoggogj nqlfnnkhfklmkmggjl o roqhohnoihgnngijoglg roqhohnoihgnngijgigh o V V |
  1
/061+ {rn nqlohmmjnkfkmljgli nqlhnnklihfmjhijgn o |
  1
<0:;8: {rn {nkg {nmg {rn {nkf o {i {rn |
  1
:;8: {rn {nko {njo {nmg {njn o |
  1
):-+:' {rn {nmf {njm |
  1
,+->687+r<*-): {rn nqmllnijilhkgkmkki oqhfjiklihfmjhijgmm o n rkqnohknokimmhlloni:ronj o V V |
  1
/061+ {rn nqmllnijilhkgkmkki oqhfjiklihfmjhijgmm o |
  1
<0:;8: {rn {nll {njl {rn {njk o {i {rn |
  1
:;8: {rn {nkj {njj {nll {nji o |
  1
):-+:' {rn {nkk {njh |
  1
,+->687+r<*-): {rn nqlgogjmhmffhmlgmn nqlfnnkhfklmkmggjl o rn o o V V |
  1
/061+ {rn nqlmhmmfknlkoggogj nqlfnnkhfklmkmggjl o |
  1
<0:;8: {rn {njg {nlg {rn {njf o {i {rn |
  1
:;8: {rn {njo {nio {nlg {nin o |
  1
):-+:' {rn {nlf {nim |
  1
,+->687+r<*-): {rn nqmghmmjnkfkmljgk oqhfjiklihfmjhijg o oqhohnoihgnngijljif oqhohnoihgnngijjflk o V V |
  1
/061+ {rn nqmghmmjnkfkmljgk oqhfjiklihfmjhijg o |
  1
<0:;8: {rn {nkl {nil {rn {nik o {i {rn |
  1
:;8: {rn {nij {njj {nkl {nii o |
  1
):-+:' {rn {njk {nih |
  1
:336/,:r<*-): {rn nqlgogjmhmffhmlgmn nqkmmlfhfklmkmggjl o o o n oqolnmj o o n V V |
  1
/061+ {rn nqlgogjmhmffhmlgmn nqlfnnkhfklmkmggjl o |
  1
<0:;8: {rn {nig {nkg {rn {nif n {i {rn |
  1
:;8: {rn {nio {nho {nkg {nhn o |
  1
):-+:' {rn {nkf {nhm |
  1
,+->687+r<*-): {rn nqlohmmjnkfkmljgli oqgnjiklihfmjhijgmk o oqhohnoihgnngijlfif roqhohnoihgnngijjjlk o V V |
  1
/061+ {rn nqlohmmjnkfkmljgli oqgnjiklihfmjhijgmk o |
  1
<0:;8: {rn {njl {nhl {rn {nhk o {i {rn |
  1
:;8: {rn {nhj {nij {njl {nhi o |
  1
):-+:' {rn {nik {nhh |
  1
,+->687+r<*-): {rn nqknmnomhmffhmlgmn nqkkllfjgnnmjomhni o o rn o V V |
  1
/061+ {rn nqknmnomhmffhmlgmn nqkmmlfhfklmkmggjl o |
  1
<0:;8: {rn {nhg {njg {rn {nhf o {i {rn |
  1
:;8: {rn {ngo {nho {njg {ngn o |
  1
):-+:' {rn {njf {ngm |
  1
,+->687+r<*-): {rn nqlmhmmjnkfkmljglm oqhfjiklihfmjhijgmm o n o o V V |
  1
/061+ {rn nqlmhmmjnkfkmljglm oqhfjiklihfmjhijgmm o |
  1
<0:;8: {rn {nil {ngl {rn {ngk o {i {rn |
  1
:;8: {rn {ngj {nhj {nil {ngi o |
  1
):-+:' {rn {nhk {ngh |
  1
:336/,:r<*-): {rn nqkmmnomhmffhmlgon nqkkllfjgnnmjomhmj o o o n oqooffffffffffffggfgh o o n V V |
  1
/061+ {rn nqknmnomhmffhmlgmn nqkkllfjgnnmjomhni o |
  1
<0:;8: {rn {ngg {nig {rn {ngf o {i {rn |
  1
:;8: {rn {ngo {nfo {nig {nfn o |
  1
):-+:' {rn {nif {nfm |
  1
:336/,:r<*-): {rn nqlgogjmhmffhmlgmn oqhiklflihfmjhijgmm o o o n oqolnmj o o n V V |
  1
/061+ {rn nqlgogjmhmffhmlgmn oqhfjiklihfmjhijgmm o |
  1
<0:;8: {rn {nhl {nfl {rn {nfk o {i {rn |
  1
:;8: {rn {nfj {ngj {nhl {nfi o |
  1
):-+:' {rn {ngk {nfh |
  1
,+->687+r<*-): {rn nqkjmkhjnkfkmljgog nqkjllfjgnnmjomhml o rn rmqfmkmfminhmhhgjmj:ronk o V V |
  1
/061+ {rn nqkmmnomhmffhmlgon nqkjllfjgnnmjomhnk o |
  1
<0:;8: {rn {nfg {nhg {rn {nff o {i {rn |
  1
:;8: {rn {nfo {moo {nhg {mon o |
  1
):-+:' {rn {nhf {mom |
  1
,+->687+r<*-): {rn nqknmnomhmffhmlgmn oqhiklflihfmjhijgmm o o rn o V V |
  1
/061+ {rn nqknmnomhmffhmlgmn oqhiklflihfmjhijgmm o |
  1
<0:;8: {rn {ngl {mol {rn {mok o {i {rn |
  1
:;8: {rn {moj {nfj {ngl {moi o |
  1
):-+:' {rn {nfk {moh |
  1
:336/,:r<*-): {rn nqkjmkhjnkfkmljgog nqkmmnkjgnnmjomhn o o o n oqolnmjoooooooooljjl o o n V V |
  1
/061+ {rn nqkjmkhjnkfkmljgog nqkjllfjgnnmjomhkj o |
  1
<0:;8: {rn {mog {ngg {rn {mof o {i {rn |
  1
:;8: {rn {moo {mno {ngg {mnn o |
  1
):-+:' {rn {ngf {mnm |
  1
:336/,:r<*-): {rn nqkmmnomhmffhmlgon oqhkllfjgnnmjomhnkl o o o n oqooffffffffffffgonoj o o n V V |
  1
/061+ {rn nqknmnomhmffhmlgmn oqhkllfjgnnmjomhmlm o |
  1
<0:;8: {rn {nfl {mog {rn {mnl o {i {rn |
  1
:;8: {rn {mnk {moj {nfl {mnj o |
  1
):-+:' {rn {mok {mni |
  1
,+->687+r<*-): {rn nqkglhmjnkfkmljgkk nqnnllflihfmjhijg o o n o V V |
  1
/061+ {rn nqkglhmjnkfkmljgkk nqkmmnkjgnnmjomhml o |
  1
<0:;8: {rn {mol {nfg {rn {mnh o {i {rn |
  1
:;8: {rn {mno {mng {nfg {mnf o |
  1
):-+:' {rn {nff {mmo |
  1
,+->687+r<*-): {rn nqkmmnomhmffhmlgon oqhlllfjgnnmjomhmjl o n o o V V |
  1
/061+ {rn nqkmmnomhmffhmlgon oqhlllfjgnnmjomhlkm o |
  1
:;8: {rn {mmn {mnk {mol {mmm o |
  1
):-+:' {rn {mnl {mml |
  1
,+->687+r<*-): {rn nqkilhmjnkfkmljgkg nqofllflihfmjhijg o oqhohnoihgnngijlfif oqhohnoihgnngijjjlk o V V |
  1
/061+ {rn nqkglhmjnkfkmljgkk nqnnllflihfmjhijg o |
  1
:;8: {rn {mng {mmn {mog {mmk o |
  1
):-+:' {rn {mof {mmj |
  1
:336/,:r<*-): {rn nqkjmkhjnkfkmljgkk oqhikikjgnnmjomhmjl o o o n oqolnmj o o n V V |
  1
/061+ {rn nqkjmkhjnkfkmljgkk oqhlllfjgnnmjomhmjl o |
  1
):-+:' {rn {mnh {mmi |
  1
,+->687+r<*-): {rn nqkglhmjnkfkmljgkk nqohllflihfmjhijhf o roqhohnoihgnngijlfif oqhohnoihgnngijjjlk o V V |
  1
/061+ {rn nqkilhmjnkfkmljgkg nqofllflihfmjhijg o |
  1
,+->687+r<*-): {rn nqkglhmjnkfkmljgkk oqhikikjgnnmjomhmjl o o n o V V |
  1
/061+ {rn nqkglhmjnkfkmljgkk oqhikikjgnnmjomhmjl o |
  1
/061+ {rn nqkglhmjnkfkmljgkk nqohllflihfmjhijhf o |
  0
LINE
  5
7BA
330
4E5
100
AcDbEntity
  8
TEXT
100
AcDbLine
 10
1.38580422354429
 20
0.0793597182634969
 30
0.0
 11
1.38580422354429
 21
0.2206892504426356
 31
0.0
  0
LINE
  5
7BB
330
4E5
100
AcDbEntity
  8
TEXT
100
AcDbLine
 10
1.432902382100273
 20
0.1552250446750349
 30
0.0
 11
1.38580422354429
 21
0.0793597182634969
 31
0.0
  0
LINE
  5
7BC
330
4E5
100
AcDbEntity
  8
TEXT
100
AcDbLine
 10
1.443337098864198
 20
0.0453318017340614
 30
0.0
 11
1.507894214829903
 21
0.1552250446750349
 31
0.0
  0
TEXT
  5
7BD
330
4E5
100
AcDbEntity
  8
TEXT
100
AcDbText
 10
1.690892910327212
 20
0.0748962472983124
 30
0.0
 40
0.0522247191011236
  1
6536 Main St. N.E. * P.O. Box 32008
 41
0.8388932496075355
 72
     5
 11
3.019825494596876
 21
0.0748962472983124
 31
0.0
100
AcDbText
  0
ARC
  5
7BE
330
4E5
100
AcDbEntity
  8
TEXT
100
AcDbCircle
 10
1.245321251028952
 20
0.0660424747356068
 30
0.0
 40
0.0249058752826653
100
AcDbArc
 50
89.99971217465335
 51
179.9999999999985
  0
LINE
  5
7BF
330
4E5
100
AcDbEntity
  8
TEXT
100
AcDbLine
 10
1.15812048460592
 20
0.0500130661216076
 30
0.0
 11
1.114369713424018
 21
0.1322633421177528
 31
0.0
  0
LINE
  5
7C0
330
4E5
100
AcDbEntity
  8
TEXT
100
AcDbLine
 10
1.15812048460592
 20
0.1552250446750349
 30
0.0
 11
1.15812048460592
 21
0.0500130661216076
 31
0.0
  0
ARC
  5
7C1
330
4E5
100
AcDbEntity
  8
TEXT
100
AcDbCircle
 10
1.0501296473864
 20
0.0625889750182722
 30
0.0
 40
0.028359375
100
AcDbArc
 50
25.78218179591245
 51
90.0
  0
LINE
  5
7C2
330
4E5
100
AcDbEntity
  8
TEXT
100
AcDbLine
 10
0.5881351862026527
 20
-0.0288601502104768
 30
0.0
 11
0.5881351862026527
 21
0.2232365224138455
 31
0.0
  0
LINE
  5
7C3
330
4E5
100
AcDbEntity
  8
TEXT
100
AcDbLine
 10
0.6204470403403129
 20
0.1552250446750349
 30
0.0
 11
0.6204470403403129
 21
-0.0456391620573733
 31
0.0
  0
LINE
  5
7C4
330
4E5
100
AcDbEntity
  8
TEXT
100
AcDbLine
 10
0.4912045608429097
 20
0.1552250446750349
 30
0.0
 11
0.432455998037046
 21
0.0543530485619144
 31
0.0
  0
LINE
  5
7C5
330
4E5
100
AcDbEntity
  8
TEXT
100
AcDbLine
 10
0.432455998037046
 20
0.0543530485619144
 30
0.0
 11
0.373825677005108
 21
0.1552250446750349
 31
0.0
  0
ARC
  5
7C6
330
4E5
100
AcDbEntity
  8
TEXT
100
AcDbCircle
 10
0.0662523531186814
 20
0.0731375852285332
 30
0.0
 40
0.0820874594465043
100
AcDbArc
 50
90.0
 51
270.0
  0
LWPOLYLINE
  5
7C7
330
4E5
100
AcDbEntity
  8
TEXT
100
AcDbPolyline
 90
        2
 70
     0
 43
0.0001332181640625
 10
-0.3418339799822831
 20
0.0819550544406589
 10
-0.3518253422869737
 20
0.1552250446750385
  0
LWPOLYLINE
  5
7C8
330
4E5
100
AcDbEntity
  8
TEXT
100
AcDbPolyline
 90
        2
 70
     0
 43
0.0001332181640625
 10
-0.3518253422869737
 20
0.1285814118625375
 10
-0.3418339799822831
 20
0.0686332380344119
  0
LWPOLYLINE
  5
7C9
330
4E5
100
AcDbEntity
  8
TEXT
100
AcDbPolyline
 90
        2
 70
     0
 43
0.0001332181640625
 10
-0.3118598930682221
 20
0.1285814118625375
 10
-0.3218512553729109
 20
0.0686332380344119
  0
LWPOLYLINE
  5
7CA
330
4E5
100
AcDbEntity
  8
TEXT
100
AcDbPolyline
 90
        2
 70
     0
 43
0.0001332181640625
 10
-0.3118598930682221
 20
0.1552250446750385
 10
-0.3218512553729109
 20
0.0819550544406589
  0
LWPOLYLINE
  5
7CB
330
4E5
100
AcDbEntity
  8
TEXT
100
AcDbPolyline
 90
        3
 70
     0
 43
0.0006660908203125
 10
-0.1986244536150963
 20
0.0419896052219109
 10
-0.1986244536150963
 20
0.1552250446750385
 10
-0.3118598930682221
 20
0.1552250446750385
  0
LWPOLYLINE
  5
7CC
330
4E5
100
AcDbEntity
  8
TEXT
100
AcDbPolyline
 90
        3
 70
     0
 43
0.0006660908203125
 10
-0.2252680864275973
 20
0.0419896052219109
 10
-0.2252680864275973
 20
0.1285814118625375
 10
-0.3118598930682221
 20
0.1285814118625375
  0
LWPOLYLINE
  5
7CD
330
4E5
100
AcDbEntity
  8
TEXT
100
AcDbPolyline
 90
        2
 70
     0
 43
0.0001332181640625
 10
-0.2252680864275973
 20
0.1285814118625375
 10
-0.2852162602557211
 20
0.0686332380344119
  0
LWPOLYLINE
  5
7CE
330
4E5
100
AcDbEntity
  8
TEXT
100
AcDbPolyline
 90
        2
 70
     0
 43
0.0001332181640625
 10
-0.4384171489275986
 20
0.1285814118625375
 10
-0.378468975099473
 20
0.0686332380344119
  0
LWPOLYLINE
  5
7CF
330
4E5
100
AcDbEntity
  8
TEXT
100
AcDbPolyline
 90
        3
 70
     0
 43
0.0006660908203125
 10
-0.3518253422869737
 20
0.1552250446750385
 10
-0.4650607817400961
 20
0.1552250446750385
 10
-0.4650607817400961
 20
0.0419896052219109
  0
LWPOLYLINE
  5
7D0
330
4E5
100
AcDbEntity
  8
TEXT
100
AcDbPolyline
 90
        3
 70
     0
 43
0.0006660908203125
 10
-0.3518253422869737
 20
0.1285814118625375
 10
-0.4384171489275986
 20
0.1285814118625375
 10
-0.4384171489275986
 20
0.0419896052219109
  0
LINE
  5
7D1
330
4E5
100
AcDbEntity
  8
TEXT
100
AcDbLine
 10
0.1370898194772305
 20
0.0551436284076417
 30
0.0
 11
0.0714896832329295
 21
0.0551436284076417
 31
0.0
  0
LINE
  5
7D2
330
4E5
100
AcDbEntity
  8
TEXT
100
AcDbLine
 10
0.0662523531186814
 20
-0.0089498742179721
 30
0.0
 11
0.1420301933835102
 21
-0.0089498742179721
 31
0.0
  0
LINE
  5
7D3
330
4E5
100
AcDbEntity
  8
TEXT
100
AcDbLine
 10
-0.0158351063278222
 20
-0.111247988313476
 30
0.0
 11
0.1370898194772305
 21
-0.111247988313476
 31
0.0
  0
LINE
  5
7D4
330
4E5
100
AcDbEntity
  8
TEXT
100
AcDbLine
 10
0.1420301933835102
 20
-0.0428909819800367
 30
0.0
 11
-0.0158351063278239
 21
-0.0428909819800367
 31
0.0
  0
LINE
  5
7D5
330
4E5
100
AcDbEntity
  8
TEXT
100
AcDbLine
 10
0.0714896832329295
 20
0.0909483500182695
 30
0.0
 11
0.238395337261899
 21
0.0909483500182695
 31
0.0
  0
LWPOLYLINE
  5
7D6
330
4E5
100
AcDbEntity
  8
TEXT
100
AcDbPolyline
 90
        2
 70
     0
 43
0.0006660908203125
 10
-0.2252680864275973
 20
0.0419896052219109
 10
-0.1986244536150963
 20
0.0419896052219109
  0
LWPOLYLINE
  5
7D7
330
4E5
100
AcDbEntity
  8
TEXT
100
AcDbPolyline
 90
        2
 70
     0
 43
0.0001332181640625
 10
-0.2718944438494724
 20
0.0319982429172221
 10
-0.1986244536150963
 20
0.0419896052219109
  0
LWPOLYLINE
  5
7D8
330
4E5
100
AcDbEntity
  8
TEXT
100
AcDbPolyline
 90
        2
 70
     0
 43
0.0006660908203125
 10
-0.2252680864275973
 20
0.0020241560031629
 10
-0.1986244536150963
 20
0.0020241560031629
  0
LWPOLYLINE
  5
7D9
330
4E5
100
AcDbEntity
  8
TEXT
100
AcDbPolyline
 90
        3
 70
     0
 43
0.0006660908203125
 10
-0.3118598930682221
 20
-0.1112112834499648
 10
-0.1986244536150963
 20
-0.1112112834499648
 10
-0.1986244536150963
 20
0.0020241560031629
  0
LWPOLYLINE
  5
7DA
330
4E5
100
AcDbEntity
  8
TEXT
100
AcDbPolyline
 90
        2
 70
     0
 43
0.0001332181640625
 10
-0.1986244536150963
 20
0.0020241560031629
 10
-0.2718944438494724
 20
0.0120155183078481
  0
LWPOLYLINE
  5
7DB
330
4E5
100
AcDbEntity
  8
TEXT
100
AcDbPolyline
 90
        3
 70
     0
 43
0.0006660908203125
 10
-0.4650607817400961
 20
0.0020241560031629
 10
-0.4650607817400961
 20
-0.1112112834499648
 10
-0.3518253422869737
 20
-0.1112112834499648
  0
LWPOLYLINE
  5
7DC
330
4E5
100
AcDbEntity
  8
TEXT
100
AcDbPolyline
 90
        3
 70
     0
 43
0.0006660908203125
 10
-0.4384171489275986
 20
0.0020241560031629
 10
-0.4384171489275986
 20
-0.0845676506374638
 10
-0.3518253422869737
 20
-0.0845676506374638
  0
LWPOLYLINE
  5
7DD
330
4E5
100
AcDbEntity
  8
TEXT
100
AcDbPolyline
 90
        5
 70
     0
 43
0.0001332181640625
 10
-0.3418339799822831
 20
-0.0379412932155887
 10
-0.3418339799822831
 20
-0.0246194768093382
 10
-0.3784689750994712
 20
-0.0246194768093382
 10
-0.3784689750994712
 20
0.0120155183078481
 10
-0.3917907915057217
 20
0.0120155183078481
  0
LWPOLYLINE
  5
7DE
330
4E5
100
AcDbEntity
  8
TEXT
100
AcDbPolyline
 90
        5
 70
     0
 43
0.0001332181640625
 10
-0.3917907915057217
 20
0.0319982429172221
 10
-0.378468975099473
 20
0.0319982429172221
 10
-0.378468975099473
 20
0.0686332380344119
 10
-0.3418339799822831
 20
0.0686332380344119
 10
-0.3418339799822831
 20
0.0819550544406589
  0
LWPOLYLINE
  5
7DF
330
4E5
100
AcDbEntity
  8
TEXT
100
AcDbPolyline
 90
        2
 70
     0
 43
0.0001332181640625
 10
-0.4384171489275986
 20
0.0419896052219109
 10
-0.378468975099473
 20
0.0319982429172221
  0
LWPOLYLINE
  5
7E0
330
4E5
100
AcDbEntity
  8
TEXT
100
AcDbPolyline
 90
        2
 70
     0
 43
0.0001332181640625
 10
-0.4650607817400961
 20
0.0419896052219109
 10
-0.3917907915057217
 20
0.0319982429172221
  0
LWPOLYLINE
  5
7E1
330
4E5
100
AcDbEntity
  8
TEXT
100
AcDbPolyline
 90
        2
 70
     0
 43
0.0006660908203125
 10
-0.4384171489275986
 20
0.0419896052219109
 10
-0.4650607817400961
 20
0.0419896052219109
  0
LWPOLYLINE
  5
7E2
330
4E5
100
AcDbEntity
  8
TEXT
100
AcDbPolyline
 90
        2
 70
     0
 43
0.0001332181640625
 10
-0.4384171489275986
 20
-0.0845676506374638
 10
-0.3784689750994712
 20
-0.0246194768093382
  0
LWPOLYLINE
  5
7E3
330
4E5
100
AcDbEntity
  8
TEXT
100
AcDbPolyline
 90
        2
 70
     0
 43
0.0006660908203125
 10
-0.4384171489275986
 20
0.0020241560031629
 10
-0.4650607817400961
 20
0.0020241560031629
  0
LWPOLYLINE
  5
7E4
330
4E5
100
AcDbEntity
  8
TEXT
100
AcDbPolyline
 90
        2
 70
     0
 43
0.0001332181640625
 10
-0.3917907915057217
 20
0.0120155183078481
 10
-0.4650607817400961
 20
0.0020241560031629
  0
LWPOLYLINE
  5
7E5
330
4E5
100
AcDbEntity
  8
TEXT
100
AcDbPolyline
 90
        2
 70
     0
 43
0.0001332181640625
 10
-0.4384171489275986
 20
0.0020241560031629
 10
-0.3784689750994712
 20
0.0120155183078481
  0
LWPOLYLINE
  5
7E6
330
4E5
100
AcDbEntity
  8
TEXT
100
AcDbPolyline
 90
        5
 70
     0
 43
0.0001332181640625
 10
-0.3218512553729109
 20
0.0819550544406589
 10
-0.3218512553729109
 20
0.0686332380344119
 10
-0.2852162602557211
 20
0.0686332380344119
 10
-0.2852162602557211
 20
0.0319982429172221
 10
-0.2718944438494724
 20
0.0319982429172221
  0
LWPOLYLINE
  5
7E7
330
4E5
100
AcDbEntity
  8
TEXT
100
AcDbPolyline
 90
        2
 70
     0
 43
0.0001332181640625
 10
-0.2252680864275973
 20
0.0419896052219109
 10
-0.2852162602557211
 20
0.0319982429172221
  0
LWPOLYLINE
  5
7E8
330
4E5
100
AcDbEntity
  8
TEXT
100
AcDbPolyline
 90
        2
 70
     0
 43
0.0006660908203125
 10
-0.3518253422869737
 20
-0.0845676506374638
 10
-0.3518253422869737
 20
-0.1112112834499648
  0
LWPOLYLINE
  5
7E9
330
4E5
100
AcDbEntity
  8
TEXT
100
AcDbPolyline
 90
        2
 70
     0
 43
0.0001332181640625
 10
-0.3518253422869737
 20
-0.0845676506374638
 10
-0.3418339799822831
 20
-0.0246194768093382
  0
LWPOLYLINE
  5
7EA
330
4E5
100
AcDbEntity
  8
TEXT
100
AcDbPolyline
 90
        2
 70
     0
 43
0.0001332181640625
 10
-0.3518253422869737
 20
-0.1112112834499648
 10
-0.3418339799822831
 20
-0.0379412932155887
  0
LWPOLYLINE
  5
7EB
330
4E5
100
AcDbEntity
  8
TEXT
100
AcDbPolyline
 90
        2
 70
     0
 43
0.0001332181640625
 10
-0.3118598930682221
 20
-0.0845676506374638
 10
-0.3218512553729109
 20
-0.0246194768093382
  0
LWPOLYLINE
  5
7EC
330
4E5
100
AcDbEntity
  8
TEXT
100
AcDbPolyline
 90
        2
 70
     0
 43
0.0001332181640625
 10
-0.3218512553729109
 20
-0.0379412932155887
 10
-0.3118598930682221
 20
-0.1112112834499648
  0
LWPOLYLINE
  5
7ED
330
4E5
100
AcDbEntity
  8
TEXT
100
AcDbPolyline
 90
        2
 70
     0
 43
0.0006660908203125
 10
-0.3118598930682221
 20
-0.0845676506374638
 10
-0.3118598930682221
 20
-0.1112112834499648
  0
LWPOLYLINE
  5
7EE
330
4E5
100
AcDbEntity
  8
TEXT
100
AcDbPolyline
 90
        2
 70
     0
 43
0.0001332181640625
 10
-0.2252680864275973
 20
-0.0845676506374638
 10
-0.2852162602557211
 20
-0.0246194768093382
  0
LWPOLYLINE
  5
7EF
330
4E5
100
AcDbEntity
  8
TEXT
100
AcDbPolyline
 90
        3
 70
     0
 43
0.0006660908203125
 10
-0.3118598930682221
 20
-0.0845676506374638
 10
-0.2252680864275973
 20
-0.0845676506374638
 10
-0.2252680864275973
 20
0.0020241560031629
  0
LWPOLYLINE
  5
7F0
330
4E5
100
AcDbEntity
  8
TEXT
100
AcDbPolyline
 90
        2
 70
     0
 43
0.0001332181640625
 10
-0.2252680864275973
 20
0.0020241560031629
 10
-0.2852162602557211
 20
0.0120155183078481
  0
LWPOLYLINE
  5
7F1
330
4E5
100
AcDbEntity
  8
TEXT
100
AcDbPolyline
 90
        5
 70
     0
 43
0.0001332181640625
 10
-0.2718944438494724
 20
0.0120155183078481
 10
-0.2852162602557211
 20
0.0120155183078481
 10
-0.2852162602557211
 20
-0.0246194768093382
 10
-0.3218512553729109
 20
-0.0246194768093382
 10
-0.3218512553729109
 20
-0.0379412932155887
  0
ARC
  5
7F2
330
4E5
100
AcDbEntity
  8
TEXT
100
AcDbCircle
 10
0.0714896832329295
 20
0.0730459892129574
 30
0.0
 40
0.017902360805315
100
AcDbArc
 50
90.0
 51
270.0
  0
LINE
  5
7F3
330
4E5
100
AcDbEntity
  8
TEXT
100
AcDbLine
 10
-0.0158351063278239
 20
-0.0428909819800367
 30
0.0
 11
-0.0158351063278222
 21
-0.111247988313476
 31
0.0
  0
TEXT
  5
7F4
330
4E5
100
AcDbEntity
  8
TEXT
100
AcDbText
 10
1.690892910327212
 20
-0.111620606634272
 30
0.0
 40
0.0522247191011236
  1
Phone  1-800-328-2495
 41
1.272321428571429
 72
     5
 11
3.019825494596876
 21
-0.111620606634272
 31
0.0
100
AcDbText
  0
TEXT
  5
7F5
330
4E5
100
AcDbEntity
  8
TEXT
100
AcDbText
 10
1.690892910327212
 20
-0.0183621796679798
 30
0.0
 40
0.0522247191011236
  1
Minneapolis, MN 55432-0008
 41
1.11444212721585
 72
     5
 11
3.019825494596876
 21
-0.0183621796679798
 31
0.0
100
AcDbText
  0
LINE
  5
7F6
330
4E5
100
AcDbEntity
  8
TEXT
100
AcDbLine
 10
1.245321251028954
 20
0.0909483500182695
 30
0.0
 11
1.32196923232151
 21
0.0909483500182695
 31
0.0
  0
LINE
  5
7F7
330
4E5
100
AcDbEntity
  8
TEXT
100
AcDbLine
 10
0.6872780933982803
 20
0.0909483500182695
 30
0.0
 11
0.7371133732214297
 21
0.0909483500182695
 31
0.0
  0
ARC
  5
7F8
330
4E5
100
AcDbEntity
  8
TEXT
100
AcDbCircle
 10
0.3888122011278767
 20
-0.0717002660397803
 30
0.0
 40
0.0392772371940762
100
AcDbArc
 50
270.1604552698595
 51
330.0831797321295
  0
ARC
  5
7F9
330
4E5
100
AcDbEntity
  8
TEXT
100
AcDbCircle
 10
0.298511355235652
 20
-0.0514555969754262
 30
0.0
 40
0.0601160179737537
100
AcDbArc
 50
180.0000000000003
 51
264.0521544866073
  0
LINE
  5
7FA
330
4E5
100
AcDbEntity
  8
TEXT
100
AcDbLine
 10
0.238395337261899
 20
0.0909483500182695
 30
0.0
 11
0.238395337261899
 21
-0.0514555969754262
 31
0.0
  0
ARC
  5
7FB
330
4E5
100
AcDbEntity
  8
TEXT
100
AcDbCircle
 10
0.1420301933835102
 20
-0.0259204280990026
 30
0.0
 40
0.0169705538810321
100
AcDbArc
 50
270.0
 51
90.0
  0
ARC
  5
7FC
330
4E5
100
AcDbEntity
  8
TEXT
100
AcDbCircle
 10
0.1370898194772305
 20
-0.028052179952919
 30
0.0
 40
0.0831958083605586
100
AcDbArc
 50
270.0
 51
90.0
  0
LWPOLYLINE
  5
7FD
330
4E5
100
AcDbEntity
  8
TEXT
100
AcDbPolyline
 90
        6
 70
     1
 43
0.0
 10
0.3348057483171551
 20
0.0909483500182695
 10
0.304489154096947
 20
0.0909483500182695
 10
0.304489154096947
 20
-0.0321626480366248
 42
0.407328721240804
 10
0.3160328052584234
 20
-0.0439815627130109
 10
0.3766545043031542
 20
-0.0439815627130109
 10
0.3941198447104721
 20
-0.0111693336695318
  0
LINE
  5
7FE
330
4E5
100
AcDbEntity
  8
TEXT
100
AcDbLine
 10
0.2922819447420046
 20
-0.111247988313476
 30
0.0
 11
0.388922195816999
 21
-0.1109773492151937
 31
0.0
  0
LWPOLYLINE
  5
7FF
330
4E5
100
AcDbEntity
  8
TEXT
100
AcDbPolyline
 90
        2
 70
     0
 43
0.0
 10
0.5201554671335345
 20
-0.0596966460985478
 42
0.3318488747599744
 10
0.5892747596988475
 20
-0.111247988313476
 42
-6.868794160588311
  0
LINE
  5
800
330
4E5
100
AcDbEntity
  8
TEXT
100
AcDbLine
 10
0.5201554671335345
 20
0.073060728726805
 30
0.0
 11
0.5201554671335345
 21
-0.0596966460985513
 31
0.0
  0
LINE
  5
801
330
4E5
100
AcDbEntity
  8
TEXT
100
AcDbLine
 10
0.4228557610400899
 20
-0.0912894822084631
 30
0.0
 11
0.5201554671335345
 21
0.073060728726805
 31
0.0
  0
ARC
  5
802
330
4E5
100
AcDbEntity
  8
TEXT
100
AcDbCircle
 10
0.6034534034557098
 20
-0.0302573558139479
 30
0.0
 40
0.0153818062434269
100
AcDbArc
 50
174.7883570302258
 51
270.0
  0
LINE
  5
803
330
4E5
100
AcDbEntity
  8
TEXT
100
AcDbLine
 10
0.6204470403403129
 20
-0.0456391620573733
 30
0.0
 11
0.6034534034557098
 21
-0.0456391620573733
 31
0.0
  0
LINE
  5
804
330
4E5
100
AcDbEntity
  8
TEXT
100
AcDbLine
 10
0.5892747596988457
 20
-0.111247988313476
 30
0.0
 11
0.6872780933982803
 21
-0.111247988313476
 31
0.0
  0
LINE
  5
805
330
4E5
100
AcDbEntity
  8
TEXT
100
AcDbLine
 10
0.6872780933982803
 20
-0.111247988313476
 30
0.0
 11
0.6872780933982803
 21
0.0909483500182695
 31
0.0
  0
LINE
  5
806
330
4E5
100
AcDbEntity
  8
TEXT
100
AcDbLine
 10
1.050129647386402
 20
0.0909483500182695
 30
0.0
 11
0.9429233739991111
 21
0.0909483500182695
 31
0.0
  0
LINE
  5
807
330
4E5
100
AcDbEntity
  8
TEXT
100
AcDbLine
 10
1.003642732907138
 20
0.0536733765561373
 30
0.0
 11
1.085930722690523
 21
0.0536733765561373
 31
0.0
  0
LWPOLYLINE
  5
808
330
4E5
100
AcDbEntity
  8
TEXT
100
AcDbPolyline
 90
        4
 70
     1
 43
0.0
 10
1.098861763973422
 20
-0.0082840103294508
 10
1.010201445313564
 20
-0.0082840103294508
 42
0.9999999999999998
 10
1.010201445313564
 20
-0.0506825508333115
 10
1.098861763973422
 20
-0.0506825508333115
 42
1.0
  0
LWPOLYLINE
  5
809
330
4E5
100
AcDbEntity
  8
TEXT
100
AcDbPolyline
 90
        2
 70
     0
 43
0.0
 10
0.9849668114119385
 20
-0.111247988313476
 10
1.118984229043315
 20
-0.111247988313476
 42
0.9999999999999998
  0
LINE
  5
80A
330
4E5
100
AcDbEntity
  8
TEXT
100
AcDbLine
 10
0.8117252091693814
 20
0.0909483500182695
 30
0.0
 11
0.8658588060903333
 21
0.0909483500182695
 31
0.0
  0
LINE
  5
80B
330
4E5
100
AcDbEntity
  8
TEXT
100
AcDbLine
 10
0.7446671623875432
 20
-0.111247988313476
 30
0.0
 11
0.8117252091693814
 21
-0.111247988313476
 31
0.0
  0
LINE
  5
80C
330
4E5
100
AcDbEntity
  8
TEXT
100
AcDbLine
 10
0.8117252091693814
 20
-0.111247988313476
 30
0.0
 11
0.8117252091693814
 21
0.0909483500182695
 31
0.0
  0
LINE
  5
80D
330
4E5
100
AcDbEntity
  8
TEXT
100
AcDbLine
 10
0.7446671623875432
 20
0.0833945608521596
 30
0.0
 11
0.7446671623875432
 21
-0.111247988313476
 31
0.0
  0
LWPOLYLINE
  5
80E
330
4E5
100
AcDbEntity
  8
TEXT
100
AcDbPolyline
 90
        2
 70
     0
 43
0.0
 10
0.7371133732214279
 20
0.0909483500182695
 42
-0.4142135623731017
 10
0.7446671623875414
 20
0.0833945608521596
 42
-0.9999999999999998
  0
LINE
  5
80F
330
4E5
100
AcDbEntity
  8
TEXT
100
AcDbLine
 10
0.9429233739991111
 20
0.0909483500182695
 30
0.0
 11
0.9429233739991111
 21
0.0158959439440629
 31
0.0
  0
ARC
  5
810
330
4E5
100
AcDbEntity
  8
TEXT
100
AcDbCircle
 10
1.003642732907138
 20
-0.0140122045879814
 30
0.0
 40
0.0676855811441166
100
AcDbArc
 50
90.0
 51
153.7768192527749
  0
LWPOLYLINE
  5
811
330
4E5
100
AcDbEntity
  8
TEXT
100
AcDbPolyline
 90
        2
 70
     0
 43
0.0
 10
0.9418908785443029
 20
-0.0677570433630379
 42
0.2901071551932823
 10
0.9849668114119385
 20
-0.111247988313476
 42
5.328517124445801
  0
LWPOLYLINE
  5
812
330
4E5
100
AcDbEntity
  8
TEXT
100
AcDbPolyline
 90
        2
 70
     0
 43
0.0
 10
0.8658588060903316
 20
0.0909483500182695
 42
-0.4142135623731017
 10
0.8734125952564451
 20
0.0833945608521596
 42
-0.9999999999999998
  0
LWPOLYLINE
  5
813
330
4E5
100
AcDbEntity
  8
TEXT
100
AcDbPolyline
 90
        4
 70
     0
 43
0.0
 10
0.8734125952564451
 20
0.0833945608521596
 10
0.8734125952564451
 20
-0.111247988313476
 10
0.9418908785443029
 20
-0.111247988313476
 10
0.9418908785443029
 20
-0.0677570433630379
 42
-1.714843617202739
  0
LWPOLYLINE
  5
814
330
4E5
100
AcDbEntity
  8
TEXT
100
AcDbPolyline
 90
        2
 70
     0
 43
0.0
 10
1.162060161910959
 20
-0.0677570433630379
 42
-0.2901071551932486
 10
1.118984229043315
 20
-0.111247988313476
 42
-5.328517124445184
  0
LWPOLYLINE
  5
815
330
4E5
100
AcDbEntity
  8
TEXT
100
AcDbPolyline
 90
        2
 70
     0
 43
0.0
 10
1.162060161910959
 20
-0.111247988313476
 10
1.220415375746293
 20
-0.111247988313476
  0
LWPOLYLINE
  5
816
330
4E5
100
AcDbEntity
  8
TEXT
100
AcDbPolyline
 90
        2
 70
     0
 43
0.0
 10
1.162060161910959
 20
-0.0677570433630379
 10
1.162060161910959
 20
-0.111247988313476
  0
LINE
  5
817
330
4E5
100
AcDbEntity
  8
TEXT
100
AcDbLine
 10
1.085930722690523
 20
0.0536733765561373
 30
0.0
 11
1.075665962276957
 21
0.0749239161288315
 31
0.0
  0
LINE
  5
818
330
4E5
100
AcDbEntity
  8
TEXT
100
AcDbLine
 10
1.220415375746295
 20
-0.111247988313476
 30
0.0
 11
1.220415375746288
 21
0.0660425171179924
 31
0.0
  0
LINE
  5
819
330
4E5
100
AcDbEntity
  8
TEXT
100
AcDbLine
 10
1.538829322227808
 20
-0.111247988313476
 30
0.0
 11
1.443337098864198
 21
0.0453318017340614
 31
0.0
  0
LINE
  5
81A
330
4E5
100
AcDbEntity
  8
TEXT
100
AcDbLine
 10
1.4622509498516
 20
-0.111247988313476
 30
0.0
 11
1.538829322227808
 21
-0.111247988313476
 31
0.0
  0
LINE
  5
81B
330
4E5
100
AcDbEntity
  8
TEXT
100
AcDbLine
 10
1.321969232321517
 20
-0.111247988313476
 30
0.0
 11
1.386347416640138
 21
-0.111247988313476
 31
0.0
  0
LINE
  5
81C
330
4E5
100
AcDbEntity
  8
TEXT
100
AcDbLine
 10
1.32196923232151
 20
0.0909483500182695
 30
0.0
 11
1.321969232321517
 21
-0.111247988313476
 31
0.0
  0
LINE
  5
81D
330
4E5
100
AcDbEntity
  8
TEXT
100
AcDbLine
 10
1.386347416640138
 20
0.0203315801627042
 30
0.0
 11
1.4622509498516
 21
-0.111247988313476
 31
0.0
  0
LINE
  5
81E
330
4E5
100
AcDbEntity
  8
TEXT
100
AcDbLine
 10
1.386347416640138
 20
-0.111247988313476
 30
0.0
 11
1.386347416640138
 21
0.0203315801627042
 31
0.0
  0
LINE
  5
81F
330
4E5
100
AcDbEntity
  8
TEXT
100
AcDbLine
 10
0.2419841060171919
 20
0.1552250446750349
 30
0.0
 11
0.0662523531186814
 21
0.1552250446750349
 31
0.0
  0
LWPOLYLINE
  5
820
330
4E5
100
AcDbEntity
  8
TEXT
100
AcDbPolyline
 90
        2
 70
     0
 43
0.0006660908203125
 10
-0.3518253422869737
 20
0.1285814118625375
 10
-0.3518253422869737
 20
0.1552250446750385
  0
LWPOLYLINE
  5
821
330
4E5
100
AcDbEntity
  8
TEXT
100
AcDbPolyline
 90
        2
 70
     0
 43
0.0006660908203125
 10
-0.3118598930682221
 20
0.1285814118625375
 10
-0.3118598930682221
 20
0.1552250446750385
  0
TEXT
  5
822
330
4E5
100
AcDbEntity
  8
TEXT
100
AcDbText
 10
1.690892910327212
 20
0.1681546742646045
 30
0.0
 40
0.0522247191011236
  1
Stylmark  Incorporated
 41
1.221428571428571
 72
     5
 11
3.019825494596876
 21
0.1681546742646045
 31
0.0
100
AcDbText
  0
LINE
  5
823
330
4E5
100
AcDbEntity
  8
TEXT
100
AcDbLine
 10
1.31748934499501
 20
0.1552250446750349
 30
0.0
 11
1.249989627345495
 21
0.1552250446750349
 31
0.0
  0
TEXT
  5
824
330
4E5
100
AcDbEntity
  8
TEXT
100
AcDbText
 10
0.5365163235054617
 20
0.3353020360381036
 30
0.0
 40
0.125
  1
PART #110471
  7
ITALICC
 72
     1
 11
1.27758775207689
 21
0.3353020360381036
 31
0.0
100
AcDbText
  0
LINE
  5
825
330
4E5
100
AcDbEntity
  8
TEXT
100
AcDbLine
 10
0.7544650962714492
 20
0.1552250446750349
 30
0.0
 11
0.6204470403403129
 21
0.1552250446750349
 31
0.0
  0
LINE
  5
826
330
4E5
100
AcDbEntity
  8
TEXT
100
AcDbLine
 10
0.3020267108611989
 20
0.1896129622691731
 30
0.0
 11
0.2419841060171919
 21
0.1896129622691731
 31
0.0
  0
LINE
  5
827
330
4E5
100
AcDbEntity
  8
TEXT
100
AcDbLine
 10
0.2419841060171919
 20
0.1896129622691731
 30
0.0
 11
0.2419841060171919
 21
0.1552250446750349
 31
0.0
  0
LINE
  5
828
330
4E5
100
AcDbEntity
  8
TEXT
100
AcDbLine
 10
0.373825677005108
 20
0.1552250446750349
 30
0.0
 11
0.3020267108611989
 21
0.1552250446750349
 31
0.0
  0
LINE
  5
829
330
4E5
100
AcDbEntity
  8
TEXT
100
AcDbLine
 10
0.3020267108611989
 20
0.1552250446750349
 30
0.0
 11
0.3020267108611989
 21
0.1896129622691731
 31
0.0
  0
LINE
  5
82A
330
4E5
100
AcDbEntity
  8
TEXT
100
AcDbLine
 10
0.5881351862026527
 20
0.2232365224138455
 30
0.0
 11
0.521326473636286
 21
0.2232365224138455
 31
0.0
  0
LINE
  5
82B
330
4E5
100
AcDbEntity
  8
TEXT
100
AcDbLine
 10
0.521326473636286
 20
0.1552250446750349
 30
0.0
 11
0.4912045608429097
 21
0.1552250446750349
 31
0.0
  0
LINE
  5
82C
330
4E5
100
AcDbEntity
  8
TEXT
100
AcDbLine
 10
0.521326473636286
 20
0.2232365224138455
 30
0.0
 11
0.521326473636286
 21
0.1552250446750349
 31
0.0
  0
LINE
  5
82D
330
4E5
100
AcDbEntity
  8
TEXT
100
AcDbLine
 10
1.079160545730879
 20
0.1552250446750349
 30
0.0
 11
0.9443286365138199
 21
0.1552250446750349
 31
0.0
  0
LWPOLYLINE
  5
82E
330
4E5
100
AcDbEntity
  8
TEXT
100
AcDbPolyline
 90
        3
 70
     0
 43
0.0
 10
0.9085469458006549
 20
0.1552250446750385
 10
0.7902467869846106
 20
0.1552250446750385
 10
0.7902467869846106
 20
0.1280575479141426
 42
-1.960274751411753
  0
LWPOLYLINE
  5
82F
330
4E5
100
AcDbEntity
  8
TEXT
100
AcDbPolyline
 90
        2
 70
     0
 43
0.0
 10
0.7544650962714492
 20
0.1552250446750385
 42
-0.3328679258950098
 10
0.7902467869846106
 20
0.1280575479141426
 42
6.772930709997214
  0
LINE
  5
830
330
4E5
100
AcDbEntity
  8
TEXT
100
AcDbLine
 10
0.9443286365138199
 20
0.1552250446750349
 30
0.0
 11
0.9443286365138199
 21
0.1269024989053911
 31
0.0
  0
LWPOLYLINE
  5
831
330
4E5
100
AcDbEntity
  8
TEXT
100
AcDbPolyline
 90
        2
 70
     0
 43
0.0
 10
0.9085469458006549
 20
0.1552250446750385
 42
-0.3277054968067132
 10
0.9443286365138199
 20
0.1269024989053946
 42
6.667889725900311
  0
LINE
  5
832
330
4E5
100
AcDbEntity
  8
TEXT
100
AcDbLine
 10
1.222017390905421
 20
0.1552250446750349
 30
0.0
 11
1.15812048460592
 21
0.1552250446750349
 31
0.0
  0
ARC
  5
833
330
4E5
100
AcDbEntity
  8
TEXT
100
AcDbCircle
 10
1.077133605953811
 20
0.1136414775541326
 30
0.0
 40
0.0416329381542859
100
AcDbArc
 50
26.56974201007528
 51
87.20939649401342
  0
LINE
  5
834
330
4E5
100
AcDbEntity
  8
TEXT
100
AcDbLine
 10
1.222017390905421
 20
0.1276773948141603
 30
0.0
 11
1.222017390905421
 21
0.1552250446750349
 31
0.0
  0
ARC
  5
835
330
4E5
100
AcDbEntity
  8
TEXT
100
AcDbCircle
 10
1.25321020796853
 20
0.1239793173927701
 30
0.0
 40
0.0314112657011332
100
AcDbArc
 50
95.88484768694724
 51
173.2388340632136
  0
LINE
  5
836
330
4E5
100
AcDbEntity
  8
TEXT
100
AcDbLine
 10
1.507894214829903
 20
0.1552250446750349
 30
0.0
 11
1.432902382100277
 21
0.1552250446750349
 31
0.0
  0
LINE
  5
837
330
4E5
100
AcDbEntity
  8
TEXT
100
AcDbLine
 10
1.317489344995017
 20
0.2206892504426356
 30
0.0
 11
1.31748934499501
 21
0.1552250446750349
 31
0.0
  0
LINE
  5
838
330
4E5
100
AcDbEntity
  8
TEXT
100
AcDbLine
 10
1.38580422354429
 20
0.2206892504426356
 30
0.0
 11
1.317489344995017
 21
0.2206892504426356
 31
0.0
  0
ENDSEC
  0
SECTION
  2
OBJECTS
  0
DICTIONARY
  5
4D9
330
0
100
AcDbDictionary
  3
ACAD_GROUP
350
4DA
  3
ACAD_LAYOUT
350
4FC
  3
ACAD_MLINESTYLE
350
4DB
  3
ACAD_PLOTSETTINGS
350
4FD
  3
ACAD_PLOTSTYLENAME
350
4FA
  3
ACDBHEADERROUNDTRIPXREC
350
842
  3
ACDBVARIABLEDICTIONARY
350
83F
  0
DICTIONARY
  5
6D1
330
4E5
100
AcDbDictionary
280
     1
  3
ACAD_LAYOUTSELFREF
360
863
  0
DICTIONARY
  5
6CF
330
4E2
100
AcDbDictionary
280
     1
  3
ACAD_LAYOUTSELFREF
360
862
  0
DICTIONARY
  5
4DA
102
{ACAD_REACTORS
330
4D9
102
}
330
4D9
100
AcDbDictionary
  3
*A1
350
5ED
  3
*A2
350
676
  3
*A3
350
677
  3
*A4
350
678
  3
*A5
350
679
  0
DICTIONARY
  5
4FC
102
{ACAD_REACTORS
330
4D9
102
}
330
4D9
100
AcDbDictionary
  0
DICTIONARY
  5
4DB
102
{ACAD_REACTORS
330
4D9
102
}
330
4D9
100
AcDbDictionary
  3
STANDARD
350
4E8
  0
DICTIONARY
  5
4FD
102
{ACAD_REACTORS
330
4D9
102
}
330
4D9
100
AcDbDictionary
  0
ACDBDICTIONARYWDFLT
  5
4FA
102
{ACAD_REACTORS
330
4D9
102
}
330
4D9
100
AcDbDictionary
281
     1
  3
Normal
350
4FB
100
AcDbDictionaryWithDefault
340
4FB
  0
DICTIONARY
  5
842
102
{ACAD_REACTORS
330
4D9
102
}
330
4D9
100
AcDbDictionary
  3
CEPSNTYPE
350
84C
  3
FINGERPRINTGUID
350
84D
  3
HYPERLINKBASE
350
845
  3
INSUNITS
350
84B
  3
LAYOUTDICT
350
847
  3
LWETCUNION
350
84A
  3
PLOTSETDICT
350
848
  3
PLOTSTYLNAMDICT
350
849
  3
PSVPSCALE
350
84F
  3
PUCSBASE
350
852
  3
PUCSORGBACK
350
858
  3
PUCSORGBOTTOM
350
854
  3
PUCSORGFRONT
350
857
  3
PUCSORGLEFT
350
855
  3
PUCSORGRIGHT
350
856
  3
PUCSORGTOP
350
853
  3
PUCSORTHOREF
350
850
  3
PUCSORTHOVIEW
350
851
  3
STYLESHEET
350
846
  3
TSTACKALIGN
350
843
  3
TSTACKSIZE
350
844
  3
UCSBASE
350
85B
  3
UCSORGBACK
350
861
  3
UCSORGBOTTOM
350
85D
  3
UCSORGFRONT
350
860
  3
UCSORGLEFT
350
85E
  3
UCSORGRIGHT
350
85F
  3
UCSORGTOP
350
85C
  3
UCSORTHOREF
350
859
  3
UCSORTHOVIEW
350
85A
  3
VERSIONGUID
350
84E
  0
DICTIONARY
  5
83F
102
{ACAD_REACTORS
330
4D9
102
}
330
4D9
100
AcDbDictionary
  3
DIMASSOC
350
840
  0
XRECORD
  5
863
102
{ACAD_REACTORS
330
6D1
102
}
330
6D1
100
AcDbXrecord
340
4E5
  0
XRECORD
  5
862
102
{ACAD_REACTORS
330
6CF
102
}
330
6CF
100
AcDbXrecord
340
4E2
  0
GROUP
  5
5ED
102
{ACAD_REACTORS
330
4DA
102
}
330
4DA
100
AcDbGroup
300
BORDER FRAME 10-1-95
 70
     0
 71
     1
  0
GROUP
  5
676
102
{ACAD_REACTORS
330
4DA
102
}
330
4DA
100
AcDbGroup
300
BORDER FRAME 10-1-95
 70
     3
 71
     1
  0
GROUP
  5
677
102
{ACAD_REACTORS
330
4DA
102
}
330
4DA
100
AcDbGroup
300

 70
     1
 71
     1
  0
GROUP
  5
678
102
{ACAD_REACTORS
330
4DA
102
}
330
4DA
100
AcDbGroup
300

 70
     1
 71
     1
  0
GROUP
  5
679
102
{ACAD_REACTORS
330
4DA
102
}
330
4DA
100
AcDbGroup
300

 70
     1
 71
     1
  0
MLINESTYLE
  5
4E8
102
{ACAD_REACTORS
330
4DB
102
}
330
4DB
100
AcDbMlineStyle
  2
STANDARD
 70
     0
  3

 62
     0
 51
90.0
 52
90.0
 71
     2
 49
0.5
 62
   256
  6
BYLAYER
 49
-0.5
 62
   256
  6
BYLAYER
  0
ACDBPLACEHOLDER
  5
4FB
102
{ACAD_REACTORS
330
4FA
102
}
330
4FA
100
AcDbPlaceHolder
280
     0
  0
XRECORD
  5
84C
102
{ACAD_REACTORS
330
842
102
}
330
842
100
AcDbXrecord
 90
        0
  0
XRECORD
  5
84D
102
{ACAD_REACTORS
330
842
102
}
330
842
100
AcDbXrecord
  1
{BD3CA1A5-E272-11D5-87B0-0090279574E7}
  0
XRECORD
  5
845
102
{ACAD_REACTORS
330
842
102
}
330
842
100
AcDbXrecord
  1

  0
XRECORD
  5
84B
102
{ACAD_REACTORS
330
842
102
}
330
842
100
AcDbXrecord
 90
        0
  0
XRECORD
  5
847
102
{ACAD_REACTORS
330
842
102
}
330
842
100
AcDbXrecord
340
4FC
  0
XRECORD
  5
84A
102
{ACAD_REACTORS
330
842
102
}
330
842
100
AcDbXrecord
 90
    14877
  0
XRECORD
  5
848
102
{ACAD_REACTORS
330
842
102
}
330
842
100
AcDbXrecord
340
4FD
  0
XRECORD
  5
849
102
{ACAD_REACTORS
330
842
102
}
330
842
100
AcDbXrecord
340
4FA
  0
XRECORD
  5
84F
102
{ACAD_REACTORS
330
842
102
}
330
842
100
AcDbXrecord
 40
0.0
  0
XRECORD
  5
852
102
{ACAD_REACTORS
330
842
102
}
330
842
100
AcDbXrecord
340
0
  0
XRECORD
  5
858
102
{ACAD_REACTORS
330
842
102
}
330
842
100
AcDbXrecord
 10
0.0
 20
0.0
 30
0.0
  0
XRECORD
  5
854
102
{ACAD_REACTORS
330
842
102
}
330
842
100
AcDbXrecord
 10
0.0
 20
0.0
 30
0.0
  0
XRECORD
  5
857
102
{ACAD_REACTORS
330
842
102
}
330
842
100
AcDbXrecord
 10
0.0
 20
0.0
 30
0.0
  0
XRECORD
  5
855
102
{ACAD_REACTORS
330
842
102
}
330
842
100
AcDbXrecord
 10
0.0
 20
0.0
 30
0.0
  0
XRECORD
  5
856
102
{ACAD_REACTORS
330
842
102
}
330
842
100
AcDbXrecord
 10
0.0
 20
0.0
 30
0.0
  0
XRECORD
  5
853
102
{ACAD_REACTORS
330
842
102
}
330
842
100
AcDbXrecord
 10
0.0
 20
0.0
 30
0.0
  0
XRECORD
  5
850
102
{ACAD_REACTORS
330
842
102
}
330
842
100
AcDbXrecord
340
0
  0
XRECORD
  5
851
102
{ACAD_REACTORS
330
842
102
}
330
842
100
AcDbXrecord
 70
     0
  0
XRECORD
  5
846
102
{ACAD_REACTORS
330
842
102
}
330
842
100
AcDbXrecord
  1

  0
XRECORD
  5
843
102
{ACAD_REACTORS
330
842
102
}
330
842
100
AcDbXrecord
 90
        1
  0
XRECORD
  5
844
102
{ACAD_REACTORS
330
842
102
}
330
842
100
AcDbXrecord
 90
       70
  0
XRECORD
  5
85B
102
{ACAD_REACTORS
330
842
102
}
330
842
100
AcDbXrecord
340
0
  0
XRECORD
  5
861
102
{ACAD_REACTORS
330
842
102
}
330
842
100
AcDbXrecord
 10
0.0
 20
0.0
 30
0.0
  0
XRECORD
  5
85D
102
{ACAD_REACTORS
330
842
102
}
330
842
100
AcDbXrecord
 10
0.0
 20
0.0
 30
0.0
  0
XRECORD
  5
860
102
{ACAD_REACTORS
330
842
102
}
330
842
100
AcDbXrecord
 10
0.0
 20
0.0
 30
0.0
  0
XRECORD
  5
85E
102
{ACAD_REACTORS
330
842
102
}
330
842
100
AcDbXrecord
 10
0.0
 20
0.0
 30
0.0
  0
XRECORD
  5
85F
102
{ACAD_REACTORS
330
842
102
}
330
842
100
AcDbXrecord
 10
0.0
 20
0.0
 30
0.0
  0
XRECORD
  5
85C
102
{ACAD_REACTORS
330
842
102
}
330
842
100
AcDbXrecord
 10
0.0
 20
0.0
 30
0.0
  0
XRECORD
  5
859
102
{ACAD_REACTORS
330
842
102
}
330
842
100
AcDbXrecord
340
0
  0
XRECORD
  5
85A
102
{ACAD_REACTORS
330
842
102
}
330
842
100
AcDbXrecord
 70
     0
  0
XRECORD
  5
84E
102
{ACAD_REACTORS
330
842
102
}
330
842
100
AcDbXrecord
  1
{9083C672-8DB7-11D6-88E6-0090279574E7}
  0
DICTIONARYVAR
  5
840
102
{ACAD_REACTORS
330
83F
102
}
330
83F
100
DictionaryVariables
280
     0
  1
1
  0
ENDSEC
  0
EOF
