  0
SECTION
  2
HEADER
  9
$ACADVER
  1
AC1014
  9
$ACADMAINTVER
 70
     9
  9
$DWGCODEPAGE
  3
ANSI_1252
  9
$INSBASE
 10
0.0
 20
0.0
 30
0.0
  9
$EXTMIN
 10
10.2122972795464
 20
2.327677541419625
 30
0.0
  9
$EXTMAX
 10
13.69751660129355
 20
4.128484164950243
 30
0.0
  9
$LIMMIN
 10
0.0
 20
0.0
  9
$LIMMAX
 10
18.0
 20
12.0
  9
$ORTHOMODE
 70
     1
  9
$REGENMODE
 70
     1
  9
$FILLMODE
 70
     1
  9
$QTEXTMODE
 70
     0
  9
$MIRRTEXT
 70
     0
  9
$DRAGMODE
 70
     2
  9
$LTSCALE
 40
1.0
  9
$OSMODE
 70
    39
  9
$ATTMODE
 70
     1
  9
$TEXTSIZE
 40
0.125
  9
$TRACEWID
 40
0.05
  9
$TEXTSTYLE
  7
ROMANS
  9
$CLAYER
  8
TEXT
  9
$CELTYPE
  6
BYLAYER
  9
$CECOLOR
 62
   256
  9
$CELTSCALE
 40
1.0
  9
$DELOBJ
 70
     1
  9
$DISPSILH
 70
     1
  9
$DIMSCALE
 40
1.0
  9
$DIMASZ
 40
0.125
  9
$DIMEXO
 40
0.125
  9
$DIMDLI
 40
0.375
  9
$DIMRND
 40
0.0
  9
$DIMDLE
 40
0.0
  9
$DIMEXE
 40
0.125
  9
$DIMTP
 40
0.0
  9
$DIMTM
 40
0.012
  9
$DIMTXT
 40
0.125
  9
$DIMCEN
 40
0.125
  9
$DIMTSZ
 40
0.0
  9
$DIMTOL
 70
     0
  9
$DIMLIM
 70
     0
  9
$DIMTIH
 70
     1
  9
$DIMTOH
 70
     1
  9
$DIMSE1
 70
     0
  9
$DIMSE2
 70
     0
  9
$DIMTAD
 70
     0
  9
$DIMZIN
 70
     4
  9
$DIMBLK
  1

  9
$DIMASO
 70
     1
  9
$DIMSHO
 70
     1
  9
$DIMPOST
  1

  9
$DIMAPOST
  1

  9
$DIMALT
 70
     0
  9
$DIMALTD
 70
     2
  9
$DIMALTF
 40
25.4
  9
$DIMLFAC
 40
0.5
  9
$DIMTOFL
 70
     0
  9
$DIMTVP
 40
0.0
  9
$DIMTIX
 70
     1
  9
$DIMSOXD
 70
     0
  9
$DIMSAH
 70
     0
  9
$DIMBLK1
  1

  9
$DIMBLK2
  1

  9
$DIMSTYLE
  2
STANDARD
  9
$DIMCLRD
 70
     0
  9
$DIMCLRE
 70
     0
  9
$DIMCLRT
 70
     0
  9
$DIMTFAC
 40
1.0
  9
$DIMGAP
 40
0.09
  9
$DIMJUST
 70
     0
  9
$DIMSD1
 70
     0
  9
$DIMSD2
 70
     0
  9
$DIMTOLJ
 70
     1
  9
$DIMTZIN
 70
     0
  9
$DIMALTZ
 70
     0
  9
$DIMALTTZ
 70
     0
  9
$DIMFIT
 70
     3
  9
$DIMUPT
 70
     0
  9
$DIMUNIT
 70
     2
  9
$DIMDEC
 70
     3
  9
$DIMTDEC
 70
     4
  9
$DIMALTU
 70
     2
  9
$DIMALTTD
 70
     2
  9
$DIMTXSTY
  7
ROMANS
  9
$DIMAUNIT
 70
     0
  9
$LUNITS
 70
     2
  9
$LUPREC
 70
     3
  9
$SKETCHINC
 40
0.1
  9
$FILLETRAD
 40
0.0
  9
$AUNITS
 70
     0
  9
$AUPREC
 70
     0
  9
$MENU
  1
AUTOMSTR
  9
$ELEVATION
 40
0.0
  9
$PELEVATION
 40
0.0
  9
$THICKNESS
 40
0.0
  9
$LIMCHECK
 70
     0
  9
$BLIPMODE
 70
     0
  9
$CHAMFERA
 40
0.0
  9
$CHAMFERB
 40
0.0
  9
$CHAMFERC
 40
0.0
  9
$CHAMFERD
 40
0.0
  9
$SKPOLY
 70
     0
  9
$TDCREATE
 40
2448855.658192361
  9
$TDUPDATE
 40
2452458.313134386
  9
$TDINDWG
 40
0.0556732986
  9
$TDUSRTIMER
 40
0.0556732986
  9
$USRTIMER
 70
     1
  9
$ANGBASE
 50
0.0
  9
$ANGDIR
 70
     0
  9
$PDMODE
 70
     0
  9
$PDSIZE
 40
0.0
  9
$PLINEWID
 40
0.0
  9
$COORDS
 70
     2
  9
$SPLFRAME
 70
     0
  9
$SPLINETYPE
 70
     6
  9
$SPLINESEGS
 70
     8
  9
$ATTDIA
 70
     0
  9
$ATTREQ
 70
     1
  9
$HANDLING
 70
 22529
  9
$HANDSEED
  5
74C
  9
$SURFTAB1
 70
     6
  9
$SURFTAB2
 70
     6
  9
$SURFTYPE
 70
     6
  9
$SURFU
 70
     6
  9
$SURFV
 70
     6
  9
$UCSNAME
  2

  9
$UCSORG
 10
0.0
 20
0.0
 30
0.0
  9
$UCSXDIR
 10
1.0
 20
0.0
 30
0.0
  9
$UCSYDIR
 10
0.0
 20
1.0
 30
0.0
  9
$PUCSNAME
  2

  9
$PUCSORG
 10
0.0
 20
0.0
 30
0.0
  9
$PUCSXDIR
 10
1.0
 20
0.0
 30
0.0
  9
$PUCSYDIR
 10
0.0
 20
1.0
 30
0.0
  9
$USERI1
 70
     0
  9
$USERI2
 70
     0
  9
$USERI3
 70
     0
  9
$USERI4
 70
     0
  9
$USERI5
 70
     0
  9
$USERR1
 40
0.0
  9
$USERR2
 40
0.0
  9
$USERR3
 40
0.0
  9
$USERR4
 40
0.0
  9
$USERR5
 40
0.0
  9
$WORLDVIEW
 70
     1
  9
$SHADEDGE
 70
     3
  9
$SHADEDIF
 70
    70
  9
$TILEMODE
 70
     1
  9
$MAXACTVP
 70
    16
  9
$PINSBASE
 10
0.0
 20
0.0
 30
0.0
  9
$PLIMCHECK
 70
     0
  9
$PEXTMIN
 10
1.000000000000000E+20
 20
1.000000000000000E+20
 30
1.000000000000000E+20
  9
$PEXTMAX
 10
-1.000000000000000E+20
 20
-1.000000000000000E+20
 30
-1.000000000000000E+20
  9
$PLIMMIN
 10
0.0
 20
0.0
  9
$PLIMMAX
 10
12.0
 20
9.0
  9
$UNITMODE
 70
     0
  9
$VISRETAIN
 70
     0
  9
$PLINEGEN
 70
     1
  9
$PSLTSCALE
 70
     0
  9
$TREEDEPTH
 70
  3020
  9
$PICKSTYLE
 70
     1
  9
$CMLSTYLE
  2
STANDARD
  9
$CMLJUST
 70
     0
  9
$CMLSCALE
 40
1.0
  9
$PROXYGRAPHICS
 70
     1
  9
$MEASUREMENT
 70
     0
  0
ENDSEC
  0
SECTION
  2
CLASSES
  0
CLASS
  1
LWPOLYLINE
  2
AcDbPolyline
  3
AutoCAD 2000
 90
        0
280
     0
281
     1
  0
CLASS
  1
ACDBDICTIONARYWDFLT
  2
AcDbDictionaryWithDefault
  3
AutoCAD 2000
 90
        0
280
     0
281
     0
  0
CLASS
  1
ACDBPLACEHOLDER
  2
AcDbPlaceHolder
  3
AutoCAD 2000
 90
        0
280
     0
281
     0
  0
CLASS
  1
LAYOUT
  2
AcDbLayout
  3
AutoCAD 2000
 90
        0
280
     0
281
     0
  0
CLASS
  1
DICTIONARYVAR
  2
AcDbDictionaryVar
  3
AutoCAD 2000
 90
        0
280
     0
281
     0
  0
CLASS
  1
LONG_TRANSACTION
  2
AcDbLongTransaction
  3
AutoCAD 2000
 90
        0
280
     0
281
     0
  0
CLASS
  1
LWPOLYLINE
  2
AcDbPolyline
  3
AutoCAD 2000
 90
        0
280
     0
281
     1
  0
CLASS
  1
HATCH
  2
AcDbHatch
  3
AutoCAD 2000
 90
        0
280
     0
281
     1
  0
CLASS
  1
XRECORD
  2
AcDbXrecord
  3
AutoCAD 2000
 90
        0
280
     0
281
     0
  0
ENDSEC
  0
SECTION
  2
TABLES
  0
TABLE
  2
VPORT
  5
8
330
0
100
AcDbSymbolTable
 70
     2
  0
VPORT
  5
727
330
8
100
AcDbSymbolTableRecord
100
AcDbViewportTableRecord
  2
*ACTIVE
 70
     0
 10
0.0
 20
0.0
 11
1.0
 21
1.0
 12
14.87821771895991
 22
3.227783227837392
 13
0.0
 23
0.0
 14
0.015625
 24
0.015625
 15
0.0
 25
0.0
 16
0.0
 26
0.0
 36
1.0
 17
0.0
 27
0.0
 37
0.0
 40
2.164360862952677
 41
4.320930232558139
 42
50.0
 43
0.0
 44
0.0
 50
0.0
 51
0.0
 71
     0
 72
  2000
 73
     1
 74
     1
 75
     0
 76
     0
 77
     0
 78
     0
  0
ENDTAB
  0
TABLE
  2
LTYPE
  5
5
330
0
100
AcDbSymbolTable
 70
     1
  0
LTYPE
  5
12
330
5
100
AcDbSymbolTableRecord
100
AcDbLinetypeTableRecord
  2
BYBLOCK
 70
     0
  3

 72
    65
 73
     0
 40
0.0
  0
LTYPE
  5
13
330
5
100
AcDbSymbolTableRecord
100
AcDbLinetypeTableRecord
  2
BYLAYER
 70
     0
  3

 72
    65
 73
     0
 40
0.0
  0
LTYPE
  5
14
330
5
100
AcDbSymbolTableRecord
100
AcDbLinetypeTableRecord
  2
CONTINUOUS
 70
     0
  3
Solid line
 72
    65
 73
     0
 40
0.0
  0
ENDTAB
  0
TABLE
  2
LAYER
  5
2
330
0
100
AcDbSymbolTable
 70
     2
  0
LAYER
  5
F
330
2
100
AcDbSymbolTableRecord
100
AcDbLayerTableRecord
  2
0
 70
     0
 62
     7
  6
CONTINUOUS
  0
LAYER
  5
2B
330
2
100
AcDbSymbolTableRecord
100
AcDbLayerTableRecord
  2
TEXT
 70
     0
 62
     3
  6
CONTINUOUS
  0
ENDTAB
  0
TABLE
  2
STYLE
  5
3
330
0
100
AcDbSymbolTable
 70
     3
  0
STYLE
  5
10
330
3
100
AcDbSymbolTableRecord
100
AcDbTextStyleTableRecord
  2
STANDARD
 70
     0
 40
0.0
 41
1.0
 50
0.0
 71
     0
 42
0.25
  3
txt
  4

  0
STYLE
  5
614
330
3
100
AcDbSymbolTableRecord
100
AcDbTextStyleTableRecord
  2
ITALICC
 70
     0
 40
0.0
 41
1.0
 50
0.0
 71
     0
 42
0.125
  3
italicc
  4

  0
STYLE
  5
723
330
3
100
AcDbSymbolTableRecord
100
AcDbTextStyleTableRecord
  2
ROMANS
 70
     0
 40
0.0
 41
1.0
 50
0.0
 71
     0
 42
0.125
  3
romans.shx
  4

  0
ENDTAB
  0
TABLE
  2
VIEW
  5
6
330
0
100
AcDbSymbolTable
 70
     0
  0
ENDTAB
  0
TABLE
  2
UCS
  5
7
330
0
100
AcDbSymbolTable
 70
     0
  0
ENDTAB
  0
TABLE
  2
APPID
  5
9
330
0
100
AcDbSymbolTable
 70
     1
  0
APPID
  5
11
330
9
100
AcDbSymbolTableRecord
100
AcDbRegAppTableRecord
  2
ACAD
 70
     0
  0
ENDTAB
  0
TABLE
  2
DIMSTYLE
  5
A
330
0
100
AcDbSymbolTable
 70
     1
  0
DIMSTYLE
105
275
330
A
100
AcDbSymbolTableRecord
100
AcDbDimStyleTableRecord
  2
STANDARD
 70
     0
  3

  4

  5

  6

  7

 40
1.0
 41
0.18
 42
0.0625
 43
0.38
 44
0.18
 45
0.0
 46
0.0
 47
0.0
 48
0.0
140
0.18
141
0.09
142
0.0
143
25.4
144
1.0
145
0.0
146
1.0
147
0.09
 71
     0
 72
     0
 73
     1
 74
     1
 75
     0
 76
     0
 77
     0
 78
     0
170
     0
171
     2
172
     0
173
     0
174
     0
175
     0
176
     0
177
     0
178
     0
270
     2
271
     4
272
     4
273
     2
274
     2
340
10
275
     0
280
     0
281
     0
282
     0
283
     1
284
     0
285
     0
286
     0
287
     3
288
     0
  0
ENDTAB
  0
TABLE
  2
BLOCK_RECORD
  5
1
330
0
100
AcDbSymbolTable
 70
     0
  0
BLOCK_RECORD
  5
18
102
{ACAD_XDICTIONARY
360
74A
102
}
330
1
100
AcDbSymbolTableRecord
100
AcDbBlockTableRecord
  2
*MODEL_SPACE
  0
BLOCK_RECORD
  5
15
102
{ACAD_XDICTIONARY
360
748
102
}
330
1
100
AcDbSymbolTableRecord
100
AcDbBlockTableRecord
  2
*PAPER_SPACE
  0
ENDTAB
  0
ENDSEC
  0
SECTION
  2
BLOCKS
  0
BLOCK
  5
35
330
18
100
AcDbEntity
  8
0
100
AcDbBlockBegin
  2
*MODEL_SPACE
 70
     0
 10
0.0
 20
0.0
 30
0.0
  3
*MODEL_SPACE
  1

  0
ENDBLK
  5
36
330
18
100
AcDbEntity
  8
0
100
AcDbBlockEnd
  0
BLOCK
  5
33
330
15
100
AcDbEntity
 67
     1
  8
0
100
AcDbBlockBegin
  2
*PAPER_SPACE
 70
     0
 10
0.0
 20
0.0
 30
0.0
  3
*PAPER_SPACE
  1

  0
ENDBLK
  5
34
330
15
100
AcDbEntity
 67
     1
  8
0
100
AcDbBlockEnd
  0
ENDSEC
  0
SECTION
  2
ENTITIES
  0
LWPOLYLINE
  5
1B8
330
18
100
AcDbEntity
  8
0
100
AcDbPolyline
 90
       36
 70
     1
 43
0.0
 10
12.78364948375518
 20
3.190984164950243
 10
12.78364948375518
 20
3.253484164950243
 10
12.90864948375518
 20
3.253484164950243
 10
12.90864948375518
 20
3.159734164950243
 42
1.0
 10
12.97114948375518
 20
3.159734164950243
 10
12.97114948375518
 20
3.315984164950243
 10
12.78364948375518
 20
3.315984164950243
 42
0.4142135623730951
 10
12.40864948375518
 20
3.690984164950243
 42
-0.4142135623730951
 10
12.15864948375518
 20
3.940984164950243
 10
12.15864948375518
 20
4.128484164950243
 10
11.78364948375518
 20
4.128484164950243
 10
11.78364948375518
 20
3.940984164950243
 42
-0.414213562373096
 10
11.53364948375518
 20
3.690984164950243
 42
0.4142135623730951
 10
11.15864948375518
 20
3.315984164950243
 10
10.97114948375518
 20
3.315984164950243
 10
10.97114948375518
 20
3.159734164950243
 42
1.0
 10
11.03364948375518
 20
3.159734164950243
 10
11.03364948375518
 20
3.253484164950243
 10
11.15864948375518
 20
3.253484164950243
 10
11.15864948375518
 20
3.190984164950243
 10
11.41702289601865
 20
3.190984164950243
 42
0.2679491924311233
 10
11.44408618988692
 20
3.206609164950243
 10
11.47114948375518
 20
3.253484164950243
 10
11.22114948375518
 20
3.253484164950243
 10
11.22114948375518
 20
3.315984164950243
 42
-0.4142135623730951
 10
11.53364948375518
 20
3.628484164950243
 42
0.4142135623730951
 10
11.84614948375518
 20
3.940984164950243
 10
11.84614948375518
 20
4.065984164950243
 10
12.09614948375518
 20
4.065984164950243
 10
12.09614948375518
 20
3.940984164950243
 42
0.4142135623730951
 10
12.40864948375518
 20
3.628484164950243
 42
-0.4142135623730951
 10
12.72114948375518
 20
3.315984164950243
 10
12.72114948375518
 20
3.253484164950243
 10
12.47114948375518
 20
3.253484164950243
 10
12.49821277762345
 20
3.206609164950243
 42
0.2679491924311233
 10
12.52527607149171
 20
3.190984164950243
  0
LINE
  5
699
330
18
100
AcDbEntity
  8
TEXT
100
AcDbLine
 10
12.06349533024094
 20
2.529753827727599
 30
0.0
 11
12.06349533024094
 21
2.671083359906738
 31
0.0
  0
LINE
  5
69A
330
18
100
AcDbEntity
  8
TEXT
100
AcDbLine
 10
12.11059348879693
 20
2.605619154139137
 30
0.0
 11
12.06349533024094
 21
2.529753827727599
 31
0.0
  0
LINE
  5
69B
330
18
100
AcDbEntity
  8
TEXT
100
AcDbLine
 10
12.12102820556085
 20
2.495725911198164
 30
0.0
 11
12.18558532152655
 21
2.605619154139137
 31
0.0
  0
TEXT
  5
69C
330
18
100
AcDbEntity
  8
TEXT
100
AcDbText
 10
12.36858401702386
 20
2.525290356762415
 30
0.0
 40
0.0522247191011236
  1
6536 Main St. N.E. * P.O. Box 32008
 41
0.8388932496075355
 72
     5
 11
13.69751660129353
 21
2.525290356762415
 31
0.0
100
AcDbText
  0
ARC
  5
69D
330
18
100
AcDbEntity
  8
TEXT
100
AcDbCircle
 10
11.9230123577256
 20
2.516436584199709
 30
0.0
 40
0.0249058752826653
100
AcDbArc
 50
89.99971217465335
 51
179.9999999999985
  0
LINE
  5
69E
330
18
100
AcDbEntity
  8
TEXT
100
AcDbLine
 10
11.83581159130257
 20
2.50040717558571
 30
0.0
 11
11.79206082012067
 21
2.582657451581855
 31
0.0
  0
LINE
  5
69F
330
18
100
AcDbEntity
  8
TEXT
100
AcDbLine
 10
11.83581159130257
 20
2.605619154139137
 30
0.0
 11
11.83581159130257
 21
2.50040717558571
 31
0.0
  0
ARC
  5
6A0
330
18
100
AcDbEntity
  8
TEXT
100
AcDbCircle
 10
11.72782075408305
 20
2.512983084482375
 30
0.0
 40
0.028359375
100
AcDbArc
 50
25.78218179591245
 51
90.0
  0
LINE
  5
6A1
330
18
100
AcDbEntity
  8
TEXT
100
AcDbLine
 10
11.26582629289931
 20
2.421533959253626
 30
0.0
 11
11.26582629289931
 21
2.673630631877948
 31
0.0
  0
LINE
  5
6A2
330
18
100
AcDbEntity
  8
TEXT
100
AcDbLine
 10
11.29813814703696
 20
2.605619154139137
 30
0.0
 11
11.29813814703696
 21
2.404754947406729
 31
0.0
  0
LINE
  5
6A3
330
18
100
AcDbEntity
  8
TEXT
100
AcDbLine
 10
11.16889566753956
 20
2.605619154139137
 30
0.0
 11
11.1101471047337
 21
2.504747158026017
 31
0.0
  0
LINE
  5
6A4
330
18
100
AcDbEntity
  8
TEXT
100
AcDbLine
 10
11.1101471047337
 20
2.504747158026017
 30
0.0
 11
11.05151678370176
 21
2.605619154139137
 31
0.0
  0
ARC
  5
6A5
330
18
100
AcDbEntity
  8
TEXT
100
AcDbCircle
 10
10.74394345981533
 20
2.523531694692636
 30
0.0
 40
0.0820874594465043
100
AcDbArc
 50
90.0
 51
270.0
  0
LWPOLYLINE
  5
6A6
330
18
100
AcDbEntity
  8
TEXT
100
AcDbPolyline
 90
        2
 70
     0
 43
0.0001332181640625
 10
10.33585712671437
 20
2.532349163904761
 10
10.32586576440968
 20
2.605619154139141
  0
LWPOLYLINE
  5
6A7
330
18
100
AcDbEntity
  8
TEXT
100
AcDbPolyline
 90
        2
 70
     0
 43
0.0001332181640625
 10
10.32586576440968
 20
2.57897552132664
 10
10.33585712671437
 20
2.519027347498514
  0
LWPOLYLINE
  5
6A8
330
18
100
AcDbEntity
  8
TEXT
100
AcDbPolyline
 90
        2
 70
     0
 43
0.0001332181640625
 10
10.36583121362843
 20
2.57897552132664
 10
10.35583985132374
 20
2.519027347498514
  0
LWPOLYLINE
  5
6A9
330
18
100
AcDbEntity
  8
TEXT
100
AcDbPolyline
 90
        2
 70
     0
 43
0.0001332181640625
 10
10.36583121362843
 20
2.605619154139141
 10
10.35583985132374
 20
2.532349163904761
  0
LWPOLYLINE
  5
6AA
330
18
100
AcDbEntity
  8
TEXT
100
AcDbPolyline
 90
        3
 70
     0
 43
0.0006660908203125
 10
10.47906665308156
 20
2.492383714686013
 10
10.47906665308156
 20
2.605619154139141
 10
10.36583121362843
 20
2.605619154139141
  0
LWPOLYLINE
  5
6AB
330
18
100
AcDbEntity
  8
TEXT
100
AcDbPolyline
 90
        3
 70
     0
 43
0.0006660908203125
 10
10.45242302026905
 20
2.492383714686013
 10
10.45242302026905
 20
2.57897552132664
 10
10.36583121362843
 20
2.57897552132664
  0
LWPOLYLINE
  5
6AC
330
18
100
AcDbEntity
  8
TEXT
100
AcDbPolyline
 90
        2
 70
     0
 43
0.0001332181640625
 10
10.45242302026905
 20
2.57897552132664
 10
10.39247484644093
 20
2.519027347498514
  0
LWPOLYLINE
  5
6AD
330
18
100
AcDbEntity
  8
TEXT
100
AcDbPolyline
 90
        2
 70
     0
 43
0.0001332181640625
 10
10.23927395776905
 20
2.57897552132664
 10
10.29922213159718
 20
2.519027347498514
  0
LWPOLYLINE
  5
6AE
330
18
100
AcDbEntity
  8
TEXT
100
AcDbPolyline
 90
        3
 70
     0
 43
0.0006660908203125
 10
10.32586576440968
 20
2.605619154139141
 10
10.21263032495655
 20
2.605619154139141
 10
10.21263032495655
 20
2.492383714686013
  0
LWPOLYLINE
  5
6AF
330
18
100
AcDbEntity
  8
TEXT
100
AcDbPolyline
 90
        3
 70
     0
 43
0.0006660908203125
 10
10.32586576440968
 20
2.57897552132664
 10
10.23927395776905
 20
2.57897552132664
 10
10.23927395776905
 20
2.492383714686013
  0
LINE
  5
6B0
330
18
100
AcDbEntity
  8
TEXT
100
AcDbLine
 10
10.81478092617388
 20
2.505537737871744
 30
0.0
 11
10.74918078992958
 21
2.505537737871744
 31
0.0
  0
LINE
  5
6B1
330
18
100
AcDbEntity
  8
TEXT
100
AcDbLine
 10
10.74394345981533
 20
2.44144423524613
 30
0.0
 11
10.81972130008016
 21
2.44144423524613
 31
0.0
  0
LINE
  5
6B2
330
18
100
AcDbEntity
  8
TEXT
100
AcDbLine
 10
10.66185600036883
 20
2.339146121150626
 30
0.0
 11
10.81478092617388
 21
2.339146121150626
 31
0.0
  0
LINE
  5
6B3
330
18
100
AcDbEntity
  8
TEXT
100
AcDbLine
 10
10.81972130008016
 20
2.407503127484066
 30
0.0
 11
10.66185600036883
 21
2.407503127484066
 31
0.0
  0
LINE
  5
6B4
330
18
100
AcDbEntity
  8
TEXT
100
AcDbLine
 10
10.74918078992958
 20
2.541342459482372
 30
0.0
 11
10.91608644395855
 21
2.541342459482372
 31
0.0
  0
LWPOLYLINE
  5
6B5
330
18
100
AcDbEntity
  8
TEXT
100
AcDbPolyline
 90
        2
 70
     0
 43
0.0006660908203125
 10
10.45242302026905
 20
2.492383714686013
 10
10.47906665308156
 20
2.492383714686013
  0
LWPOLYLINE
  5
6B6
330
18
100
AcDbEntity
  8
TEXT
100
AcDbPolyline
 90
        2
 70
     0
 43
0.0001332181640625
 10
10.40579666284718
 20
2.482392352381324
 10
10.47906665308156
 20
2.492383714686013
  0
LWPOLYLINE
  5
6B7
330
18
100
AcDbEntity
  8
TEXT
100
AcDbPolyline
 90
        2
 70
     0
 43
0.0006660908203125
 10
10.45242302026905
 20
2.452418265467265
 10
10.47906665308156
 20
2.452418265467265
  0
LWPOLYLINE
  5
6B8
330
18
100
AcDbEntity
  8
TEXT
100
AcDbPolyline
 90
        3
 70
     0
 43
0.0006660908203125
 10
10.36583121362843
 20
2.339182826014138
 10
10.47906665308156
 20
2.339182826014138
 10
10.47906665308156
 20
2.452418265467265
  0
LWPOLYLINE
  5
6B9
330
18
100
AcDbEntity
  8
TEXT
100
AcDbPolyline
 90
        2
 70
     0
 43
0.0001332181640625
 10
10.47906665308156
 20
2.452418265467265
 10
10.40579666284718
 20
2.46240962777195
  0
LWPOLYLINE
  5
6BA
330
18
100
AcDbEntity
  8
TEXT
100
AcDbPolyline
 90
        3
 70
     0
 43
0.0006660908203125
 10
10.21263032495655
 20
2.452418265467265
 10
10.21263032495655
 20
2.339182826014138
 10
10.32586576440968
 20
2.339182826014138
  0
LWPOLYLINE
  5
6BB
330
18
100
AcDbEntity
  8
TEXT
100
AcDbPolyline
 90
        3
 70
     0
 43
0.0006660908203125
 10
10.23927395776905
 20
2.452418265467265
 10
10.23927395776905
 20
2.365826458826639
 10
10.32586576440968
 20
2.365826458826639
  0
LWPOLYLINE
  5
6BC
330
18
100
AcDbEntity
  8
TEXT
100
AcDbPolyline
 90
        5
 70
     0
 43
0.0001332181640625
 10
10.33585712671437
 20
2.412452816248514
 10
10.33585712671437
 20
2.425774632654764
 10
10.29922213159718
 20
2.425774632654764
 10
10.29922213159718
 20
2.46240962777195
 10
10.28590031519093
 20
2.46240962777195
  0
LWPOLYLINE
  5
6BD
330
18
100
AcDbEntity
  8
TEXT
100
AcDbPolyline
 90
        5
 70
     0
 43
0.0001332181640625
 10
10.28590031519093
 20
2.482392352381324
 10
10.29922213159718
 20
2.482392352381324
 10
10.29922213159718
 20
2.519027347498514
 10
10.33585712671437
 20
2.519027347498514
 10
10.33585712671437
 20
2.532349163904761
  0
LWPOLYLINE
  5
6BE
330
18
100
AcDbEntity
  8
TEXT
100
AcDbPolyline
 90
        2
 70
     0
 43
0.0001332181640625
 10
10.23927395776905
 20
2.492383714686013
 10
10.29922213159718
 20
2.482392352381324
  0
LWPOLYLINE
  5
6BF
330
18
100
AcDbEntity
  8
TEXT
100
AcDbPolyline
 90
        2
 70
     0
 43
0.0001332181640625
 10
10.21263032495655
 20
2.492383714686013
 10
10.28590031519093
 20
2.482392352381324
  0
LWPOLYLINE
  5
6C0
330
18
100
AcDbEntity
  8
TEXT
100
AcDbPolyline
 90
        2
 70
     0
 43
0.0006660908203125
 10
10.23927395776905
 20
2.492383714686013
 10
10.21263032495655
 20
2.492383714686013
  0
LWPOLYLINE
  5
6C1
330
18
100
AcDbEntity
  8
TEXT
100
AcDbPolyline
 90
        2
 70
     0
 43
0.0001332181640625
 10
10.23927395776905
 20
2.365826458826639
 10
10.29922213159718
 20
2.425774632654764
  0
LWPOLYLINE
  5
6C2
330
18
100
AcDbEntity
  8
TEXT
100
AcDbPolyline
 90
        2
 70
     0
 43
0.0006660908203125
 10
10.23927395776905
 20
2.452418265467265
 10
10.21263032495655
 20
2.452418265467265
  0
LWPOLYLINE
  5
6C3
330
18
100
AcDbEntity
  8
TEXT
100
AcDbPolyline
 90
        2
 70
     0
 43
0.0001332181640625
 10
10.28590031519093
 20
2.46240962777195
 10
10.21263032495655
 20
2.452418265467265
  0
LWPOLYLINE
  5
6C4
330
18
100
AcDbEntity
  8
TEXT
100
AcDbPolyline
 90
        2
 70
     0
 43
0.0001332181640625
 10
10.23927395776905
 20
2.452418265467265
 10
10.29922213159718
 20
2.46240962777195
  0
LWPOLYLINE
  5
6C5
330
18
100
AcDbEntity
  8
TEXT
100
AcDbPolyline
 90
        5
 70
     0
 43
0.0001332181640625
 10
10.35583985132374
 20
2.532349163904761
 10
10.35583985132374
 20
2.519027347498514
 10
10.39247484644093
 20
2.519027347498514
 10
10.39247484644093
 20
2.482392352381324
 10
10.40579666284718
 20
2.482392352381324
  0
LWPOLYLINE
  5
6C6
330
18
100
AcDbEntity
  8
TEXT
100
AcDbPolyline
 90
        2
 70
     0
 43
0.0001332181640625
 10
10.45242302026905
 20
2.492383714686013
 10
10.39247484644093
 20
2.482392352381324
  0
LWPOLYLINE
  5
6C7
330
18
100
AcDbEntity
  8
TEXT
100
AcDbPolyline
 90
        2
 70
     0
 43
0.0006660908203125
 10
10.32586576440968
 20
2.365826458826639
 10
10.32586576440968
 20
2.339182826014138
  0
LWPOLYLINE
  5
6C8
330
18
100
AcDbEntity
  8
TEXT
100
AcDbPolyline
 90
        2
 70
     0
 43
0.0001332181640625
 10
10.32586576440968
 20
2.365826458826639
 10
10.33585712671437
 20
2.425774632654764
  0
LWPOLYLINE
  5
6C9
330
18
100
AcDbEntity
  8
TEXT
100
AcDbPolyline
 90
        2
 70
     0
 43
0.0001332181640625
 10
10.32586576440968
 20
2.339182826014138
 10
10.33585712671437
 20
2.412452816248514
  0
LWPOLYLINE
  5
6CA
330
18
100
AcDbEntity
  8
TEXT
100
AcDbPolyline
 90
        2
 70
     0
 43
0.0001332181640625
 10
10.36583121362843
 20
2.365826458826639
 10
10.35583985132374
 20
2.425774632654764
  0
LWPOLYLINE
  5
6CB
330
18
100
AcDbEntity
  8
TEXT
100
AcDbPolyline
 90
        2
 70
     0
 43
0.0001332181640625
 10
10.35583985132374
 20
2.412452816248514
 10
10.36583121362843
 20
2.339182826014138
  0
LWPOLYLINE
  5
6CC
330
18
100
AcDbEntity
  8
TEXT
100
AcDbPolyline
 90
        2
 70
     0
 43
0.0006660908203125
 10
10.36583121362843
 20
2.365826458826639
 10
10.36583121362843
 20
2.339182826014138
  0
LWPOLYLINE
  5
6CD
330
18
100
AcDbEntity
  8
TEXT
100
AcDbPolyline
 90
        2
 70
     0
 43
0.0001332181640625
 10
10.45242302026905
 20
2.365826458826639
 10
10.39247484644093
 20
2.425774632654764
  0
LWPOLYLINE
  5
6CE
330
18
100
AcDbEntity
  8
TEXT
100
AcDbPolyline
 90
        3
 70
     0
 43
0.0006660908203125
 10
10.36583121362843
 20
2.365826458826639
 10
10.45242302026905
 20
2.365826458826639
 10
10.45242302026905
 20
2.452418265467265
  0
LWPOLYLINE
  5
6CF
330
18
100
AcDbEntity
  8
TEXT
100
AcDbPolyline
 90
        2
 70
     0
 43
0.0001332181640625
 10
10.45242302026905
 20
2.452418265467265
 10
10.39247484644093
 20
2.46240962777195
  0
LWPOLYLINE
  5
6D0
330
18
100
AcDbEntity
  8
TEXT
100
AcDbPolyline
 90
        5
 70
     0
 43
0.0001332181640625
 10
10.40579666284718
 20
2.46240962777195
 10
10.39247484644093
 20
2.46240962777195
 10
10.39247484644093
 20
2.425774632654764
 10
10.35583985132374
 20
2.425774632654764
 10
10.35583985132374
 20
2.412452816248514
  0
ARC
  5
6D1
330
18
100
AcDbEntity
  8
TEXT
100
AcDbCircle
 10
10.74918078992958
 20
2.52344009867706
 30
0.0
 40
0.017902360805315
100
AcDbArc
 50
90.0
 51
270.0
  0
LINE
  5
6D2
330
18
100
AcDbEntity
  8
TEXT
100
AcDbLine
 10
10.66185600036883
 20
2.407503127484066
 30
0.0
 11
10.66185600036883
 21
2.339146121150626
 31
0.0
  0
TEXT
  5
6D3
330
18
100
AcDbEntity
  8
TEXT
100
AcDbText
 10
12.36858401702386
 20
2.33877350282983
 30
0.0
 40
0.0522247191011236
  1
Phone  1-800-328-2495
 41
1.272321428571429
 72
     5
 11
13.69751660129353
 21
2.33877350282983
 31
0.0
100
AcDbText
  0
TEXT
  5
6D4
330
18
100
AcDbEntity
  8
TEXT
100
AcDbText
 10
12.36858401702386
 20
2.432031929796123
 30
0.0
 40
0.0522247191011236
  1
Minneapolis, MN 55432-0008
 41
1.11444212721585
 72
     5
 11
13.69751660129353
 21
2.432031929796123
 31
0.0
100
AcDbText
  0
LINE
  5
6D5
330
18
100
AcDbEntity
  8
TEXT
100
AcDbLine
 10
11.92301235772561
 20
2.541342459482372
 30
0.0
 11
11.99966033901816
 21
2.541342459482372
 31
0.0
  0
LINE
  5
6D6
330
18
100
AcDbEntity
  8
TEXT
100
AcDbLine
 10
11.36496920009493
 20
2.541342459482372
 30
0.0
 11
11.41480447991808
 21
2.541342459482372
 31
0.0
  0
ARC
  5
6D7
330
18
100
AcDbEntity
  8
TEXT
100
AcDbCircle
 10
11.06650330782453
 20
2.378693843424322
 30
0.0
 40
0.0392772371940762
100
AcDbArc
 50
270.1604552698595
 51
330.0831797321295
  0
ARC
  5
6D8
330
18
100
AcDbEntity
  8
TEXT
100
AcDbCircle
 10
10.9762024619323
 20
2.398938512488676
 30
0.0
 40
0.0601160179737537
100
AcDbArc
 50
180.0000000000003
 51
264.0521544866073
  0
LINE
  5
6D9
330
18
100
AcDbEntity
  8
TEXT
100
AcDbLine
 10
10.91608644395855
 20
2.541342459482372
 30
0.0
 11
10.91608644395855
 21
2.398938512488676
 31
0.0
  0
ARC
  5
6DA
330
18
100
AcDbEntity
  8
TEXT
100
AcDbCircle
 10
10.81972130008016
 20
2.4244736813651
 30
0.0
 40
0.0169705538810321
100
AcDbArc
 50
270.0
 51
90.0
  0
ARC
  5
6DB
330
18
100
AcDbEntity
  8
TEXT
100
AcDbCircle
 10
10.81478092617388
 20
2.422341929511183
 30
0.0
 40
0.0831958083605586
100
AcDbArc
 50
270.0
 51
90.0
  0
LWPOLYLINE
  5
6DC
330
18
100
AcDbEntity
  8
TEXT
100
AcDbPolyline
 90
        6
 70
     1
 43
0.0
 10
11.01249685501381
 20
2.541342459482372
 10
10.9821802607936
 20
2.541342459482372
 10
10.9821802607936
 20
2.418231461427478
 42
0.407328721240804
 10
10.99372391195507
 20
2.406412546751091
 10
11.05434561099981
 20
2.406412546751091
 10
11.07181095140712
 20
2.439224775794571
  0
LINE
  5
6DD
330
18
100
AcDbEntity
  8
TEXT
100
AcDbLine
 10
10.96997305143866
 20
2.339146121150626
 30
0.0
 11
11.06661330251365
 21
2.339416760248909
 31
0.0
  0
LWPOLYLINE
  5
6DE
330
18
100
AcDbEntity
  8
TEXT
100
AcDbPolyline
 90
        2
 70
     0
 43
0.0
 10
11.19784657383019
 20
2.390697463365555
 42
0.3318488747599744
 10
11.2669658663955
 20
2.339146121150626
 42
-6.868794160588311
  0
LINE
  5
6DF
330
18
100
AcDbEntity
  8
TEXT
100
AcDbLine
 10
11.19784657383019
 20
2.523454838190907
 30
0.0
 11
11.19784657383019
 21
2.390697463365551
 31
0.0
  0
LINE
  5
6E0
330
18
100
AcDbEntity
  8
TEXT
100
AcDbLine
 10
11.10054686773674
 20
2.359104627255639
 30
0.0
 11
11.19784657383019
 21
2.523454838190907
 31
0.0
  0
ARC
  5
6E1
330
18
100
AcDbEntity
  8
TEXT
100
AcDbCircle
 10
11.28114451015236
 20
2.420136753650155
 30
0.0
 40
0.0153818062434269
100
AcDbArc
 50
174.7883570302258
 51
270.0
  0
LINE
  5
6E2
330
18
100
AcDbEntity
  8
TEXT
100
AcDbLine
 10
11.29813814703696
 20
2.404754947406729
 30
0.0
 11
11.28114451015236
 21
2.404754947406729
 31
0.0
  0
LINE
  5
6E3
330
18
100
AcDbEntity
  8
TEXT
100
AcDbLine
 10
11.2669658663955
 20
2.339146121150626
 30
0.0
 11
11.36496920009493
 21
2.339146121150626
 31
0.0
  0
LINE
  5
6E4
330
18
100
AcDbEntity
  8
TEXT
100
AcDbLine
 10
11.36496920009493
 20
2.339146121150626
 30
0.0
 11
11.36496920009493
 21
2.541342459482372
 31
0.0
  0
LINE
  5
6E5
330
18
100
AcDbEntity
  8
TEXT
100
AcDbLine
 10
11.72782075408305
 20
2.541342459482372
 30
0.0
 11
11.62061448069576
 21
2.541342459482372
 31
0.0
  0
LINE
  5
6E6
330
18
100
AcDbEntity
  8
TEXT
100
AcDbLine
 10
11.68133383960379
 20
2.50406748602024
 30
0.0
 11
11.76362182938718
 21
2.50406748602024
 31
0.0
  0
LWPOLYLINE
  5
6E7
330
18
100
AcDbEntity
  8
TEXT
100
AcDbPolyline
 90
        4
 70
     1
 43
0.0
 10
11.77655287067007
 20
2.442110099134652
 10
11.68789255201022
 20
2.442110099134652
 42
0.9999999999999998
 10
11.68789255201022
 20
2.399711558630791
 10
11.77655287067007
 20
2.399711558630791
 42
1.0
  0
LWPOLYLINE
  5
6E8
330
18
100
AcDbEntity
  8
TEXT
100
AcDbPolyline
 90
        2
 70
     0
 43
0.0
 10
11.66265791810859
 20
2.339146121150626
 10
11.79667533573997
 20
2.339146121150626
 42
0.9999999999999998
  0
LINE
  5
6E9
330
18
100
AcDbEntity
  8
TEXT
100
AcDbLine
 10
11.48941631586603
 20
2.541342459482372
 30
0.0
 11
11.54354991278699
 21
2.541342459482372
 31
0.0
  0
LINE
  5
6EA
330
18
100
AcDbEntity
  8
TEXT
100
AcDbLine
 10
11.4223582690842
 20
2.339146121150626
 30
0.0
 11
11.48941631586603
 21
2.339146121150626
 31
0.0
  0
LINE
  5
6EB
330
18
100
AcDbEntity
  8
TEXT
100
AcDbLine
 10
11.48941631586603
 20
2.339146121150626
 30
0.0
 11
11.48941631586603
 21
2.541342459482372
 31
0.0
  0
LINE
  5
6EC
330
18
100
AcDbEntity
  8
TEXT
100
AcDbLine
 10
11.4223582690842
 20
2.533788670316262
 30
0.0
 11
11.4223582690842
 21
2.339146121150626
 31
0.0
  0
LWPOLYLINE
  5
6ED
330
18
100
AcDbEntity
  8
TEXT
100
AcDbPolyline
 90
        2
 70
     0
 43
0.0
 10
11.41480447991808
 20
2.541342459482372
 42
-0.4142135623731017
 10
11.42235826908419
 20
2.533788670316262
 42
-0.9999999999999998
  0
LINE
  5
6EE
330
18
100
AcDbEntity
  8
TEXT
100
AcDbLine
 10
11.62061448069576
 20
2.541342459482372
 30
0.0
 11
11.62061448069576
 21
2.466290053408165
 31
0.0
  0
ARC
  5
6EF
330
18
100
AcDbEntity
  8
TEXT
100
AcDbCircle
 10
11.68133383960379
 20
2.436381904876121
 30
0.0
 40
0.0676855811441166
100
AcDbArc
 50
90.0
 51
153.7768192527749
  0
LWPOLYLINE
  5
6F0
330
18
100
AcDbEntity
  8
TEXT
100
AcDbPolyline
 90
        2
 70
     0
 43
0.0
 10
11.61958198524095
 20
2.382637066101064
 42
0.2901071551932823
 10
11.66265791810859
 20
2.339146121150626
 42
5.328517124445801
  0
LWPOLYLINE
  5
6F1
330
18
100
AcDbEntity
  8
TEXT
100
AcDbPolyline
 90
        2
 70
     0
 43
0.0
 10
11.54354991278698
 20
2.541342459482372
 42
-0.4142135623731017
 10
11.5511037019531
 20
2.533788670316262
 42
-0.9999999999999998
  0
LWPOLYLINE
  5
6F2
330
18
100
AcDbEntity
  8
TEXT
100
AcDbPolyline
 90
        4
 70
     0
 43
0.0
 10
11.5511037019531
 20
2.533788670316262
 10
11.5511037019531
 20
2.339146121150626
 10
11.61958198524095
 20
2.339146121150626
 10
11.61958198524095
 20
2.382637066101064
 42
-1.714843617202739
  0
LWPOLYLINE
  5
6F3
330
18
100
AcDbEntity
  8
TEXT
100
AcDbPolyline
 90
        2
 70
     0
 43
0.0
 10
11.83975126860761
 20
2.382637066101064
 42
-0.2901071551932486
 10
11.79667533573997
 20
2.339146121150626
 42
-5.328517124445184
  0
LWPOLYLINE
  5
6F4
330
18
100
AcDbEntity
  8
TEXT
100
AcDbPolyline
 90
        2
 70
     0
 43
0.0
 10
11.83975126860761
 20
2.339146121150626
 10
11.89810648244294
 20
2.339146121150626
  0
LWPOLYLINE
  5
6F5
330
18
100
AcDbEntity
  8
TEXT
100
AcDbPolyline
 90
        2
 70
     0
 43
0.0
 10
11.83975126860761
 20
2.382637066101064
 10
11.83975126860761
 20
2.339146121150626
  0
LINE
  5
6F6
330
18
100
AcDbEntity
  8
TEXT
100
AcDbLine
 10
11.76362182938718
 20
2.50406748602024
 30
0.0
 11
11.75335706897361
 21
2.525318025592934
 31
0.0
  0
LINE
  5
6F7
330
18
100
AcDbEntity
  8
TEXT
100
AcDbLine
 10
11.89810648244295
 20
2.339146121150626
 30
0.0
 11
11.89810648244294
 21
2.516436626582095
 31
0.0
  0
LINE
  5
6F8
330
18
100
AcDbEntity
  8
TEXT
100
AcDbLine
 10
12.21652042892446
 20
2.339146121150626
 30
0.0
 11
12.12102820556085
 21
2.495725911198164
 31
0.0
  0
LINE
  5
6F9
330
18
100
AcDbEntity
  8
TEXT
100
AcDbLine
 10
12.13994205654825
 20
2.339146121150626
 30
0.0
 11
12.21652042892446
 21
2.339146121150626
 31
0.0
  0
LINE
  5
6FA
330
18
100
AcDbEntity
  8
TEXT
100
AcDbLine
 10
11.99966033901817
 20
2.339146121150626
 30
0.0
 11
12.06403852333679
 21
2.339146121150626
 31
0.0
  0
LINE
  5
6FB
330
18
100
AcDbEntity
  8
TEXT
100
AcDbLine
 10
11.99966033901816
 20
2.541342459482372
 30
0.0
 11
11.99966033901817
 21
2.339146121150626
 31
0.0
  0
LINE
  5
6FC
330
18
100
AcDbEntity
  8
TEXT
100
AcDbLine
 10
12.06403852333679
 20
2.470725689626807
 30
0.0
 11
12.13994205654825
 21
2.339146121150626
 31
0.0
  0
LINE
  5
6FD
330
18
100
AcDbEntity
  8
TEXT
100
AcDbLine
 10
12.06403852333679
 20
2.339146121150626
 30
0.0
 11
12.06403852333679
 21
2.470725689626807
 31
0.0
  0
LINE
  5
6FE
330
18
100
AcDbEntity
  8
TEXT
100
AcDbLine
 10
10.91967521271384
 20
2.605619154139137
 30
0.0
 11
10.74394345981533
 21
2.605619154139137
 31
0.0
  0
LWPOLYLINE
  5
6FF
330
18
100
AcDbEntity
  8
TEXT
100
AcDbPolyline
 90
        2
 70
     0
 43
0.0006660908203125
 10
10.32586576440968
 20
2.57897552132664
 10
10.32586576440968
 20
2.605619154139141
  0
LWPOLYLINE
  5
700
330
18
100
AcDbEntity
  8
TEXT
100
AcDbPolyline
 90
        2
 70
     0
 43
0.0006660908203125
 10
10.36583121362843
 20
2.57897552132664
 10
10.36583121362843
 20
2.605619154139141
  0
TEXT
  5
701
330
18
100
AcDbEntity
  8
TEXT
100
AcDbText
 10
12.36858401702386
 20
2.618548783728707
 30
0.0
 40
0.0522247191011236
  1
Stylmark  Incorporated
 41
1.221428571428571
 72
     5
 11
13.69751660129353
 21
2.618548783728707
 31
0.0
100
AcDbText
  0
LINE
  5
702
330
18
100
AcDbEntity
  8
TEXT
100
AcDbLine
 10
11.99518045169166
 20
2.605619154139137
 30
0.0
 11
11.92768073404215
 21
2.605619154139137
 31
0.0
  0
TEXT
  5
703
330
18
100
AcDbEntity
  8
TEXT
100
AcDbText
 10
11.20230266829735
 20
2.785696145502206
 30
0.0
 40
0.125
  1
PART #110469
  7
ITALICC
 72
     1
 11
11.95527885877354
 21
2.785696145502206
 31
0.0
100
AcDbText
  0
LINE
  5
704
330
18
100
AcDbEntity
  8
TEXT
100
AcDbLine
 10
11.4321562029681
 20
2.605619154139137
 30
0.0
 11
11.29813814703696
 21
2.605619154139137
 31
0.0
  0
LINE
  5
705
330
18
100
AcDbEntity
  8
TEXT
100
AcDbLine
 10
10.97971781755785
 20
2.640007071733275
 30
0.0
 11
10.91967521271384
 21
2.640007071733275
 31
0.0
  0
LINE
  5
706
330
18
100
AcDbEntity
  8
TEXT
100
AcDbLine
 10
10.91967521271384
 20
2.640007071733275
 30
0.0
 11
10.91967521271384
 21
2.605619154139137
 31
0.0
  0
LINE
  5
707
330
18
100
AcDbEntity
  8
TEXT
100
AcDbLine
 10
11.05151678370176
 20
2.605619154139137
 30
0.0
 11
10.97971781755785
 21
2.605619154139137
 31
0.0
  0
LINE
  5
708
330
18
100
AcDbEntity
  8
TEXT
100
AcDbLine
 10
10.97971781755785
 20
2.605619154139137
 30
0.0
 11
10.97971781755785
 21
2.640007071733275
 31
0.0
  0
LINE
  5
709
330
18
100
AcDbEntity
  8
TEXT
100
AcDbLine
 10
11.26582629289931
 20
2.673630631877948
 30
0.0
 11
11.19901758033294
 21
2.673630631877948
 31
0.0
  0
LINE
  5
70A
330
18
100
AcDbEntity
  8
TEXT
100
AcDbLine
 10
11.19901758033294
 20
2.605619154139137
 30
0.0
 11
11.16889566753956
 21
2.605619154139137
 31
0.0
  0
LINE
  5
70B
330
18
100
AcDbEntity
  8
TEXT
100
AcDbLine
 10
11.19901758033294
 20
2.673630631877948
 30
0.0
 11
11.19901758033294
 21
2.605619154139137
 31
0.0
  0
LINE
  5
70C
330
18
100
AcDbEntity
  8
TEXT
100
AcDbLine
 10
11.75685165242753
 20
2.605619154139137
 30
0.0
 11
11.62201974321047
 21
2.605619154139137
 31
0.0
  0
LWPOLYLINE
  5
70D
330
18
100
AcDbEntity
  8
TEXT
100
AcDbPolyline
 90
        3
 70
     0
 43
0.0
 10
11.58623805249731
 20
2.605619154139141
 10
11.46793789368126
 20
2.605619154139141
 10
11.46793789368126
 20
2.578451657378245
 42
-1.960274751411753
  0
LWPOLYLINE
  5
70E
330
18
100
AcDbEntity
  8
TEXT
100
AcDbPolyline
 90
        2
 70
     0
 43
0.0
 10
11.4321562029681
 20
2.605619154139141
 42
-0.3328679258950098
 10
11.46793789368126
 20
2.578451657378245
 42
6.772930709997214
  0
LINE
  5
70F
330
18
100
AcDbEntity
  8
TEXT
100
AcDbLine
 10
11.62201974321047
 20
2.605619154139137
 30
0.0
 11
11.62201974321047
 21
2.577296608369493
 31
0.0
  0
LWPOLYLINE
  5
710
330
18
100
AcDbEntity
  8
TEXT
100
AcDbPolyline
 90
        2
 70
     0
 43
0.0
 10
11.58623805249731
 20
2.605619154139141
 42
-0.3277054968067132
 10
11.62201974321047
 20
2.577296608369497
 42
6.667889725900311
  0
LINE
  5
711
330
18
100
AcDbEntity
  8
TEXT
100
AcDbLine
 10
11.89970849760207
 20
2.605619154139137
 30
0.0
 11
11.83581159130257
 21
2.605619154139137
 31
0.0
  0
ARC
  5
712
330
18
100
AcDbEntity
  8
TEXT
100
AcDbCircle
 10
11.75482471265046
 20
2.564035587018235
 30
0.0
 40
0.0416329381542859
100
AcDbArc
 50
26.56974201007528
 51
87.20939649401342
  0
LINE
  5
713
330
18
100
AcDbEntity
  8
TEXT
100
AcDbLine
 10
11.89970849760207
 20
2.578071504278263
 30
0.0
 11
11.89970849760207
 21
2.605619154139137
 31
0.0
  0
ARC
  5
714
330
18
100
AcDbEntity
  8
TEXT
100
AcDbCircle
 10
11.93090131466518
 20
2.574373426856872
 30
0.0
 40
0.0314112657011332
100
AcDbArc
 50
95.88484768694724
 51
173.2388340632136
  0
LINE
  5
715
330
18
100
AcDbEntity
  8
TEXT
100
AcDbLine
 10
12.18558532152655
 20
2.605619154139137
 30
0.0
 11
12.11059348879693
 21
2.605619154139137
 31
0.0
  0
LINE
  5
716
330
18
100
AcDbEntity
  8
TEXT
100
AcDbLine
 10
11.99518045169167
 20
2.671083359906738
 30
0.0
 11
11.99518045169166
 21
2.605619154139137
 31
0.0
  0
LINE
  5
717
330
18
100
AcDbEntity
  8
TEXT
100
AcDbLine
 10
12.06349533024094
 20
2.671083359906738
 30
0.0
 11
11.99518045169167
 21
2.671083359906738
 31
0.0
  0
ENDSEC
  0
SECTION
  2
OBJECTS
  0
DICTIONARY
  5
C
330
0
100
AcDbDictionary
  3
ACAD_GROUP
350
D
  3
ACAD_LAYOUT
350
71C
  3
ACAD_MLINESTYLE
350
E
  3
ACAD_PLOTSETTINGS
350
71D
  3
ACAD_PLOTSTYLENAME
350
71A
  3
ACDBHEADERROUNDTRIPXREC
350
728
  3
ACDBVARIABLEDICTIONARY
350
725
  0
DICTIONARY
  5
74A
330
18
100
AcDbDictionary
280
     1
  3
ACAD_LAYOUTSELFREF
360
74B
  0
DICTIONARY
  5
748
330
15
100
AcDbDictionary
280
     1
  3
ACAD_LAYOUTSELFREF
360
749
  0
DICTIONARY
  5
D
102
{ACAD_REACTORS
330
C
102
}
330
C
100
AcDbDictionary
  3
*A1
350
280
  3
*A2
350
5EA
  0
DICTIONARY
  5
71C
102
{ACAD_REACTORS
330
C
102
}
330
C
100
AcDbDictionary
  0
DICTIONARY
  5
E
102
{ACAD_REACTORS
330
C
102
}
330
C
100
AcDbDictionary
  3
STANDARD
350
1B
  0
DICTIONARY
  5
71D
102
{ACAD_REACTORS
330
C
102
}
330
C
100
AcDbDictionary
  0
ACDBDICTIONARYWDFLT
  5
71A
102
{ACAD_REACTORS
330
C
102
}
330
C
100
AcDbDictionary
281
     1
  3
Normal
350
71B
100
AcDbDictionaryWithDefault
340
71B
  0
DICTIONARY
  5
728
102
{ACAD_REACTORS
330
C
102
}
330
C
100
AcDbDictionary
  3
CEPSNTYPE
350
732
  3
FINGERPRINTGUID
350
733
  3
HYPERLINKBASE
350
72B
  3
INSUNITS
350
731
  3
LAYOUTDICT
350
72D
  3
LWETCUNION
350
730
  3
PLOTSETDICT
350
72E
  3
PLOTSTYLNAMDICT
350
72F
  3
PSVPSCALE
350
735
  3
PUCSBASE
350
738
  3
PUCSORGBACK
350
73E
  3
PUCSORGBOTTOM
350
73A
  3
PUCSORGFRONT
350
73D
  3
PUCSORGLEFT
350
73B
  3
PUCSORGRIGHT
350
73C
  3
PUCSORGTOP
350
739
  3
PUCSORTHOREF
350
736
  3
PUCSORTHOVIEW
350
737
  3
STYLESHEET
350
72C
  3
TSTACKALIGN
350
729
  3
TSTACKSIZE
350
72A
  3
UCSBASE
350
741
  3
UCSORGBACK
350
747
  3
UCSORGBOTTOM
350
743
  3
UCSORGFRONT
350
746
  3
UCSORGLEFT
350
744
  3
UCSORGRIGHT
350
745
  3
UCSORGTOP
350
742
  3
UCSORTHOREF
350
73F
  3
UCSORTHOVIEW
350
740
  3
VERSIONGUID
350
734
  0
DICTIONARY
  5
725
102
{ACAD_REACTORS
330
C
102
}
330
C
100
AcDbDictionary
  3
DIMASSOC
350
726
  0
XRECORD
  5
74B
102
{ACAD_REACTORS
330
74A
102
}
330
74A
100
AcDbXrecord
340
18
  0
XRECORD
  5
749
102
{ACAD_REACTORS
330
748
102
}
330
748
100
AcDbXrecord
340
15
  0
GROUP
  5
280
102
{ACAD_REACTORS
330
D
102
}
330
D
100
AcDbGroup
300
BORDER FRAME 10-1-95
 70
     3
 71
     1
  0
GROUP
  5
5EA
102
{ACAD_REACTORS
330
D
102
}
330
D
100
AcDbGroup
300

 70
     1
 71
     1
  0
MLINESTYLE
  5
1B
102
{ACAD_REACTORS
330
E
102
}
330
E
100
AcDbMlineStyle
  2
STANDARD
 70
     0
  3

 62
     0
 51
90.0
 52
90.0
 71
     2
 49
0.5
 62
   256
  6
BYLAYER
 49
-0.5
 62
   256
  6
BYLAYER
  0
ACDBPLACEHOLDER
  5
71B
102
{ACAD_REACTORS
330
71A
102
}
330
71A
100
AcDbPlaceHolder
280
     0
  0
XRECORD
  5
732
102
{ACAD_REACTORS
330
728
102
}
330
728
100
AcDbXrecord
 90
        0
  0
XRECORD
  5
733
102
{ACAD_REACTORS
330
728
102
}
330
728
100
AcDbXrecord
  1
{8BF45330-8DB7-11D6-88E6-0090279574E7}
  0
XRECORD
  5
72B
102
{ACAD_REACTORS
330
728
102
}
330
728
100
AcDbXrecord
  1

  0
XRECORD
  5
731
102
{ACAD_REACTORS
330
728
102
}
330
728
100
AcDbXrecord
 90
        0
  0
XRECORD
  5
72D
102
{ACAD_REACTORS
330
728
102
}
330
728
100
AcDbXrecord
340
71C
  0
XRECORD
  5
730
102
{ACAD_REACTORS
330
728
102
}
330
728
100
AcDbXrecord
 90
    14877
  0
XRECORD
  5
72E
102
{ACAD_REACTORS
330
728
102
}
330
728
100
AcDbXrecord
340
71D
  0
XRECORD
  5
72F
102
{ACAD_REACTORS
330
728
102
}
330
728
100
AcDbXrecord
340
71A
  0
XRECORD
  5
735
102
{ACAD_REACTORS
330
728
102
}
330
728
100
AcDbXrecord
 40
0.0
  0
XRECORD
  5
738
102
{ACAD_REACTORS
330
728
102
}
330
728
100
AcDbXrecord
340
0
  0
XRECORD
  5
73E
102
{ACAD_REACTORS
330
728
102
}
330
728
100
AcDbXrecord
 10
0.0
 20
0.0
 30
0.0
  0
XRECORD
  5
73A
102
{ACAD_REACTORS
330
728
102
}
330
728
100
AcDbXrecord
 10
0.0
 20
0.0
 30
0.0
  0
XRECORD
  5
73D
102
{ACAD_REACTORS
330
728
102
}
330
728
100
AcDbXrecord
 10
0.0
 20
0.0
 30
0.0
  0
XRECORD
  5
73B
102
{ACAD_REACTORS
330
728
102
}
330
728
100
AcDbXrecord
 10
0.0
 20
0.0
 30
0.0
  0
XRECORD
  5
73C
102
{ACAD_REACTORS
330
728
102
}
330
728
100
AcDbXrecord
 10
0.0
 20
0.0
 30
0.0
  0
XRECORD
  5
739
102
{ACAD_REACTORS
330
728
102
}
330
728
100
AcDbXrecord
 10
0.0
 20
0.0
 30
0.0
  0
XRECORD
  5
736
102
{ACAD_REACTORS
330
728
102
}
330
728
100
AcDbXrecord
340
0
  0
XRECORD
  5
737
102
{ACAD_REACTORS
330
728
102
}
330
728
100
AcDbXrecord
 70
     0
  0
XRECORD
  5
72C
102
{ACAD_REACTORS
330
728
102
}
330
728
100
AcDbXrecord
  1

  0
XRECORD
  5
729
102
{ACAD_REACTORS
330
728
102
}
330
728
100
AcDbXrecord
 90
        1
  0
XRECORD
  5
72A
102
{ACAD_REACTORS
330
728
102
}
330
728
100
AcDbXrecord
 90
       70
  0
XRECORD
  5
741
102
{ACAD_REACTORS
330
728
102
}
330
728
100
AcDbXrecord
340
0
  0
XRECORD
  5
747
102
{ACAD_REACTORS
330
728
102
}
330
728
100
AcDbXrecord
 10
0.0
 20
0.0
 30
0.0
  0
XRECORD
  5
743
102
{ACAD_REACTORS
330
728
102
}
330
728
100
AcDbXrecord
 10
0.0
 20
0.0
 30
0.0
  0
XRECORD
  5
746
102
{ACAD_REACTORS
330
728
102
}
330
728
100
AcDbXrecord
 10
0.0
 20
0.0
 30
0.0
  0
XRECORD
  5
744
102
{ACAD_REACTORS
330
728
102
}
330
728
100
AcDbXrecord
 10
0.0
 20
0.0
 30
0.0
  0
XRECORD
  5
745
102
{ACAD_REACTORS
330
728
102
}
330
728
100
AcDbXrecord
 10
0.0
 20
0.0
 30
0.0
  0
XRECORD
  5
742
102
{ACAD_REACTORS
330
728
102
}
330
728
100
AcDbXrecord
 10
0.0
 20
0.0
 30
0.0
  0
XRECORD
  5
73F
102
{ACAD_REACTORS
330
728
102
}
330
728
100
AcDbXrecord
340
0
  0
XRECORD
  5
740
102
{ACAD_REACTORS
330
728
102
}
330
728
100
AcDbXrecord
 70
     0
  0
XRECORD
  5
734
102
{ACAD_REACTORS
330
728
102
}
330
728
100
AcDbXrecord
  1
{8BF45332-8DB7-11D6-88E6-0090279574E7}
  0
DICTIONARYVAR
  5
726
102
{ACAD_REACTORS
330
725
102
}
330
725
100
DictionaryVariables
280
     0
  1
1
  0
ENDSEC
  0
EOF
