  0
SECTION
  2
HEADER
  9
$ACADVER
  1
AC1014
  9
$ACADMAINTVER
 70
     9
  9
$DWGCODEPAGE
  3
ANSI_1252
  9
$INSBASE
 10
1.904725597067275
 20
2.775011914506667
 30
0.0
  9
$EXTMIN
 10
0.5992440178401325
 20
1.181972234636126
 30
0.0
  9
$EXTMAX
 10
4.08446333958726
 20
2.775011914506667
 30
0.0
  9
$LIMMIN
 10
0.0
 20
0.0
  9
$LIMMAX
 10
18.0
 20
12.0
  9
$ORTHOMODE
 70
     1
  9
$REGENMODE
 70
     1
  9
$FILLMODE
 70
     1
  9
$QTEXTMODE
 70
     0
  9
$MIRRTEXT
 70
     0
  9
$DRAGMODE
 70
     2
  9
$LTSCALE
 40
1.0
  9
$OSMODE
 70
    39
  9
$ATTMODE
 70
     1
  9
$TEXTSIZE
 40
0.125
  9
$TRACEWID
 40
0.05
  9
$TEXTSTYLE
  7
ROMANS
  9
$CLAYER
  8
0
  9
$CELTYPE
  6
BYLAYER
  9
$CECOLOR
 62
   256
  9
$CELTSCALE
 40
1.0
  9
$DELOBJ
 70
     1
  9
$DISPSILH
 70
     1
  9
$DIMSCALE
 40
1.0
  9
$DIMASZ
 40
0.125
  9
$DIMEXO
 40
0.125
  9
$DIMDLI
 40
0.375
  9
$DIMRND
 40
0.0
  9
$DIMDLE
 40
0.0
  9
$DIMEXE
 40
0.125
  9
$DIMTP
 40
0.0
  9
$DIMTM
 40
0.0
  9
$DIMTXT
 40
0.125
  9
$DIMCEN
 40
-0.125
  9
$DIMTSZ
 40
0.0
  9
$DIMTOL
 70
     0
  9
$DIMLIM
 70
     0
  9
$DIMTIH
 70
     1
  9
$DIMTOH
 70
     1
  9
$DIMSE1
 70
     0
  9
$DIMSE2
 70
     0
  9
$DIMTAD
 70
     0
  9
$DIMZIN
 70
     4
  9
$DIMBLK
  1

  9
$DIMASO
 70
     1
  9
$DIMSHO
 70
     1
  9
$DIMPOST
  1

  9
$DIMAPOST
  1

  9
$DIMALT
 70
     0
  9
$DIMALTD
 70
     2
  9
$DIMALTF
 40
25.4
  9
$DIMLFAC
 40
1.0
  9
$DIMTOFL
 70
     0
  9
$DIMTVP
 40
0.0
  9
$DIMTIX
 70
     1
  9
$DIMSOXD
 70
     0
  9
$DIMSAH
 70
     0
  9
$DIMBLK1
  1

  9
$DIMBLK2
  1

  9
$DIMSTYLE
  2
STANDARD
  9
$DIMCLRD
 70
     0
  9
$DIMCLRE
 70
     0
  9
$DIMCLRT
 70
     0
  9
$DIMTFAC
 40
1.0
  9
$DIMGAP
 40
0.09
  9
$DIMJUST
 70
     0
  9
$DIMSD1
 70
     0
  9
$DIMSD2
 70
     0
  9
$DIMTOLJ
 70
     1
  9
$DIMTZIN
 70
     4
  9
$DIMALTZ
 70
     0
  9
$DIMALTTZ
 70
     0
  9
$DIMFIT
 70
     3
  9
$DIMUPT
 70
     0
  9
$DIMUNIT
 70
     2
  9
$DIMDEC
 70
     3
  9
$DIMTDEC
 70
     3
  9
$DIMALTU
 70
     2
  9
$DIMALTTD
 70
     2
  9
$DIMTXSTY
  7
ROMANS
  9
$DIMAUNIT
 70
     0
  9
$LUNITS
 70
     2
  9
$LUPREC
 70
     3
  9
$SKETCHINC
 40
0.1
  9
$FILLETRAD
 40
0.03125
  9
$AUNITS
 70
     0
  9
$AUPREC
 70
     0
  9
$MENU
  1
ACAD
  9
$ELEVATION
 40
0.0
  9
$PELEVATION
 40
0.0
  9
$THICKNESS
 40
0.0
  9
$LIMCHECK
 70
     0
  9
$BLIPMODE
 70
     0
  9
$CHAMFERA
 40
0.0
  9
$CHAMFERB
 40
0.0
  9
$CHAMFERC
 40
0.0
  9
$CHAMFERD
 40
0.0
  9
$SKPOLY
 70
     0
  9
$TDCREATE
 40
2448994.674937036
  9
$TDUPDATE
 40
2452458.312867673
  9
$TDINDWG
 40
0.0004385069
  9
$TDUSRTIMER
 40
0.0004385069
  9
$USRTIMER
 70
     1
  9
$ANGBASE
 50
0.0
  9
$ANGDIR
 70
     0
  9
$PDMODE
 70
     0
  9
$PDSIZE
 40
0.0
  9
$PLINEWID
 40
0.0
  9
$COORDS
 70
     2
  9
$SPLFRAME
 70
     0
  9
$SPLINETYPE
 70
     6
  9
$SPLINESEGS
 70
     8
  9
$ATTDIA
 70
     0
  9
$ATTREQ
 70
     1
  9
$HANDLING
 70
 22529
  9
$HANDSEED
  5
7DE1B343D9E06B3
  9
$SURFTAB1
 70
     6
  9
$SURFTAB2
 70
     6
  9
$SURFTYPE
 70
     6
  9
$SURFU
 70
     6
  9
$SURFV
 70
     6
  9
$UCSNAME
  2

  9
$UCSORG
 10
0.0
 20
0.0
 30
0.0
  9
$UCSXDIR
 10
1.0
 20
0.0
 30
0.0
  9
$UCSYDIR
 10
0.0
 20
1.0
 30
0.0
  9
$PUCSNAME
  2

  9
$PUCSORG
 10
0.0
 20
0.0
 30
0.0
  9
$PUCSXDIR
 10
1.0
 20
0.0
 30
0.0
  9
$PUCSYDIR
 10
0.0
 20
1.0
 30
0.0
  9
$USERI1
 70
     0
  9
$USERI2
 70
     0
  9
$USERI3
 70
     0
  9
$USERI4
 70
     0
  9
$USERI5
 70
     0
  9
$USERR1
 40
0.0
  9
$USERR2
 40
0.0
  9
$USERR3
 40
0.0
  9
$USERR4
 40
0.0
  9
$USERR5
 40
0.0
  9
$WORLDVIEW
 70
     1
  9
$SHADEDGE
 70
     3
  9
$SHADEDIF
 70
    70
  9
$TILEMODE
 70
     1
  9
$MAXACTVP
 70
    16
  9
$PINSBASE
 10
3.784464499320739
 20
50.00000000000001
 30
4.016893061728217
  9
$PLIMCHECK
 70
     0
  9
$PEXTMIN
 10
1.000000000000000E+20
 20
1.000000000000000E+20
 30
1.000000000000000E+20
  9
$PEXTMAX
 10
-1.000000000000000E+20
 20
-1.000000000000000E+20
 30
-1.000000000000000E+20
  9
$PLIMMIN
 10
0.0
 20
0.0
  9
$PLIMMAX
 10
12.0
 20
9.0
  9
$UNITMODE
 70
     0
  9
$VISRETAIN
 70
     0
  9
$PLINEGEN
 70
     1
  9
$PSLTSCALE
 70
     0
  9
$TREEDEPTH
 70
  3020
  9
$PICKSTYLE
 70
     1
  9
$CMLSTYLE
  2
STANDARD
  9
$CMLJUST
 70
     0
  9
$CMLSCALE
 40
1.0
  9
$PROXYGRAPHICS
 70
     1
  9
$MEASUREMENT
 70
     0
  0
ENDSEC
  0
SECTION
  2
CLASSES
  0
CLASS
  1
LWPOLYLINE
  2
AcDbPolyline
  3
AutoCAD 2000
 90
        0
280
     0
281
     1
  0
CLASS
  1
ACDBDICTIONARYWDFLT
  2
AcDbDictionaryWithDefault
  3
AutoCAD 2000
 90
        0
280
     0
281
     0
  0
CLASS
  1
ACDBPLACEHOLDER
  2
AcDbPlaceHolder
  3
AutoCAD 2000
 90
        0
280
     0
281
     0
  0
CLASS
  1
LAYOUT
  2
AcDbLayout
  3
AutoCAD 2000
 90
        0
280
     0
281
     0
  0
CLASS
  1
DICTIONARYVAR
  2
AcDbDictionaryVar
  3
AutoCAD 2000
 90
        0
280
     0
281
     0
  0
CLASS
  1
LONG_TRANSACTION
  2
AcDbLongTransaction
  3
AutoCAD 2000
 90
        0
280
     0
281
     0
  0
CLASS
  1
LWPOLYLINE
  2
AcDbPolyline
  3
AutoCAD 2000
 90
        0
280
     0
281
     1
  0
CLASS
  1
HATCH
  2
AcDbHatch
  3
AutoCAD 2000
 90
        0
280
     0
281
     1
  0
CLASS
  1
XRECORD
  2
AcDbXrecord
  3
AutoCAD 2000
 90
        0
280
     0
281
     0
  0
ENDSEC
  0
SECTION
  2
TABLES
  0
TABLE
  2
VPORT
  5
7DE1B343D9E065A
330
0
100
AcDbSymbolTable
 70
     2
  0
VPORT
  5
7DE1B343D9E068E
330
7DE1B343D9E065A
100
AcDbSymbolTableRecord
100
AcDbViewportTableRecord
  2
*ACTIVE
 70
     0
 10
0.0
 20
0.0
 11
1.0
 21
1.0
 12
5.31793483393891
 22
1.978546165836213
 13
0.0
 23
0.0
 14
0.015625
 24
0.015625
 15
0.0
 25
0.0
 16
0.0
 26
0.0
 36
1.0
 17
0.0
 27
0.0
 37
0.0
 40
2.282647215150728
 41
4.320930232558139
 42
50.0
 43
0.0
 44
0.0
 50
0.0
 51
0.0
 71
     0
 72
  2000
 73
     1
 74
     0
 75
     0
 76
     0
 77
     0
 78
     0
  0
ENDTAB
  0
TABLE
  2
LTYPE
  5
7DE1B343D9E0657
330
0
100
AcDbSymbolTable
 70
     1
  0
LTYPE
  5
7DE1B343D9E0664
330
7DE1B343D9E0657
100
AcDbSymbolTableRecord
100
AcDbLinetypeTableRecord
  2
BYBLOCK
 70
     0
  3

 72
    65
 73
     0
 40
0.0
  0
LTYPE
  5
7DE1B343D9E0665
330
7DE1B343D9E0657
100
AcDbSymbolTableRecord
100
AcDbLinetypeTableRecord
  2
BYLAYER
 70
     0
  3

 72
    65
 73
     0
 40
0.0
  0
LTYPE
  5
7DE1B343D9E0666
330
7DE1B343D9E0657
100
AcDbSymbolTableRecord
100
AcDbLinetypeTableRecord
  2
CONTINUOUS
 70
     0
  3
Solid line
 72
    65
 73
     0
 40
0.0
  0
ENDTAB
  0
TABLE
  2
LAYER
  5
7DE1B343D9E0654
330
0
100
AcDbSymbolTable
 70
     2
  0
LAYER
  5
7DE1B343D9E0661
330
7DE1B343D9E0654
100
AcDbSymbolTableRecord
100
AcDbLayerTableRecord
  2
0
 70
     0
 62
     7
  6
CONTINUOUS
  0
LAYER
  5
7DE1B343D9E0671
330
7DE1B343D9E0654
100
AcDbSymbolTableRecord
100
AcDbLayerTableRecord
  2
TEXT
 70
     0
 62
     3
  6
CONTINUOUS
  0
ENDTAB
  0
TABLE
  2
STYLE
  5
7DE1B343D9E0655
330
0
100
AcDbSymbolTable
 70
     3
  0
STYLE
  5
7DE1B343D9E0662
330
7DE1B343D9E0655
100
AcDbSymbolTableRecord
100
AcDbTextStyleTableRecord
  2
STANDARD
 70
     0
 40
0.0
 41
1.0
 50
0.0
 71
     0
 42
0.3125
  3
txt
  4

  0
STYLE
  5
7DE1B343D9E066E
330
7DE1B343D9E0655
100
AcDbSymbolTableRecord
100
AcDbTextStyleTableRecord
  2
ITALICC
 70
     0
 40
0.0
 41
1.0
 50
0.0
 71
     0
 42
0.125
  3
italicc
  4

  0
STYLE
  5
7DE1B343D9E067E
330
7DE1B343D9E0655
100
AcDbSymbolTableRecord
100
AcDbTextStyleTableRecord
  2
ROMANS
 70
     0
 40
0.0
 41
1.0
 50
0.0
 71
     0
 42
0.125
  3
romans.shx
  4

  0
ENDTAB
  0
TABLE
  2
VIEW
  5
7DE1B343D9E0658
330
0
100
AcDbSymbolTable
 70
     0
  0
ENDTAB
  0
TABLE
  2
UCS
  5
7DE1B343D9E0659
330
0
100
AcDbSymbolTable
 70
     0
  0
ENDTAB
  0
TABLE
  2
APPID
  5
7DE1B343D9E065B
330
0
100
AcDbSymbolTable
 70
     1
  0
APPID
  5
7DE1B343D9E0663
330
7DE1B343D9E065B
100
AcDbSymbolTableRecord
100
AcDbRegAppTableRecord
  2
ACAD
 70
     0
  0
ENDTAB
  0
TABLE
  2
DIMSTYLE
  5
7DE1B343D9E065C
330
0
100
AcDbSymbolTable
 70
     1
  0
DIMSTYLE
105
7DE1B343D9E0676
330
7DE1B343D9E065C
100
AcDbSymbolTableRecord
100
AcDbDimStyleTableRecord
  2
STANDARD
 70
     0
  3

  4

  5

  6

  7

 40
1.0
 41
0.125
 42
0.125
 43
0.375
 44
0.125
 45
0.0
 46
0.0
 47
0.0
 48
0.0
140
0.125
141
-0.125
142
0.0
143
25.4
144
1.0
145
0.0
146
1.0
147
0.09
 71
     0
 72
     0
 73
     1
 74
     1
 75
     0
 76
     0
 77
     0
 78
     4
170
     0
171
     2
172
     0
173
     0
174
     1
175
     0
176
     0
177
     0
178
     0
270
     2
271
     3
272
     3
273
     2
274
     2
340
7DE1B343D9E067E
275
     0
280
     0
281
     0
282
     0
283
     1
284
     4
285
     0
286
     0
287
     3
288
     0
  0
ENDTAB
  0
TABLE
  2
BLOCK_RECORD
  5
7DE1B343D9E0653
330
0
100
AcDbSymbolTable
 70
     0
  0
BLOCK_RECORD
  5
7DE1B343D9E066A
102
{ACAD_XDICTIONARY
360
7DE1B343D9E06B1
102
}
330
7DE1B343D9E0653
100
AcDbSymbolTableRecord
100
AcDbBlockTableRecord
  2
*MODEL_SPACE
  0
BLOCK_RECORD
  5
7DE1B343D9E0667
102
{ACAD_XDICTIONARY
360
7DE1B343D9E06AF
102
}
330
7DE1B343D9E0653
100
AcDbSymbolTableRecord
100
AcDbBlockTableRecord
  2
*PAPER_SPACE
  0
ENDTAB
  0
ENDSEC
  0
SECTION
  2
BLOCKS
  0
BLOCK
  5
7DE1B343D9E0674
330
7DE1B343D9E066A
100
AcDbEntity
  8
0
100
AcDbBlockBegin
  2
*MODEL_SPACE
 70
     0
 10
0.0
 20
0.0
 30
0.0
  3
*MODEL_SPACE
  1

  0
ENDBLK
  5
7DE1B343D9E0675
330
7DE1B343D9E066A
100
AcDbEntity
  8
0
100
AcDbBlockEnd
  0
BLOCK
  5
7DE1B343D9E0672
330
7DE1B343D9E0667
100
AcDbEntity
 67
     1
  8
0
100
AcDbBlockBegin
  2
*PAPER_SPACE
 70
     0
 10
0.0
 20
0.0
 30
0.0
  3
*PAPER_SPACE
  1

  0
ENDBLK
  5
7DE1B343D9E0673
330
7DE1B343D9E0667
100
AcDbEntity
 67
     1
  8
0
100
AcDbBlockEnd
  0
ENDSEC
  0
SECTION
  2
ENTITIES
  0
LWPOLYLINE
  5
7DE1B343D9DF277
330
7DE1B343D9E066A
100
AcDbEntity
  8
0
100
AcDbPolyline
 90
        6
 70
     1
 43
0.0
 10
1.967225597067275
 20
1.900011914506668
 10
1.904725597067275
 20
1.900011914506668
 10
1.904725597067275
 20
2.775011914506667
 10
2.779725597067275
 20
2.775011914506667
 10
2.779725597067275
 20
2.712511914506667
 10
1.967225597067275
 20
2.712511914506667
  0
TEXT
  5
7DE1B343D9E0515
330
7DE1B343D9E066A
100
AcDbEntity
  8
TEXT
100
AcDbText
 10
1.601154168495846
 20
1.639990838718707
 30
0.0
 40
0.125
  1
PART #110451
  7
ITALICC
 72
     1
 11
2.342225597067275
 21
1.639990838718707
 31
0.0
100
AcDbText
  0
TEXT
  5
7DE1B343D9E0516
330
7DE1B343D9E066A
100
AcDbEntity
  8
TEXT
100
AcDbText
 10
2.755530755317596
 20
1.193068196046332
 30
0.0
 40
0.0522247191011236
  1
Phone  1-800-328-2495
 41
1.272321428571429
 72
     5
 11
4.08446333958726
 21
1.193068196046332
 31
0.0
100
AcDbText
  0
TEXT
  5
7DE1B343D9E0517
330
7DE1B343D9E066A
100
AcDbEntity
  8
TEXT
100
AcDbText
 10
2.755530755317596
 20
1.472843476945209
 30
0.0
 40
0.0522247191011236
  1
Stylmark  Incorporated
 41
1.221428571428573
 72
     5
 11
4.08446333958726
 21
1.472843476945209
 31
0.0
100
AcDbText
  0
TEXT
  5
7DE1B343D9E0518
330
7DE1B343D9E066A
100
AcDbEntity
  8
TEXT
100
AcDbText
 10
2.755530755317596
 20
1.379585049978917
 30
0.0
 40
0.0522247191011236
  1
6536 Main St. N.E. * P.O. Box 32008
 41
0.8388932496075366
 72
     5
 11
4.08446333958726
 21
1.379585049978917
 31
0.0
100
AcDbText
  0
TEXT
  5
7DE1B343D9E0519
330
7DE1B343D9E066A
100
AcDbEntity
  8
TEXT
100
AcDbText
 10
2.755530755317596
 20
1.286326623012624
 30
0.0
 40
0.0522247191011236
  1
Minneapolis, MN 55432-0008
 41
1.11444212721585
 72
     5
 11
4.08446333958726
 21
1.286326623012624
 31
0.0
100
AcDbText
  0
LWPOLYLINE
  5
7DE1B343D9E051A
330
7DE1B343D9E066A
100
AcDbEntity
  8
TEXT
100
AcDbPolyline
 90
        3
 70
     0
 43
0.0006660908203125
 10
0.5995770632502886
 20
1.306712958683767
 10
0.5995770632502886
 20
1.193477519230639
 10
0.7128125027034109
 20
1.193477519230639
  0
LWPOLYLINE
  5
7DE1B343D9E051F
330
7DE1B343D9E066A
100
AcDbEntity
  8
TEXT
100
AcDbPolyline
 90
        3
 70
     0
 43
0.0006660908203125
 10
0.6262206960627861
 20
1.306712958683767
 10
0.6262206960627861
 20
1.22012115204314
 10
0.7128125027034109
 20
1.22012115204314
  0
LWPOLYLINE
  5
7DE1B343D9E0524
330
7DE1B343D9E066A
100
AcDbEntity
  8
TEXT
100
AcDbPolyline
 90
        2
 70
     0
 43
0.0001332181640625
 10
0.6728470534846629
 20
1.316704320988452
 10
0.5995770632502886
 20
1.306712958683767
  0
LWPOLYLINE
  5
7DE1B343D9E0528
330
7DE1B343D9E066A
100
AcDbEntity
  8
TEXT
100
AcDbPolyline
 90
        2
 70
     0
 43
0.0001332181640625
 10
0.6262206960627861
 20
1.306712958683767
 10
0.6861688698909135
 20
1.316704320988452
  0
LWPOLYLINE
  5
7DE1B343D9E052C
330
7DE1B343D9E066A
100
AcDbEntity
  8
TEXT
100
AcDbPolyline
 90
        2
 70
     0
 43
0.0001332181640625
 10
0.6262206960627861
 20
1.22012115204314
 10
0.6861688698909135
 20
1.280069325871266
  0
LWPOLYLINE
  5
7DE1B343D9E0530
330
7DE1B343D9E066A
100
AcDbEntity
  8
TEXT
100
AcDbPolyline
 90
        3
 70
     0
 43
0.0006660908203125
 10
0.7128125027034109
 20
1.459913847355643
 10
0.5995770632502886
 20
1.459913847355643
 10
0.5995770632502886
 20
1.346678407902515
  0
LWPOLYLINE
  5
7DE1B343D9E0535
330
7DE1B343D9E066A
100
AcDbEntity
  8
TEXT
100
AcDbPolyline
 90
        3
 70
     0
 43
0.0006660908203125
 10
0.7128125027034109
 20
1.433270214543142
 10
0.6262206960627861
 20
1.433270214543142
 10
0.6262206960627861
 20
1.346678407902515
  0
LWPOLYLINE
  5
7DE1B343D9E053A
330
7DE1B343D9E066A
100
AcDbEntity
  8
TEXT
100
AcDbPolyline
 90
        2
 70
     0
 43
0.0001332181640625
 10
0.6262206960627861
 20
1.433270214543142
 10
0.6861688698909117
 20
1.373322040715016
  0
LWPOLYLINE
  5
7DE1B343D9E053E
330
7DE1B343D9E066A
100
AcDbEntity
  8
TEXT
100
AcDbPolyline
 90
        2
 70
     0
 43
0.0001332181640625
 10
0.6262206960627861
 20
1.346678407902515
 10
0.6861688698909117
 20
1.336687045597826
  0
LWPOLYLINE
  5
7DE1B343D9E0542
330
7DE1B343D9E066A
100
AcDbEntity
  8
TEXT
100
AcDbPolyline
 90
        2
 70
     0
 43
0.0001332181640625
 10
0.5995770632502886
 20
1.346678407902515
 10
0.6728470534846629
 20
1.336687045597826
  0
LWPOLYLINE
  5
7DE1B343D9E0546
330
7DE1B343D9E066A
100
AcDbEntity
  8
TEXT
100
AcDbPolyline
 90
        2
 70
     0
 43
0.0006660908203125
 10
0.6262206960627861
 20
1.306712958683767
 10
0.5995770632502886
 20
1.306712958683767
  0
LWPOLYLINE
  5
7DE1B343D9E054A
330
7DE1B343D9E066A
100
AcDbEntity
  8
TEXT
100
AcDbPolyline
 90
        2
 70
     0
 43
0.0006660908203125
 10
0.6262206960627861
 20
1.346678407902515
 10
0.5995770632502886
 20
1.346678407902515
  0
LINE
  5
7DE1B343D9E054E
330
7DE1B343D9E066A
100
AcDbEntity
  8
TEXT
100
AcDbLine
 10
2.114767492376786
 20
1.395637152698874
 30
0.0
 11
2.007561218989496
 21
1.395637152698874
 31
0.0
  0
LINE
  5
7DE1B343D9E054F
330
7DE1B343D9E066A
100
AcDbEntity
  8
TEXT
100
AcDbLine
 10
2.143798390721264
 20
1.459913847355639
 30
0.0
 11
2.008966481504205
 21
1.459913847355639
 31
0.0
  0
ARC
  5
7DE1B343D9E0550
330
7DE1B343D9E066A
100
AcDbEntity
  8
TEXT
100
AcDbCircle
 10
2.068280577897522
 20
1.290676598092623
 30
0.0
 40
0.0676855811441166
100
AcDbArc
 50
90.0
 51
153.7768192527749
  0
LWPOLYLINE
  5
7DE1B343D9E0551
330
7DE1B343D9E066A
100
AcDbEntity
  8
TEXT
100
AcDbPolyline
 90
        2
 70
     0
 43
0.0
 10
2.006528723534686
 20
1.236931759317566
 42
0.2901071551932823
 10
2.049604656402322
 20
1.193440814367128
 42
5.328517124445801
  0
ARC
  5
7DE1B343D9E0555
330
7DE1B343D9E066A
100
AcDbEntity
  8
TEXT
100
AcDbCircle
 10
1.363149200226036
 20
1.253233205705178
 30
0.0
 40
0.0601160179737537
100
AcDbArc
 50
180.0000000000003
 51
264.0521544866073
  0
LINE
  5
7DE1B343D9E0556
330
7DE1B343D9E066A
100
AcDbEntity
  8
TEXT
100
AcDbLine
 10
1.366664555851584
 20
1.494301764949777
 30
0.0
 11
1.306621951007577
 21
1.494301764949777
 31
0.0
  0
ARC
  5
7DE1B343D9E0557
330
7DE1B343D9E066A
100
AcDbEntity
  8
TEXT
100
AcDbCircle
 10
1.130890198109065
 20
1.377826387909137
 30
0.0
 40
0.0820874594465043
100
AcDbArc
 50
90.0
 51
270.0
  0
LWPOLYLINE
  5
7DE1B343D9E0558
330
7DE1B343D9E066A
100
AcDbEntity
  8
TEXT
100
AcDbPolyline
 90
        2
 70
     0
 43
0.0001332181640625
 10
0.7228038650081015
 20
1.386643857121263
 10
0.7128125027034109
 20
1.459913847355643
  0
LWPOLYLINE
  5
7DE1B343D9E055C
330
7DE1B343D9E066A
100
AcDbEntity
  8
TEXT
100
AcDbPolyline
 90
        2
 70
     0
 43
0.0001332181640625
 10
0.7128125027034109
 20
1.433270214543142
 10
0.7228038650081015
 20
1.373322040715016
  0
LWPOLYLINE
  5
7DE1B343D9E0560
330
7DE1B343D9E066A
100
AcDbEntity
  8
TEXT
100
AcDbPolyline
 90
        3
 70
     0
 43
0.0006660908203125
 10
0.8660133913752883
 20
1.346678407902515
 10
0.8660133913752883
 20
1.459913847355643
 10
0.7527779519221625
 20
1.459913847355643
  0
LWPOLYLINE
  5
7DE1B343D9E0565
330
7DE1B343D9E066A
100
AcDbEntity
  8
TEXT
100
AcDbPolyline
 90
        3
 70
     0
 43
0.0006660908203125
 10
0.8393697585627872
 20
1.346678407902515
 10
0.8393697585627872
 20
1.433270214543142
 10
0.7527779519221625
 20
1.433270214543142
  0
LWPOLYLINE
  5
7DE1B343D9E056A
330
7DE1B343D9E066A
100
AcDbEntity
  8
TEXT
100
AcDbPolyline
 90
        2
 70
     0
 43
0.0001332181640625
 10
0.8393697585627872
 20
1.433270214543142
 10
0.7794215847346635
 20
1.373322040715016
  0
LWPOLYLINE
  5
7DE1B343D9E056E
330
7DE1B343D9E066A
100
AcDbEntity
  8
TEXT
100
AcDbPolyline
 90
        2
 70
     0
 43
0.0001332181640625
 10
0.7527779519221625
 20
1.433270214543142
 10
0.7427865896174737
 20
1.373322040715016
  0
LWPOLYLINE
  5
7DE1B343D9E0572
330
7DE1B343D9E066A
100
AcDbEntity
  8
TEXT
100
AcDbPolyline
 90
        2
 70
     0
 43
0.0001332181640625
 10
0.7527779519221625
 20
1.459913847355643
 10
0.7427865896174737
 20
1.386643857121263
  0
LWPOLYLINE
  5
7DE1B343D9E0576
330
7DE1B343D9E066A
100
AcDbEntity
  8
TEXT
100
AcDbPolyline
 90
        2
 70
     0
 43
0.0001332181640625
 10
0.7927434011409123
 20
1.336687045597826
 10
0.8660133913752883
 20
1.346678407902515
  0
LWPOLYLINE
  5
7DE1B343D9E057A
330
7DE1B343D9E066A
100
AcDbEntity
  8
TEXT
100
AcDbPolyline
 90
        2
 70
     0
 43
0.0001332181640625
 10
0.8393697585627872
 20
1.346678407902515
 10
0.7794215847346635
 20
1.336687045597826
  0
LWPOLYLINE
  5
7DE1B343D9E057E
330
7DE1B343D9E066A
100
AcDbEntity
  8
TEXT
100
AcDbPolyline
 90
        2
 70
     0
 43
0.0001332181640625
 10
0.8660133913752883
 20
1.306712958683767
 10
0.7927434011409123
 20
1.316704320988452
  0
LWPOLYLINE
  5
7DE1B343D9E0582
330
7DE1B343D9E066A
100
AcDbEntity
  8
TEXT
100
AcDbPolyline
 90
        2
 70
     0
 43
0.0001332181640625
 10
0.8393697585627872
 20
1.306712958683767
 10
0.7794215847346635
 20
1.316704320988452
  0
LWPOLYLINE
  5
7DE1B343D9E0586
330
7DE1B343D9E066A
100
AcDbEntity
  8
TEXT
100
AcDbPolyline
 90
        2
 70
     0
 43
0.0001332181640625
 10
0.8393697585627872
 20
1.22012115204314
 10
0.7794215847346635
 20
1.280069325871266
  0
LWPOLYLINE
  5
7DE1B343D9E058A
330
7DE1B343D9E066A
100
AcDbEntity
  8
TEXT
100
AcDbPolyline
 90
        3
 70
     0
 43
0.0006660908203125
 10
0.7527779519221625
 20
1.22012115204314
 10
0.8393697585627872
 20
1.22012115204314
 10
0.8393697585627872
 20
1.306712958683767
  0
LWPOLYLINE
  5
7DE1B343D9E058F
330
7DE1B343D9E066A
100
AcDbEntity
  8
TEXT
100
AcDbPolyline
 90
        3
 70
     0
 43
0.0006660908203125
 10
0.7527779519221625
 20
1.193477519230639
 10
0.8660133913752883
 20
1.193477519230639
 10
0.8660133913752883
 20
1.306712958683767
  0
LWPOLYLINE
  5
7DE1B343D9E0594
330
7DE1B343D9E066A
100
AcDbEntity
  8
TEXT
100
AcDbPolyline
 90
        5
 70
     0
 43
0.0001332181640625
 10
0.7228038650081015
 20
1.266747509465016
 10
0.7228038650081015
 20
1.280069325871266
 10
0.6861688698909135
 20
1.280069325871266
 10
0.6861688698909135
 20
1.316704320988452
 10
0.6728470534846629
 20
1.316704320988452
  0
LWPOLYLINE
  5
7DE1B343D9E059B
330
7DE1B343D9E066A
100
AcDbEntity
  8
TEXT
100
AcDbPolyline
 90
        2
 70
     0
 43
0.0006660908203125
 10
0.7128125027034109
 20
1.22012115204314
 10
0.7128125027034109
 20
1.193477519230639
  0
LWPOLYLINE
  5
7DE1B343D9E059F
330
7DE1B343D9E066A
100
AcDbEntity
  8
TEXT
100
AcDbPolyline
 90
        2
 70
     0
 43
0.0001332181640625
 10
0.7128125027034109
 20
1.22012115204314
 10
0.7228038650081015
 20
1.280069325871266
  0
LWPOLYLINE
  5
7DE1B343D9E05A3
330
7DE1B343D9E066A
100
AcDbEntity
  8
TEXT
100
AcDbPolyline
 90
        2
 70
     0
 43
0.0001332181640625
 10
0.7128125027034109
 20
1.193477519230639
 10
0.7228038650081015
 20
1.266747509465016
  0
LWPOLYLINE
  5
7DE1B343D9E05A7
330
7DE1B343D9E066A
100
AcDbEntity
  8
TEXT
100
AcDbPolyline
 90
        5
 70
     0
 43
0.0001332181640625
 10
0.6728470534846629
 20
1.336687045597826
 10
0.6861688698909117
 20
1.336687045597826
 10
0.6861688698909117
 20
1.373322040715016
 10
0.7228038650081015
 20
1.373322040715016
 10
0.7228038650081015
 20
1.386643857121263
  0
LWPOLYLINE
  5
7DE1B343D9E05AE
330
7DE1B343D9E066A
100
AcDbEntity
  8
TEXT
100
AcDbPolyline
 90
        5
 70
     0
 43
0.0001332181640625
 10
0.7427865896174737
 20
1.386643857121263
 10
0.7427865896174737
 20
1.373322040715016
 10
0.7794215847346635
 20
1.373322040715016
 10
0.7794215847346635
 20
1.336687045597826
 10
0.7927434011409123
 20
1.336687045597826
  0
LWPOLYLINE
  5
7DE1B343D9E05B5
330
7DE1B343D9E066A
100
AcDbEntity
  8
TEXT
100
AcDbPolyline
 90
        2
 70
     0
 43
0.0001332181640625
 10
0.7527779519221625
 20
1.22012115204314
 10
0.7427865896174737
 20
1.280069325871266
  0
LWPOLYLINE
  5
7DE1B343D9E05B9
330
7DE1B343D9E066A
100
AcDbEntity
  8
TEXT
100
AcDbPolyline
 90
        2
 70
     0
 43
0.0001332181640625
 10
0.7427865896174737
 20
1.266747509465016
 10
0.7527779519221625
 20
1.193477519230639
  0
LWPOLYLINE
  5
7DE1B343D9E05BD
330
7DE1B343D9E066A
100
AcDbEntity
  8
TEXT
100
AcDbPolyline
 90
        2
 70
     0
 43
0.0006660908203125
 10
0.7527779519221625
 20
1.22012115204314
 10
0.7527779519221625
 20
1.193477519230639
  0
LWPOLYLINE
  5
7DE1B343D9E05C1
330
7DE1B343D9E066A
100
AcDbEntity
  8
TEXT
100
AcDbPolyline
 90
        5
 70
     0
 43
0.0001332181640625
 10
0.7927434011409123
 20
1.316704320988452
 10
0.7794215847346635
 20
1.316704320988452
 10
0.7794215847346635
 20
1.280069325871266
 10
0.7427865896174737
 20
1.280069325871266
 10
0.7427865896174737
 20
1.266747509465016
  0
LWPOLYLINE
  5
7DE1B343D9E05C8
330
7DE1B343D9E066A
100
AcDbEntity
  8
TEXT
100
AcDbPolyline
 90
        2
 70
     0
 43
0.0006660908203125
 10
0.8393697585627872
 20
1.346678407902515
 10
0.8660133913752883
 20
1.346678407902515
  0
LWPOLYLINE
  5
7DE1B343D9E05CC
330
7DE1B343D9E066A
100
AcDbEntity
  8
TEXT
100
AcDbPolyline
 90
        2
 70
     0
 43
0.0006660908203125
 10
0.8393697585627872
 20
1.306712958683767
 10
0.8660133913752883
 20
1.306712958683767
  0
LINE
  5
7DE1B343D9E05D0
330
7DE1B343D9E066A
100
AcDbEntity
  8
TEXT
100
AcDbLine
 10
1.136127528223313
 20
1.395637152698874
 30
0.0
 11
1.303033182252284
 21
1.395637152698874
 31
0.0
  0
LINE
  5
7DE1B343D9E05D1
330
7DE1B343D9E066A
100
AcDbEntity
  8
TEXT
100
AcDbLine
 10
1.201727664467614
 20
1.359832431088246
 30
0.0
 11
1.136127528223313
 21
1.359832431088246
 31
0.0
  0
LINE
  5
7DE1B343D9E05D2
330
7DE1B343D9E066A
100
AcDbEntity
  8
TEXT
100
AcDbLine
 10
1.048802738662561
 20
1.193440814367128
 30
0.0
 11
1.201727664467614
 21
1.193440814367128
 31
0.0
  0
LINE
  5
7DE1B343D9E05D3
330
7DE1B343D9E066A
100
AcDbEntity
  8
TEXT
100
AcDbLine
 10
1.206668038373893
 20
1.261797820700568
 30
0.0
 11
1.048802738662559
 21
1.261797820700568
 31
0.0
  0
LINE
  5
7DE1B343D9E05D4
330
7DE1B343D9E066A
100
AcDbEntity
  8
TEXT
100
AcDbLine
 10
1.130890198109065
 20
1.295738928462632
 30
0.0
 11
1.206668038373893
 21
1.295738928462632
 31
0.0
  0
ARC
  5
7DE1B343D9E05D5
330
7DE1B343D9E066A
100
AcDbEntity
  8
TEXT
100
AcDbCircle
 10
1.136127528223314
 20
1.377734791893562
 30
0.0
 40
0.017902360805315
100
AcDbArc
 50
90.0
 51
270.0
  0
LINE
  5
7DE1B343D9E05D6
330
7DE1B343D9E066A
100
AcDbEntity
  8
TEXT
100
AcDbLine
 10
1.048802738662559
 20
1.261797820700568
 30
0.0
 11
1.048802738662561
 21
1.193440814367128
 31
0.0
  0
LINE
  5
7DE1B343D9E05D7
330
7DE1B343D9E066A
100
AcDbEntity
  8
TEXT
100
AcDbLine
 10
1.303033182252284
 20
1.395637152698874
 30
0.0
 11
1.303033182252284
 21
1.253233205705178
 31
0.0
  0
ARC
  5
7DE1B343D9E05D8
330
7DE1B343D9E066A
100
AcDbEntity
  8
TEXT
100
AcDbCircle
 10
1.201727664467615
 20
1.276636622727685
 30
0.0
 40
0.0831958083605586
100
AcDbArc
 50
270.0
 51
90.0
  0
ARC
  5
7DE1B343D9E05D9
330
7DE1B343D9E066A
100
AcDbEntity
  8
TEXT
100
AcDbCircle
 10
1.206668038373894
 20
1.278768374581602
 30
0.0
 40
0.0169705538810321
100
AcDbArc
 50
270.0
 51
90.0
  0
LWPOLYLINE
  5
7DE1B343D9E05DA
330
7DE1B343D9E066A
100
AcDbEntity
  8
TEXT
100
AcDbPolyline
 90
        2
 70
     0
 43
0.0006660908203125
 10
0.7128125027034109
 20
1.433270214543142
 10
0.7128125027034109
 20
1.459913847355643
  0
LWPOLYLINE
  5
7DE1B343D9E05DE
330
7DE1B343D9E066A
100
AcDbEntity
  8
TEXT
100
AcDbPolyline
 90
        2
 70
     0
 43
0.0006660908203125
 10
0.7527779519221625
 20
1.433270214543142
 10
0.7527779519221625
 20
1.459913847355643
  0
LINE
  5
7DE1B343D9E05E2
330
7DE1B343D9E066A
100
AcDbEntity
  8
TEXT
100
AcDbLine
 10
1.306621951007577
 20
1.459913847355639
 30
0.0
 11
1.130890198109065
 21
1.459913847355639
 31
0.0
  0
LINE
  5
7DE1B343D9E05E3
330
7DE1B343D9E066A
100
AcDbEntity
  8
TEXT
100
AcDbLine
 10
1.306621951007577
 20
1.494301764949777
 30
0.0
 11
1.306621951007577
 21
1.459913847355639
 31
0.0
  0
LINE
  5
7DE1B343D9E05E4
330
7DE1B343D9E066A
100
AcDbEntity
  8
TEXT
100
AcDbLine
 10
1.497093843027429
 20
1.359041851242519
 30
0.0
 11
1.438463521995491
 21
1.459913847355639
 31
0.0
  0
LINE
  5
7DE1B343D9E05E5
330
7DE1B343D9E066A
100
AcDbEntity
  8
TEXT
100
AcDbLine
 10
1.555842405833295
 20
1.459913847355639
 30
0.0
 11
1.497093843027429
 21
1.359041851242519
 31
0.0
  0
LINE
  5
7DE1B343D9E05E6
330
7DE1B343D9E066A
100
AcDbEntity
  8
TEXT
100
AcDbLine
 10
1.652773031193036
 20
1.275828652470127
 30
0.0
 11
1.652773031193036
 21
1.52792532509445
 31
0.0
  0
LINE
  5
7DE1B343D9E05E7
330
7DE1B343D9E066A
100
AcDbEntity
  8
TEXT
100
AcDbLine
 10
1.685084885330696
 20
1.459913847355639
 30
0.0
 11
1.685084885330696
 21
1.259049640623231
 31
0.0
  0
LINE
  5
7DE1B343D9E05E8
330
7DE1B343D9E066A
100
AcDbEntity
  8
TEXT
100
AcDbLine
 10
1.685084885330696
 20
1.259049640623231
 30
0.0
 11
1.668091248446095
 21
1.259049640623231
 31
0.0
  0
LINE
  5
7DE1B343D9E05E9
330
7DE1B343D9E066A
100
AcDbEntity
  8
TEXT
100
AcDbLine
 10
1.653912604689231
 20
1.193440814367128
 30
0.0
 11
1.751915938388665
 21
1.193440814367128
 31
0.0
  0
LINE
  5
7DE1B343D9E05EA
330
7DE1B343D9E066A
100
AcDbEntity
  8
TEXT
100
AcDbLine
 10
1.487493606030475
 20
1.213399320472141
 30
0.0
 11
1.584793312123919
 21
1.377749531407409
 31
0.0
  0
ARC
  5
7DE1B343D9E05EB
330
7DE1B343D9E066A
100
AcDbEntity
  8
TEXT
100
AcDbCircle
 10
1.453450046118261
 20
1.232988536640824
 30
0.0
 40
0.0392772371940762
100
AcDbArc
 50
270.1604552698595
 51
330.0831797321295
  0
LINE
  5
7DE1B343D9E05EC
330
7DE1B343D9E066A
100
AcDbEntity
  8
TEXT
100
AcDbLine
 10
1.35691978973239
 20
1.193440814367128
 30
0.0
 11
1.453560040807384
 21
1.19371145346541
 31
0.0
  0
LWPOLYLINE
  5
7DE1B343D9E05ED
330
7DE1B343D9E066A
100
AcDbEntity
  8
TEXT
100
AcDbPolyline
 90
        6
 70
     1
 43
0.0
 10
1.399443593307539
 20
1.395637152698874
 10
1.369126999087331
 20
1.395637152698874
 10
1.369126999087331
 20
1.272526154643979
 42
0.407328721240804
 10
1.380670650248807
 20
1.260707239967593
 10
1.441292349293538
 20
1.260707239967593
 10
1.458757689700856
 20
1.293519469011072
  0
LINE
  5
7DE1B343D9E05F5
330
7DE1B343D9E066A
100
AcDbEntity
  8
TEXT
100
AcDbLine
 10
1.584793312123919
 20
1.377749531407409
 30
0.0
 11
1.584793312123919
 21
1.244992156582053
 31
0.0
  0
ARC
  5
7DE1B343D9E05F6
330
7DE1B343D9E066A
100
AcDbEntity
  8
TEXT
100
AcDbCircle
 10
1.668091248446093
 20
1.274431446866656
 30
0.0
 40
0.0153818062434269
100
AcDbArc
 50
174.7883570302258
 51
270.0
  0
LWPOLYLINE
  5
7DE1B343D9E05F7
330
7DE1B343D9E066A
100
AcDbEntity
  8
TEXT
100
AcDbPolyline
 90
        2
 70
     0
 43
0.0
 10
1.584793312123918
 20
1.244992156582056
 42
0.3318488747599744
 10
1.653912604689231
 20
1.193440814367128
 42
-6.868794160588311
  0
LINE
  5
7DE1B343D9E05FB
330
7DE1B343D9E066A
100
AcDbEntity
  8
TEXT
100
AcDbLine
 10
1.809305007377926
 20
1.193440814367128
 30
0.0
 11
1.876363054159766
 21
1.193440814367128
 31
0.0
  0
LINE
  5
7DE1B343D9E05FC
330
7DE1B343D9E066A
100
AcDbEntity
  8
TEXT
100
AcDbLine
 10
1.809305007377926
 20
1.388083363532764
 30
0.0
 11
1.809305007377926
 21
1.193440814367128
 31
0.0
  0
LINE
  5
7DE1B343D9E05FD
330
7DE1B343D9E066A
100
AcDbEntity
  8
TEXT
100
AcDbLine
 10
1.751915938388665
 20
1.395637152698874
 30
0.0
 11
1.801751218211813
 21
1.395637152698874
 31
0.0
  0
LINE
  5
7DE1B343D9E05FE
330
7DE1B343D9E066A
100
AcDbEntity
  8
TEXT
100
AcDbLine
 10
1.751915938388665
 20
1.193440814367128
 30
0.0
 11
1.751915938388665
 21
1.395637152698874
 31
0.0
  0
LWPOLYLINE
  5
7DE1B343D9E05FF
330
7DE1B343D9E066A
100
AcDbEntity
  8
TEXT
100
AcDbPolyline
 90
        2
 70
     0
 43
0.0
 10
1.801751218211811
 20
1.395637152698874
 42
-0.4142135623731017
 10
1.809305007377925
 20
1.388083363532764
 42
-0.9999999999999998
  0
LINE
  5
7DE1B343D9E0603
330
7DE1B343D9E066A
100
AcDbEntity
  8
TEXT
100
AcDbLine
 10
2.007561218989496
 20
1.395637152698874
 30
0.0
 11
2.007561218989496
 21
1.320584746624667
 31
0.0
  0
LINE
  5
7DE1B343D9E0604
330
7DE1B343D9E066A
100
AcDbEntity
  8
TEXT
100
AcDbLine
 10
1.876363054159766
 20
1.395637152698874
 30
0.0
 11
1.930496651080717
 21
1.395637152698874
 31
0.0
  0
LINE
  5
7DE1B343D9E0605
330
7DE1B343D9E066A
100
AcDbEntity
  8
TEXT
100
AcDbLine
 10
1.876363054159766
 20
1.193440814367128
 30
0.0
 11
1.876363054159766
 21
1.395637152698874
 31
0.0
  0
LWPOLYLINE
  5
7DE1B343D9E0606
330
7DE1B343D9E066A
100
AcDbEntity
  8
TEXT
100
AcDbPolyline
 90
        2
 70
     0
 43
0.0
 10
1.930496651080715
 20
1.395637152698874
 42
-0.4142135623731017
 10
1.938050440246828
 20
1.388083363532764
 42
-0.9999999999999998
  0
LWPOLYLINE
  5
7DE1B343D9E060A
330
7DE1B343D9E066A
100
AcDbEntity
  8
TEXT
100
AcDbPolyline
 90
        4
 70
     0
 43
0.0
 10
1.938050440246828
 20
1.388083363532764
 10
1.938050440246828
 20
1.193440814367128
 10
2.006528723534686
 20
1.193440814367128
 10
2.006528723534686
 20
1.236931759317566
 42
-1.714843617202739
  0
LINE
  5
7DE1B343D9E0610
330
7DE1B343D9E066A
100
AcDbEntity
  8
TEXT
100
AcDbLine
 10
1.366664555851584
 20
1.459913847355639
 30
0.0
 11
1.366664555851584
 21
1.494301764949777
 31
0.0
  0
LINE
  5
7DE1B343D9E0611
330
7DE1B343D9E066A
100
AcDbEntity
  8
TEXT
100
AcDbLine
 10
1.438463521995491
 20
1.459913847355639
 30
0.0
 11
1.366664555851584
 21
1.459913847355639
 31
0.0
  0
LINE
  5
7DE1B343D9E0612
330
7DE1B343D9E066A
100
AcDbEntity
  8
TEXT
100
AcDbLine
 10
1.585964318626671
 20
1.459913847355639
 30
0.0
 11
1.555842405833295
 21
1.459913847355639
 31
0.0
  0
LINE
  5
7DE1B343D9E0613
330
7DE1B343D9E066A
100
AcDbEntity
  8
TEXT
100
AcDbLine
 10
1.585964318626671
 20
1.52792532509445
 30
0.0
 11
1.585964318626671
 21
1.459913847355639
 31
0.0
  0
LINE
  5
7DE1B343D9E0614
330
7DE1B343D9E066A
100
AcDbEntity
  8
TEXT
100
AcDbLine
 10
1.652773031193036
 20
1.52792532509445
 30
0.0
 11
1.585964318626671
 21
1.52792532509445
 31
0.0
  0
LWPOLYLINE
  5
7DE1B343D9E0615
330
7DE1B343D9E066A
100
AcDbEntity
  8
TEXT
100
AcDbPolyline
 90
        3
 70
     0
 43
0.0
 10
1.973184790791038
 20
1.459913847355643
 10
1.854884631974994
 20
1.459913847355643
 10
1.854884631974994
 20
1.432746350594747
 42
-1.960274751411753
  0
LINE
  5
7DE1B343D9E061A
330
7DE1B343D9E066A
100
AcDbEntity
  8
TEXT
100
AcDbLine
 10
1.819102941261832
 20
1.459913847355639
 30
0.0
 11
1.685084885330696
 21
1.459913847355639
 31
0.0
  0
LWPOLYLINE
  5
7DE1B343D9E061B
330
7DE1B343D9E066A
100
AcDbEntity
  8
TEXT
100
AcDbPolyline
 90
        2
 70
     0
 43
0.0
 10
1.819102941261832
 20
1.459913847355643
 42
-0.3328679258950098
 10
1.854884631974994
 20
1.432746350594747
 42
6.772930709997214
  0
LINE
  5
7DE1B343D9E061F
330
7DE1B343D9E066A
100
AcDbEntity
  8
TEXT
100
AcDbLine
 10
2.008966481504205
 20
1.459913847355639
 30
0.0
 11
2.008966481504205
 21
1.431591301585995
 31
0.0
  0
LWPOLYLINE
  5
7DE1B343D9E0620
330
7DE1B343D9E066A
100
AcDbEntity
  8
TEXT
100
AcDbPolyline
 90
        2
 70
     0
 43
0.0
 10
1.973184790791038
 20
1.459913847355643
 42
-0.3277054968067132
 10
2.008966481504203
 20
1.431591301585999
 42
6.667889725900311
  0
LINE
  5
7DE1B343D9E0624
330
7DE1B343D9E066A
100
AcDbEntity
  8
TEXT
100
AcDbLine
 10
2.222758329596305
 20
1.354701868802212
 30
0.0
 11
2.179007558414403
 21
1.436952144798357
 31
0.0
  0
LINE
  5
7DE1B343D9E0625
330
7DE1B343D9E066A
100
AcDbEntity
  8
TEXT
100
AcDbLine
 10
2.222758329596305
 20
1.459913847355639
 30
0.0
 11
2.222758329596305
 21
1.354701868802212
 31
0.0
  0
LINE
  5
7DE1B343D9E0626
330
7DE1B343D9E066A
100
AcDbEntity
  8
TEXT
100
AcDbLine
 10
2.450442068534674
 20
1.384048520944101
 30
0.0
 11
2.450442068534674
 21
1.52537805312324
 31
0.0
  0
LINE
  5
7DE1B343D9E0627
330
7DE1B343D9E066A
100
AcDbEntity
  8
TEXT
100
AcDbLine
 10
2.497540227090659
 20
1.459913847355639
 30
0.0
 11
2.450442068534674
 21
1.384048520944101
 31
0.0
  0
LINE
  5
7DE1B343D9E0628
330
7DE1B343D9E066A
100
AcDbEntity
  8
TEXT
100
AcDbLine
 10
2.507974943854581
 20
1.350020604414666
 30
0.0
 11
2.572532059820287
 21
1.459913847355639
 31
0.0
  0
LINE
  5
7DE1B343D9E0629
330
7DE1B343D9E066A
100
AcDbEntity
  8
TEXT
100
AcDbLine
 10
2.386607077311901
 20
1.193440814367128
 30
0.0
 11
2.450985261630521
 21
1.193440814367128
 31
0.0
  0
LWPOLYLINE
  5
7DE1B343D9E062A
330
7DE1B343D9E066A
100
AcDbEntity
  8
TEXT
100
AcDbPolyline
 90
        2
 70
     0
 43
0.0
 10
2.226698006901343
 20
1.236931759317566
 42
-0.2901071551932486
 10
2.183622074033698
 20
1.193440814367128
 42
-5.328517124445184
  0
ARC
  5
7DE1B343D9E062E
330
7DE1B343D9E066A
100
AcDbEntity
  8
TEXT
100
AcDbCircle
 10
2.114767492376784
 20
1.367277777698876
 30
0.0
 40
0.028359375
100
AcDbArc
 50
25.78218179591245
 51
90.0
  0
LINE
  5
7DE1B343D9E062F
330
7DE1B343D9E066A
100
AcDbEntity
  8
TEXT
100
AcDbLine
 10
2.150568567680907
 20
1.358362179236741
 30
0.0
 11
2.140303807267343
 21
1.379612718809436
 31
0.0
  0
LINE
  5
7DE1B343D9E0630
330
7DE1B343D9E066A
100
AcDbEntity
  8
TEXT
100
AcDbLine
 10
2.068280577897524
 20
1.358362179236741
 30
0.0
 11
2.150568567680907
 21
1.358362179236741
 31
0.0
  0
LWPOLYLINE
  5
7DE1B343D9E0631
330
7DE1B343D9E066A
100
AcDbEntity
  8
TEXT
100
AcDbPolyline
 90
        4
 70
     1
 43
0.0
 10
2.163499608963806
 20
1.296404792351153
 10
2.074839290303947
 20
1.296404792351153
 42
0.9999999999999998
 10
2.074839290303947
 20
1.254006251847293
 10
2.163499608963806
 20
1.254006251847293
 42
1.0
  0
LWPOLYLINE
  5
7DE1B343D9E0637
330
7DE1B343D9E066A
100
AcDbEntity
  8
TEXT
100
AcDbPolyline
 90
        2
 70
     0
 43
0.0
 10
2.049604656402322
 20
1.193440814367128
 10
2.183622074033698
 20
1.193440814367128
 42
0.9999999999999998
  0
LINE
  5
7DE1B343D9E063B
330
7DE1B343D9E066A
100
AcDbEntity
  8
TEXT
100
AcDbLine
 10
2.309959096019338
 20
1.395637152698874
 30
0.0
 11
2.386607077311896
 21
1.395637152698874
 31
0.0
  0
LINE
  5
7DE1B343D9E063C
330
7DE1B343D9E066A
100
AcDbEntity
  8
TEXT
100
AcDbLine
 10
2.386607077311896
 20
1.395637152698874
 30
0.0
 11
2.386607077311901
 21
1.193440814367128
 31
0.0
  0
ARC
  5
7DE1B343D9E063D
330
7DE1B343D9E066A
100
AcDbEntity
  8
TEXT
100
AcDbCircle
 10
2.309959096019336
 20
1.370731277416211
 30
0.0
 40
0.0249058752826653
100
AcDbArc
 50
89.99971217465335
 51
179.9999999999985
  0
LINE
  5
7DE1B343D9E063E
330
7DE1B343D9E066A
100
AcDbEntity
  8
TEXT
100
AcDbLine
 10
2.285053220736679
 20
1.193440814367128
 30
0.0
 11
2.285053220736673
 21
1.370731319798597
 31
0.0
  0
LWPOLYLINE
  5
7DE1B343D9E063F
330
7DE1B343D9E066A
100
AcDbEntity
  8
TEXT
100
AcDbPolyline
 90
        2
 70
     0
 43
0.0
 10
2.226698006901343
 20
1.193440814367128
 10
2.285053220736677
 20
1.193440814367128
  0
LWPOLYLINE
  5
7DE1B343D9E0643
330
7DE1B343D9E066A
100
AcDbEntity
  8
TEXT
100
AcDbPolyline
 90
        2
 70
     0
 43
0.0
 10
2.226698006901343
 20
1.236931759317566
 10
2.226698006901343
 20
1.193440814367128
  0
LINE
  5
7DE1B343D9E0647
330
7DE1B343D9E066A
100
AcDbEntity
  8
TEXT
100
AcDbLine
 10
2.603467167218192
 20
1.193440814367128
 30
0.0
 11
2.507974943854581
 21
1.350020604414666
 31
0.0
  0
LINE
  5
7DE1B343D9E0648
330
7DE1B343D9E066A
100
AcDbEntity
  8
TEXT
100
AcDbLine
 10
2.526888794841986
 20
1.193440814367128
 30
0.0
 11
2.603467167218192
 21
1.193440814367128
 31
0.0
  0
LINE
  5
7DE1B343D9E0649
330
7DE1B343D9E066A
100
AcDbEntity
  8
TEXT
100
AcDbLine
 10
2.450985261630521
 20
1.325020382843308
 30
0.0
 11
2.526888794841986
 21
1.193440814367128
 31
0.0
  0
LINE
  5
7DE1B343D9E064A
330
7DE1B343D9E066A
100
AcDbEntity
  8
TEXT
100
AcDbLine
 10
2.450985261630521
 20
1.193440814367128
 30
0.0
 11
2.450985261630521
 21
1.325020382843308
 31
0.0
  0
LINE
  5
7DE1B343D9E064B
330
7DE1B343D9E066A
100
AcDbEntity
  8
TEXT
100
AcDbLine
 10
2.450442068534674
 20
1.52537805312324
 30
0.0
 11
2.382127189985401
 21
1.52537805312324
 31
0.0
  0
ARC
  5
7DE1B343D9E064C
330
7DE1B343D9E066A
100
AcDbEntity
  8
TEXT
100
AcDbCircle
 10
2.141771450944195
 20
1.418330280234737
 30
0.0
 40
0.0416329381542859
100
AcDbArc
 50
26.56974201007528
 51
87.20939649401342
  0
LINE
  5
7DE1B343D9E064D
330
7DE1B343D9E066A
100
AcDbEntity
  8
TEXT
100
AcDbLine
 10
2.286655235895806
 20
1.459913847355639
 30
0.0
 11
2.222758329596305
 21
1.459913847355639
 31
0.0
  0
LINE
  5
7DE1B343D9E064E
330
7DE1B343D9E066A
100
AcDbEntity
  8
TEXT
100
AcDbLine
 10
2.286655235895806
 20
1.432366197494765
 30
0.0
 11
2.286655235895806
 21
1.459913847355639
 31
0.0
  0
ARC
  5
7DE1B343D9E064F
330
7DE1B343D9E066A
100
AcDbEntity
  8
TEXT
100
AcDbCircle
 10
2.317848052958914
 20
1.428668120073374
 30
0.0
 40
0.0314112657011332
100
AcDbArc
 50
95.88484768694724
 51
173.2388340632136
  0
LINE
  5
7DE1B343D9E0650
330
7DE1B343D9E066A
100
AcDbEntity
  8
TEXT
100
AcDbLine
 10
2.382127189985395
 20
1.459913847355639
 30
0.0
 11
2.314627472335879
 21
1.459913847355639
 31
0.0
  0
LINE
  5
7DE1B343D9E0651
330
7DE1B343D9E066A
100
AcDbEntity
  8
TEXT
100
AcDbLine
 10
2.382127189985401
 20
1.52537805312324
 30
0.0
 11
2.382127189985395
 21
1.459913847355639
 31
0.0
  0
LINE
  5
7DE1B343D9E0652
330
7DE1B343D9E066A
100
AcDbEntity
  8
TEXT
100
AcDbLine
 10
2.572532059820287
 20
1.459913847355639
 30
0.0
 11
2.49754022709066
 21
1.459913847355639
 31
0.0
  0
ENDSEC
  0
SECTION
  2
OBJECTS
  0
DICTIONARY
  5
7DE1B343D9E065E
330
0
100
AcDbDictionary
  3
ACAD_GROUP
350
7DE1B343D9E065F
  3
ACAD_LAYOUT
350
7DE1B343D9E0684
  3
ACAD_MLINESTYLE
350
7DE1B343D9E0660
  3
ACAD_PLOTSETTINGS
350
7DE1B343D9E0685
  3
ACAD_PLOTSTYLENAME
350
7DE1B343D9E0682
  3
ACDBHEADERROUNDTRIPXREC
350
7DE1B343D9E068F
  3
ACDBVARIABLEDICTIONARY
350
7DE1B343D9E068C
  0
DICTIONARY
  5
7DE1B343D9E06B1
330
7DE1B343D9E066A
100
AcDbDictionary
280
     1
  3
ACAD_LAYOUTSELFREF
360
7DE1B343D9E06B2
  0
DICTIONARY
  5
7DE1B343D9E06AF
330
7DE1B343D9E0667
100
AcDbDictionary
280
     1
  3
ACAD_LAYOUTSELFREF
360
7DE1B343D9E06B0
  0
DICTIONARY
  5
7DE1B343D9E065F
102
{ACAD_REACTORS
330
7DE1B343D9E065E
102
}
330
7DE1B343D9E065E
100
AcDbDictionary
  0
DICTIONARY
  5
7DE1B343D9E0684
102
{ACAD_REACTORS
330
7DE1B343D9E065E
102
}
330
7DE1B343D9E065E
100
AcDbDictionary
  0
DICTIONARY
  5
7DE1B343D9E0660
102
{ACAD_REACTORS
330
7DE1B343D9E065E
102
}
330
7DE1B343D9E065E
100
AcDbDictionary
  3
STANDARD
350
7DE1B343D9E066D
  0
DICTIONARY
  5
7DE1B343D9E0685
102
{ACAD_REACTORS
330
7DE1B343D9E065E
102
}
330
7DE1B343D9E065E
100
AcDbDictionary
  0
ACDBDICTIONARYWDFLT
  5
7DE1B343D9E0682
102
{ACAD_REACTORS
330
7DE1B343D9E065E
102
}
330
7DE1B343D9E065E
100
AcDbDictionary
281
     1
  3
Normal
350
7DE1B343D9E0683
100
AcDbDictionaryWithDefault
340
7DE1B343D9E0683
  0
DICTIONARY
  5
7DE1B343D9E068F
102
{ACAD_REACTORS
330
7DE1B343D9E065E
102
}
330
7DE1B343D9E065E
100
AcDbDictionary
  3
CEPSNTYPE
350
7DE1B343D9E0699
  3
FINGERPRINTGUID
350
7DE1B343D9E069A
  3
HYPERLINKBASE
350
7DE1B343D9E0692
  3
INSUNITS
350
7DE1B343D9E0698
  3
LAYOUTDICT
350
7DE1B343D9E0694
  3
LWETCUNION
350
7DE1B343D9E0697
  3
PLOTSETDICT
350
7DE1B343D9E0695
  3
PLOTSTYLNAMDICT
350
7DE1B343D9E0696
  3
PSVPSCALE
350
7DE1B343D9E069C
  3
PUCSBASE
350
7DE1B343D9E069F
  3
PUCSORGBACK
350
7DE1B343D9E06A5
  3
PUCSORGBOTTOM
350
7DE1B343D9E06A1
  3
PUCSORGFRONT
350
7DE1B343D9E06A4
  3
PUCSORGLEFT
350
7DE1B343D9E06A2
  3
PUCSORGRIGHT
350
7DE1B343D9E06A3
  3
PUCSORGTOP
350
7DE1B343D9E06A0
  3
PUCSORTHOREF
350
7DE1B343D9E069D
  3
PUCSORTHOVIEW
350
7DE1B343D9E069E
  3
STYLESHEET
350
7DE1B343D9E0693
  3
TSTACKALIGN
350
7DE1B343D9E0690
  3
TSTACKSIZE
350
7DE1B343D9E0691
  3
UCSBASE
350
7DE1B343D9E06A8
  3
UCSORGBACK
350
7DE1B343D9E06AE
  3
UCSORGBOTTOM
350
7DE1B343D9E06AA
  3
UCSORGFRONT
350
7DE1B343D9E06AD
  3
UCSORGLEFT
350
7DE1B343D9E06AB
  3
UCSORGRIGHT
350
7DE1B343D9E06AC
  3
UCSORGTOP
350
7DE1B343D9E06A9
  3
UCSORTHOREF
350
7DE1B343D9E06A6
  3
UCSORTHOVIEW
350
7DE1B343D9E06A7
  3
VERSIONGUID
350
7DE1B343D9E069B
  0
DICTIONARY
  5
7DE1B343D9E068C
102
{ACAD_REACTORS
330
7DE1B343D9E065E
102
}
330
7DE1B343D9E065E
100
AcDbDictionary
  3
DIMASSOC
350
7DE1B343D9E068D
  0
XRECORD
  5
7DE1B343D9E06B2
102
{ACAD_REACTORS
330
7DE1B343D9E06B1
102
}
330
7DE1B343D9E06B1
100
AcDbXrecord
340
7DE1B343D9E066A
  0
XRECORD
  5
7DE1B343D9E06B0
102
{ACAD_REACTORS
330
7DE1B343D9E06AF
102
}
330
7DE1B343D9E06AF
100
AcDbXrecord
340
7DE1B343D9E0667
  0
MLINESTYLE
  5
7DE1B343D9E066D
102
{ACAD_REACTORS
330
7DE1B343D9E0660
102
}
330
7DE1B343D9E0660
100
AcDbMlineStyle
  2
STANDARD
 70
     0
  3

 62
     0
 51
90.0
 52
90.0
 71
     2
 49
0.5
 62
   256
  6
BYLAYER
 49
-0.5
 62
   256
  6
BYLAYER
  0
ACDBPLACEHOLDER
  5
7DE1B343D9E0683
102
{ACAD_REACTORS
330
7DE1B343D9E0682
102
}
330
7DE1B343D9E0682
100
AcDbPlaceHolder
280
     0
  0
XRECORD
  5
7DE1B343D9E0699
102
{ACAD_REACTORS
330
7DE1B343D9E068F
102
}
330
7DE1B343D9E068F
100
AcDbXrecord
 90
        0
  0
XRECORD
  5
7DE1B343D9E069A
102
{ACAD_REACTORS
330
7DE1B343D9E068F
102
}
330
7DE1B343D9E068F
100
AcDbXrecord
  1
{7E3838C0-8DB7-11D6-88E6-0090279574E7}
  0
XRECORD
  5
7DE1B343D9E0692
102
{ACAD_REACTORS
330
7DE1B343D9E068F
102
}
330
7DE1B343D9E068F
100
AcDbXrecord
  1

  0
XRECORD
  5
7DE1B343D9E0698
102
{ACAD_REACTORS
330
7DE1B343D9E068F
102
}
330
7DE1B343D9E068F
100
AcDbXrecord
 90
        0
  0
XRECORD
  5
7DE1B343D9E0694
102
{ACAD_REACTORS
330
7DE1B343D9E068F
102
}
330
7DE1B343D9E068F
100
AcDbXrecord
340
7DE1B343D9E0684
  0
XRECORD
  5
7DE1B343D9E0697
102
{ACAD_REACTORS
330
7DE1B343D9E068F
102
}
330
7DE1B343D9E068F
100
AcDbXrecord
 90
    14877
  0
XRECORD
  5
7DE1B343D9E0695
102
{ACAD_REACTORS
330
7DE1B343D9E068F
102
}
330
7DE1B343D9E068F
100
AcDbXrecord
340
7DE1B343D9E0685
  0
XRECORD
  5
7DE1B343D9E0696
102
{ACAD_REACTORS
330
7DE1B343D9E068F
102
}
330
7DE1B343D9E068F
100
AcDbXrecord
340
7DE1B343D9E0682
  0
XRECORD
  5
7DE1B343D9E069C
102
{ACAD_REACTORS
330
7DE1B343D9E068F
102
}
330
7DE1B343D9E068F
100
AcDbXrecord
 40
0.0
  0
XRECORD
  5
7DE1B343D9E069F
102
{ACAD_REACTORS
330
7DE1B343D9E068F
102
}
330
7DE1B343D9E068F
100
AcDbXrecord
340
0
  0
XRECORD
  5
7DE1B343D9E06A5
102
{ACAD_REACTORS
330
7DE1B343D9E068F
102
}
330
7DE1B343D9E068F
100
AcDbXrecord
 10
0.0
 20
0.0
 30
0.0
  0
XRECORD
  5
7DE1B343D9E06A1
102
{ACAD_REACTORS
330
7DE1B343D9E068F
102
}
330
7DE1B343D9E068F
100
AcDbXrecord
 10
0.0
 20
0.0
 30
0.0
  0
XRECORD
  5
7DE1B343D9E06A4
102
{ACAD_REACTORS
330
7DE1B343D9E068F
102
}
330
7DE1B343D9E068F
100
AcDbXrecord
 10
0.0
 20
0.0
 30
0.0
  0
XRECORD
  5
7DE1B343D9E06A2
102
{ACAD_REACTORS
330
7DE1B343D9E068F
102
}
330
7DE1B343D9E068F
100
AcDbXrecord
 10
0.0
 20
0.0
 30
0.0
  0
XRECORD
  5
7DE1B343D9E06A3
102
{ACAD_REACTORS
330
7DE1B343D9E068F
102
}
330
7DE1B343D9E068F
100
AcDbXrecord
 10
0.0
 20
0.0
 30
0.0
  0
XRECORD
  5
7DE1B343D9E06A0
102
{ACAD_REACTORS
330
7DE1B343D9E068F
102
}
330
7DE1B343D9E068F
100
AcDbXrecord
 10
0.0
 20
0.0
 30
0.0
  0
XRECORD
  5
7DE1B343D9E069D
102
{ACAD_REACTORS
330
7DE1B343D9E068F
102
}
330
7DE1B343D9E068F
100
AcDbXrecord
340
0
  0
XRECORD
  5
7DE1B343D9E069E
102
{ACAD_REACTORS
330
7DE1B343D9E068F
102
}
330
7DE1B343D9E068F
100
AcDbXrecord
 70
     0
  0
XRECORD
  5
7DE1B343D9E0693
102
{ACAD_REACTORS
330
7DE1B343D9E068F
102
}
330
7DE1B343D9E068F
100
AcDbXrecord
  1

  0
XRECORD
  5
7DE1B343D9E0690
102
{ACAD_REACTORS
330
7DE1B343D9E068F
102
}
330
7DE1B343D9E068F
100
AcDbXrecord
 90
        1
  0
XRECORD
  5
7DE1B343D9E0691
102
{ACAD_REACTORS
330
7DE1B343D9E068F
102
}
330
7DE1B343D9E068F
100
AcDbXrecord
 90
       70
  0
XRECORD
  5
7DE1B343D9E06A8
102
{ACAD_REACTORS
330
7DE1B343D9E068F
102
}
330
7DE1B343D9E068F
100
AcDbXrecord
340
0
  0
XRECORD
  5
7DE1B343D9E06AE
102
{ACAD_REACTORS
330
7DE1B343D9E068F
102
}
330
7DE1B343D9E068F
100
AcDbXrecord
 10
0.0
 20
0.0
 30
0.0
  0
XRECORD
  5
7DE1B343D9E06AA
102
{ACAD_REACTORS
330
7DE1B343D9E068F
102
}
330
7DE1B343D9E068F
100
AcDbXrecord
 10
0.0
 20
0.0
 30
0.0
  0
XRECORD
  5
7DE1B343D9E06AD
102
{ACAD_REACTORS
330
7DE1B343D9E068F
102
}
330
7DE1B343D9E068F
100
AcDbXrecord
 10
0.0
 20
0.0
 30
0.0
  0
XRECORD
  5
7DE1B343D9E06AB
102
{ACAD_REACTORS
330
7DE1B343D9E068F
102
}
330
7DE1B343D9E068F
100
AcDbXrecord
 10
0.0
 20
0.0
 30
0.0
  0
XRECORD
  5
7DE1B343D9E06AC
102
{ACAD_REACTORS
330
7DE1B343D9E068F
102
}
330
7DE1B343D9E068F
100
AcDbXrecord
 10
0.0
 20
0.0
 30
0.0
  0
XRECORD
  5
7DE1B343D9E06A9
102
{ACAD_REACTORS
330
7DE1B343D9E068F
102
}
330
7DE1B343D9E068F
100
AcDbXrecord
 10
0.0
 20
0.0
 30
0.0
  0
XRECORD
  5
7DE1B343D9E06A6
102
{ACAD_REACTORS
330
7DE1B343D9E068F
102
}
330
7DE1B343D9E068F
100
AcDbXrecord
340
0
  0
XRECORD
  5
7DE1B343D9E06A7
102
{ACAD_REACTORS
330
7DE1B343D9E068F
102
}
330
7DE1B343D9E068F
100
AcDbXrecord
 70
     0
  0
XRECORD
  5
7DE1B343D9E069B
102
{ACAD_REACTORS
330
7DE1B343D9E068F
102
}
330
7DE1B343D9E068F
100
AcDbXrecord
  1
{7E3838C2-8DB7-11D6-88E6-0090279574E7}
  0
DICTIONARYVAR
  5
7DE1B343D9E068D
102
{ACAD_REACTORS
330
7DE1B343D9E068C
102
}
330
7DE1B343D9E068C
100
DictionaryVariables
280
     0
  1
1
  0
ENDSEC
  0
EOF
