  0
SECTION
  2
HEADER
  9
$ACADVER
  1
AC1014
  9
$ACADMAINTVER
 70
     9
  9
$DWGCODEPAGE
  3
ANSI_1252
  9
$INSBASE
 10
2.728286654562569
 20
2.191772338825027
 30
0.0
  9
$EXTMIN
 10
1.022262317036563
 20
1.397436421241293
 30
0.0
  9
$EXTMAX
 10
4.507481638783692
 20
2.379272338825027
 30
0.0
  9
$LIMMIN
 10
0.0
 20
0.0
  9
$LIMMAX
 10
18.0
 20
12.0
  9
$ORTHOMODE
 70
     1
  9
$REGENMODE
 70
     1
  9
$FILLMODE
 70
     1
  9
$QTEXTMODE
 70
     0
  9
$MIRRTEXT
 70
     0
  9
$DRAGMODE
 70
     2
  9
$LTSCALE
 40
1.0
  9
$OSMODE
 70
    39
  9
$ATTMODE
 70
     1
  9
$TEXTSIZE
 40
0.125
  9
$TRACEWID
 40
0.05
  9
$TEXTSTYLE
  7
ROMANS
  9
$CLAYER
  8
0
  9
$CELTYPE
  6
BYLAYER
  9
$CECOLOR
 62
   256
  9
$CELTSCALE
 40
1.0
  9
$DELOBJ
 70
     1
  9
$DISPSILH
 70
     1
  9
$DIMSCALE
 40
1.0
  9
$DIMASZ
 40
0.125
  9
$DIMEXO
 40
0.125
  9
$DIMDLI
 40
0.375
  9
$DIMRND
 40
0.0
  9
$DIMDLE
 40
0.0
  9
$DIMEXE
 40
0.125
  9
$DIMTP
 40
0.0
  9
$DIMTM
 40
0.0
  9
$DIMTXT
 40
0.125
  9
$DIMCEN
 40
-0.125
  9
$DIMTSZ
 40
0.0
  9
$DIMTOL
 70
     0
  9
$DIMLIM
 70
     0
  9
$DIMTIH
 70
     1
  9
$DIMTOH
 70
     1
  9
$DIMSE1
 70
     0
  9
$DIMSE2
 70
     0
  9
$DIMTAD
 70
     0
  9
$DIMZIN
 70
     4
  9
$DIMBLK
  1

  9
$DIMASO
 70
     1
  9
$DIMSHO
 70
     1
  9
$DIMPOST
  1

  9
$DIMAPOST
  1

  9
$DIMALT
 70
     0
  9
$DIMALTD
 70
     2
  9
$DIMALTF
 40
25.4
  9
$DIMLFAC
 40
1.0
  9
$DIMTOFL
 70
     0
  9
$DIMTVP
 40
0.0
  9
$DIMTIX
 70
     1
  9
$DIMSOXD
 70
     0
  9
$DIMSAH
 70
     0
  9
$DIMBLK1
  1

  9
$DIMBLK2
  1

  9
$DIMSTYLE
  2
STANDARD
  9
$DIMCLRD
 70
     0
  9
$DIMCLRE
 70
     0
  9
$DIMCLRT
 70
     0
  9
$DIMTFAC
 40
1.0
  9
$DIMGAP
 40
0.09
  9
$DIMJUST
 70
     0
  9
$DIMSD1
 70
     0
  9
$DIMSD2
 70
     0
  9
$DIMTOLJ
 70
     1
  9
$DIMTZIN
 70
     4
  9
$DIMALTZ
 70
     0
  9
$DIMALTTZ
 70
     0
  9
$DIMFIT
 70
     3
  9
$DIMUPT
 70
     0
  9
$DIMUNIT
 70
     2
  9
$DIMDEC
 70
     3
  9
$DIMTDEC
 70
     3
  9
$DIMALTU
 70
     2
  9
$DIMALTTD
 70
     2
  9
$DIMTXSTY
  7
ROMANS
  9
$DIMAUNIT
 70
     0
  9
$LUNITS
 70
     2
  9
$LUPREC
 70
     3
  9
$SKETCHINC
 40
0.1
  9
$FILLETRAD
 40
0.03125
  9
$AUNITS
 70
     0
  9
$AUPREC
 70
     0
  9
$MENU
  1
ACAD
  9
$ELEVATION
 40
0.0
  9
$PELEVATION
 40
0.0
  9
$THICKNESS
 40
0.0
  9
$LIMCHECK
 70
     0
  9
$BLIPMODE
 70
     0
  9
$CHAMFERA
 40
0.0
  9
$CHAMFERB
 40
0.0
  9
$CHAMFERC
 40
0.0
  9
$CHAMFERD
 40
0.0
  9
$SKPOLY
 70
     0
  9
$TDCREATE
 40
2448994.661992013
  9
$TDUPDATE
 40
2452458.312779467
  9
$TDINDWG
 40
0.0006712500
  9
$TDUSRTIMER
 40
0.0006712500
  9
$USRTIMER
 70
     1
  9
$ANGBASE
 50
0.0
  9
$ANGDIR
 70
     0
  9
$PDMODE
 70
     0
  9
$PDSIZE
 40
0.0
  9
$PLINEWID
 40
0.0
  9
$COORDS
 70
     2
  9
$SPLFRAME
 70
     0
  9
$SPLINETYPE
 70
     6
  9
$SPLINESEGS
 70
     8
  9
$ATTDIA
 70
     0
  9
$ATTREQ
 70
     1
  9
$HANDLING
 70
 22529
  9
$HANDSEED
  5
7DE1B343D9DFB26
  9
$SURFTAB1
 70
     6
  9
$SURFTAB2
 70
     6
  9
$SURFTYPE
 70
     6
  9
$SURFU
 70
     6
  9
$SURFV
 70
     6
  9
$UCSNAME
  2

  9
$UCSORG
 10
0.0
 20
0.0
 30
0.0
  9
$UCSXDIR
 10
1.0
 20
0.0
 30
0.0
  9
$UCSYDIR
 10
0.0
 20
1.0
 30
0.0
  9
$PUCSNAME
  2

  9
$PUCSORG
 10
0.0
 20
0.0
 30
0.0
  9
$PUCSXDIR
 10
1.0
 20
0.0
 30
0.0
  9
$PUCSYDIR
 10
0.0
 20
1.0
 30
0.0
  9
$USERI1
 70
     0
  9
$USERI2
 70
     0
  9
$USERI3
 70
     0
  9
$USERI4
 70
     0
  9
$USERI5
 70
     0
  9
$USERR1
 40
0.0
  9
$USERR2
 40
0.0
  9
$USERR3
 40
0.0
  9
$USERR4
 40
0.0
  9
$USERR5
 40
0.0
  9
$WORLDVIEW
 70
     1
  9
$SHADEDGE
 70
     3
  9
$SHADEDIF
 70
    70
  9
$TILEMODE
 70
     1
  9
$MAXACTVP
 70
    16
  9
$PINSBASE
 10
2.263716054083989
 20
50.00000000000001
 30
2.155487802174944
  9
$PLIMCHECK
 70
     0
  9
$PEXTMIN
 10
1.000000000000000E+20
 20
1.000000000000000E+20
 30
1.000000000000000E+20
  9
$PEXTMAX
 10
-1.000000000000000E+20
 20
-1.000000000000000E+20
 30
-1.000000000000000E+20
  9
$PLIMMIN
 10
0.0
 20
0.0
  9
$PLIMMAX
 10
12.0
 20
9.0
  9
$UNITMODE
 70
     0
  9
$VISRETAIN
 70
     0
  9
$PLINEGEN
 70
     1
  9
$PSLTSCALE
 70
     0
  9
$TREEDEPTH
 70
  3020
  9
$PICKSTYLE
 70
     1
  9
$CMLSTYLE
  2
STANDARD
  9
$CMLJUST
 70
     0
  9
$CMLSCALE
 40
1.0
  9
$PROXYGRAPHICS
 70
     1
  9
$MEASUREMENT
 70
     0
  0
ENDSEC
  0
SECTION
  2
CLASSES
  0
CLASS
  1
LWPOLYLINE
  2
AcDbPolyline
  3
AutoCAD 2000
 90
        0
280
     0
281
     1
  0
CLASS
  1
ACDBDICTIONARYWDFLT
  2
AcDbDictionaryWithDefault
  3
AutoCAD 2000
 90
        0
280
     0
281
     0
  0
CLASS
  1
ACDBPLACEHOLDER
  2
AcDbPlaceHolder
  3
AutoCAD 2000
 90
        0
280
     0
281
     0
  0
CLASS
  1
LAYOUT
  2
AcDbLayout
  3
AutoCAD 2000
 90
        0
280
     0
281
     0
  0
CLASS
  1
DICTIONARYVAR
  2
AcDbDictionaryVar
  3
AutoCAD 2000
 90
        0
280
     0
281
     0
  0
CLASS
  1
LONG_TRANSACTION
  2
AcDbLongTransaction
  3
AutoCAD 2000
 90
        0
280
     0
281
     0
  0
CLASS
  1
LWPOLYLINE
  2
AcDbPolyline
  3
AutoCAD 2000
 90
        0
280
     0
281
     1
  0
CLASS
  1
HATCH
  2
AcDbHatch
  3
AutoCAD 2000
 90
        0
280
     0
281
     1
  0
CLASS
  1
XRECORD
  2
AcDbXrecord
  3
AutoCAD 2000
 90
        0
280
     0
281
     0
  0
ENDSEC
  0
SECTION
  2
TABLES
  0
TABLE
  2
VPORT
  5
7DE1B343D9DFAB2
330
0
100
AcDbSymbolTable
 70
     2
  0
VPORT
  5
7DE1B343D9DFB01
330
7DE1B343D9DFAB2
100
AcDbSymbolTableRecord
100
AcDbViewportTableRecord
  2
*ACTIVE
 70
     0
 10
0.0
 20
0.0
 11
1.0
 21
1.0
 12
5.740908467243817
 22
1.888366722371856
 13
0.0
 23
0.0
 14
0.015625
 24
0.015625
 15
0.0
 25
0.0
 16
0.0
 26
0.0
 36
1.0
 17
0.0
 27
0.0
 37
0.0
 40
2.282647215150728
 41
4.320930232558139
 42
50.0
 43
0.0
 44
0.0
 50
0.0
 51
0.0
 71
     0
 72
  2000
 73
     1
 74
     0
 75
     0
 76
     0
 77
     0
 78
     0
  0
ENDTAB
  0
TABLE
  2
LTYPE
  5
7DE1B343D9DFAAF
330
0
100
AcDbSymbolTable
 70
     1
  0
LTYPE
  5
7DE1B343D9DFABC
330
7DE1B343D9DFAAF
100
AcDbSymbolTableRecord
100
AcDbLinetypeTableRecord
  2
BYBLOCK
 70
     0
  3

 72
    65
 73
     0
 40
0.0
  0
LTYPE
  5
7DE1B343D9DFABD
330
7DE1B343D9DFAAF
100
AcDbSymbolTableRecord
100
AcDbLinetypeTableRecord
  2
BYLAYER
 70
     0
  3

 72
    65
 73
     0
 40
0.0
  0
LTYPE
  5
7DE1B343D9DFABE
330
7DE1B343D9DFAAF
100
AcDbSymbolTableRecord
100
AcDbLinetypeTableRecord
  2
CONTINUOUS
 70
     0
  3
Solid line
 72
    65
 73
     0
 40
0.0
  0
ENDTAB
  0
TABLE
  2
LAYER
  5
7DE1B343D9DFAAC
330
0
100
AcDbSymbolTable
 70
     3
  0
LAYER
  5
7DE1B343D9DFAB9
330
7DE1B343D9DFAAC
100
AcDbSymbolTableRecord
100
AcDbLayerTableRecord
  2
0
 70
     0
 62
     7
  6
CONTINUOUS
  0
LAYER
  5
7DE1B343D9DFAC9
330
7DE1B343D9DFAAC
100
AcDbSymbolTableRecord
100
AcDbLayerTableRecord
  2
TEXT
 70
     0
 62
     3
  6
CONTINUOUS
  0
LAYER
  5
7DE1B343D9DFAD9
330
7DE1B343D9DFAAC
100
AcDbSymbolTableRecord
100
AcDbLayerTableRecord
  2
ASHADE
 70
     4
 62
     7
  6
CONTINUOUS
  0
ENDTAB
  0
TABLE
  2
STYLE
  5
7DE1B343D9DFAAD
330
0
100
AcDbSymbolTable
 70
     4
  0
STYLE
  5
7DE1B343D9DFABA
330
7DE1B343D9DFAAD
100
AcDbSymbolTableRecord
100
AcDbTextStyleTableRecord
  2
STANDARD
 70
     0
 40
0.0
 41
1.0
 50
0.0
 71
     0
 42
0.3125
  3
txt
  4

  0
STYLE
  5
7DE1B343D9DFAC6
330
7DE1B343D9DFAAD
100
AcDbSymbolTableRecord
100
AcDbTextStyleTableRecord
  2
ITALICC
 70
     0
 40
0.0
 41
1.0
 50
0.0
 71
     0
 42
0.125
  3
italicc
  4

  0
STYLE
  5
7DE1B343D9DFAD6
330
7DE1B343D9DFAAD
100
AcDbSymbolTableRecord
100
AcDbTextStyleTableRecord
  2
ASHADE
 70
     0
 40
0.2
 41
1.0
 50
0.0
 71
     0
 42
0.3125
  3
simplex
  4

  0
STYLE
  5
7DE1B343D9DFAF1
330
7DE1B343D9DFAAD
100
AcDbSymbolTableRecord
100
AcDbTextStyleTableRecord
  2
ROMANS
 70
     0
 40
0.0
 41
1.0
 50
0.0
 71
     0
 42
0.125
  3
romans.shx
  4

  0
ENDTAB
  0
TABLE
  2
VIEW
  5
7DE1B343D9DFAB0
330
0
100
AcDbSymbolTable
 70
     0
  0
ENDTAB
  0
TABLE
  2
UCS
  5
7DE1B343D9DFAB1
330
0
100
AcDbSymbolTable
 70
     0
  0
ENDTAB
  0
TABLE
  2
APPID
  5
7DE1B343D9DFAB3
330
0
100
AcDbSymbolTable
 70
     6
  0
APPID
  5
7DE1B343D9DFABB
330
7DE1B343D9DFAB3
100
AcDbSymbolTableRecord
100
AcDbRegAppTableRecord
  2
ACAD
 70
     0
  0
APPID
  5
7DE1B343D9DFAD7
330
7DE1B343D9DFAB3
100
AcDbSymbolTableRecord
100
AcDbRegAppTableRecord
  2
AVE_RENDER
 70
     0
  0
APPID
  5
7DE1B343D9DFAD8
330
7DE1B343D9DFAB3
100
AcDbSymbolTableRecord
100
AcDbRegAppTableRecord
  2
AVE_ENTITY_MATERIAL
 70
     0
  0
APPID
  5
7DE1B343D9DFAE5
330
7DE1B343D9DFAB3
100
AcDbSymbolTableRecord
100
AcDbRegAppTableRecord
  2
AVE_FINISH
 70
     0
  0
APPID
  5
7DE1B343D9DFAE6
330
7DE1B343D9DFAB3
100
AcDbSymbolTableRecord
100
AcDbRegAppTableRecord
  2
AVE_MATERIAL
 70
     0
  0
APPID
  5
7DE1B343D9DFAE7
330
7DE1B343D9DFAB3
100
AcDbSymbolTableRecord
100
AcDbRegAppTableRecord
  2
AVE_GLOBAL
 70
     0
  0
ENDTAB
  0
TABLE
  2
DIMSTYLE
  5
7DE1B343D9DFAB4
330
0
100
AcDbSymbolTable
 70
     1
  0
DIMSTYLE
105
7DE1B343D9DFACE
330
7DE1B343D9DFAB4
100
AcDbSymbolTableRecord
100
AcDbDimStyleTableRecord
  2
STANDARD
 70
     0
  3

  4

  5

  6

  7

 40
1.0
 41
0.125
 42
0.125
 43
0.375
 44
0.125
 45
0.0
 46
0.0
 47
0.0
 48
0.0
140
0.125
141
-0.125
142
0.0
143
25.4
144
1.0
145
0.0
146
1.0
147
0.09
 71
     0
 72
     0
 73
     1
 74
     1
 75
     0
 76
     0
 77
     0
 78
     4
170
     0
171
     2
172
     0
173
     0
174
     1
175
     0
176
     0
177
     0
178
     0
270
     2
271
     3
272
     3
273
     2
274
     2
340
7DE1B343D9DFAF1
275
     0
280
     0
281
     0
282
     0
283
     1
284
     4
285
     0
286
     0
287
     3
288
     0
  0
ENDTAB
  0
TABLE
  2
BLOCK_RECORD
  5
7DE1B343D9DFAAB
330
0
100
AcDbSymbolTable
 70
     2
  0
BLOCK_RECORD
  5
7DE1B343D9DFAC2
102
{ACAD_XDICTIONARY
360
7DE1B343D9DFB24
102
}
330
7DE1B343D9DFAAB
100
AcDbSymbolTableRecord
100
AcDbBlockTableRecord
  2
*MODEL_SPACE
  0
BLOCK_RECORD
  5
7DE1B343D9DFABF
102
{ACAD_XDICTIONARY
360
7DE1B343D9DFB22
102
}
330
7DE1B343D9DFAAB
100
AcDbSymbolTableRecord
100
AcDbBlockTableRecord
  2
*PAPER_SPACE
  0
BLOCK_RECORD
  5
7DE1B343D9DFADA
330
7DE1B343D9DFAAB
100
AcDbSymbolTableRecord
100
AcDbBlockTableRecord
  2
AVE_RENDER
  0
BLOCK_RECORD
  5
7DE1B343D9DFAE8
330
7DE1B343D9DFAAB
100
AcDbSymbolTableRecord
100
AcDbBlockTableRecord
  2
AVE_GLOBAL
  0
ENDTAB
  0
ENDSEC
  0
SECTION
  2
BLOCKS
  0
BLOCK
  5
7DE1B343D9DFACC
330
7DE1B343D9DFAC2
100
AcDbEntity
  8
0
100
AcDbBlockBegin
  2
*MODEL_SPACE
 70
     0
 10
0.0
 20
0.0
 30
0.0
  3
*MODEL_SPACE
  1

  0
ENDBLK
  5
7DE1B343D9DFACD
330
7DE1B343D9DFAC2
100
AcDbEntity
  8
0
100
AcDbBlockEnd
  0
BLOCK
  5
7DE1B343D9DFACA
330
7DE1B343D9DFABF
100
AcDbEntity
 67
     1
  8
0
100
AcDbBlockBegin
  2
*PAPER_SPACE
 70
     0
 10
0.0
 20
0.0
 30
0.0
  3
*PAPER_SPACE
  1

  0
ENDBLK
  5
7DE1B343D9DFACB
330
7DE1B343D9DFABF
100
AcDbEntity
 67
     1
  8
0
100
AcDbBlockEnd
  0
BLOCK
  5
7DE1B343D9DFADB
330
7DE1B343D9DFADA
100
AcDbEntity
  8
0
100
AcDbBlockBegin
  2
AVE_RENDER
 70
     0
 10
0.0
 20
0.0
 30
0.0
  3
AVE_RENDER
  1
AVE_RENDER
  0
ENDBLK
  5
7DE1B343D9DFADC
330
7DE1B343D9DFADA
100
AcDbEntity
  8
0
100
AcDbBlockEnd
  0
BLOCK
  5
7DE1B343D9DFAE9
330
7DE1B343D9DFAE8
100
AcDbEntity
  8
0
100
AcDbBlockBegin
  2
AVE_GLOBAL
 70
     0
 10
0.0
 20
0.0
 30
0.0
  3
AVE_GLOBAL
  1
AVE_GLOBAL
  0
ENDBLK
  5
7DE1B343D9DFAEA
330
7DE1B343D9DFAE8
100
AcDbEntity
  8
0
100
AcDbBlockEnd
  0
ENDSEC
  0
SECTION
  2
ENTITIES
  0
LWPOLYLINE
  5
7DE1B343D9DE6B4
330
7DE1B343D9DFAC2
100
AcDbEntity
  8
0
100
AcDbPolyline
 90
       14
 70
     1
 43
0.0
 10
3.14453665456257
 20
2.254272338825027
 10
3.13453665456257
 20
2.244272338825028
 10
3.12453665456257
 20
2.254272338825027
 10
2.79078665456257
 20
2.254272338825027
 10
2.79078665456257
 20
2.379272338825027
 10
2.04078665456257
 20
2.379272338825027
 10
2.04078665456257
 20
2.316772338825027
 10
2.37453665456257
 20
2.316772338825027
 10
2.38453665456257
 20
2.326772338825028
 10
2.39453665456257
 20
2.316772338825027
 10
2.72828665456257
 20
2.316772338825027
 10
2.728286654562569
 20
2.191772338825027
 10
3.478286654562569
 20
2.191772338825027
 10
3.47828665456257
 20
2.254272338825027
  0
TEXT
  5
7DE1B343D9DF96D
330
7DE1B343D9DFAC2
100
AcDbEntity
  8
TEXT
100
AcDbText
 10
2.012267705787516
 20
1.855455025323874
 30
0.0
 40
0.125
  1
PART #110449
  7
ITALICC
 72
     1
 11
2.765243896263706
 21
1.855455025323874
 31
0.0
100
AcDbText
  0
TEXT
  5
7DE1B343D9DF96E
330
7DE1B343D9DFAC2
100
AcDbEntity
  8
TEXT
100
AcDbText
 10
3.178549054514026
 20
1.408532382651499
 30
0.0
 40
0.0522247191011236
  1
Phone  1-800-328-2495
 41
1.27232142857143
 72
     5
 11
4.507481638783691
 21
1.408532382651499
 31
0.0
100
AcDbText
  0
TEXT
  5
7DE1B343D9DF96F
330
7DE1B343D9DFAC2
100
AcDbEntity
  8
TEXT
100
AcDbText
 10
3.178549054514026
 20
1.688307663550375
 30
0.0
 40
0.0522247191011236
  1
Stylmark  Incorporated
 41
1.221428571428573
 72
     5
 11
4.507481638783691
 21
1.688307663550375
 31
0.0
100
AcDbText
  0
TEXT
  5
7DE1B343D9DF970
330
7DE1B343D9DFAC2
100
AcDbEntity
  8
TEXT
100
AcDbText
 10
3.178549054514026
 20
1.595049236584083
 30
0.0
 40
0.0522247191011236
  1
6536 Main St. N.E. * P.O. Box 32008
 41
0.8388932496075367
 72
     5
 11
4.507481638783691
 21
1.595049236584083
 31
0.0
100
AcDbText
  0
TEXT
  5
7DE1B343D9DF971
330
7DE1B343D9DFAC2
100
AcDbEntity
  8
TEXT
100
AcDbText
 10
3.178549054514026
 20
1.501790809617791
 30
0.0
 40
0.0522247191011236
  1
Minneapolis, MN 55432-0008
 41
1.11444212721585
 72
     5
 11
4.507481638783691
 21
1.501790809617791
 31
0.0
100
AcDbText
  0
LWPOLYLINE
  5
7DE1B343D9DF972
330
7DE1B343D9DFAC2
100
AcDbEntity
  8
TEXT
100
AcDbPolyline
 90
        3
 70
     0
 43
0.0006660908203125
 10
1.022595362446719
 20
1.522177145288934
 10
1.022595362446719
 20
1.408941705835806
 10
1.135830801899841
 20
1.408941705835806
  0
LWPOLYLINE
  5
7DE1B343D9DF977
330
7DE1B343D9DFAC2
100
AcDbEntity
  8
TEXT
100
AcDbPolyline
 90
        3
 70
     0
 43
0.0006660908203125
 10
1.049238995259216
 20
1.522177145288934
 10
1.049238995259216
 20
1.435585338648307
 10
1.135830801899841
 20
1.435585338648307
  0
LWPOLYLINE
  5
7DE1B343D9DF97C
330
7DE1B343D9DFAC2
100
AcDbEntity
  8
TEXT
100
AcDbPolyline
 90
        2
 70
     0
 43
0.0001332181640625
 10
1.095865352681093
 20
1.532168507593619
 10
1.022595362446719
 20
1.522177145288934
  0
LWPOLYLINE
  5
7DE1B343D9DF980
330
7DE1B343D9DFAC2
100
AcDbEntity
  8
TEXT
100
AcDbPolyline
 90
        2
 70
     0
 43
0.0001332181640625
 10
1.049238995259216
 20
1.522177145288934
 10
1.109187169087344
 20
1.532168507593619
  0
LWPOLYLINE
  5
7DE1B343D9DF984
330
7DE1B343D9DFAC2
100
AcDbEntity
  8
TEXT
100
AcDbPolyline
 90
        2
 70
     0
 43
0.0001332181640625
 10
1.049238995259216
 20
1.435585338648307
 10
1.109187169087344
 20
1.495533512476433
  0
LWPOLYLINE
  5
7DE1B343D9DF988
330
7DE1B343D9DFAC2
100
AcDbEntity
  8
TEXT
100
AcDbPolyline
 90
        3
 70
     0
 43
0.0006660908203125
 10
1.135830801899841
 20
1.675378033960809
 10
1.022595362446719
 20
1.675378033960809
 10
1.022595362446719
 20
1.562142594507682
  0
LWPOLYLINE
  5
7DE1B343D9DF98D
330
7DE1B343D9DFAC2
100
AcDbEntity
  8
TEXT
100
AcDbPolyline
 90
        3
 70
     0
 43
0.0006660908203125
 10
1.135830801899841
 20
1.648734401148308
 10
1.049238995259216
 20
1.648734401148308
 10
1.049238995259216
 20
1.562142594507682
  0
LWPOLYLINE
  5
7DE1B343D9DF992
330
7DE1B343D9DFAC2
100
AcDbEntity
  8
TEXT
100
AcDbPolyline
 90
        2
 70
     0
 43
0.0001332181640625
 10
1.049238995259216
 20
1.648734401148308
 10
1.109187169087342
 20
1.588786227320183
  0
LWPOLYLINE
  5
7DE1B343D9DF996
330
7DE1B343D9DFAC2
100
AcDbEntity
  8
TEXT
100
AcDbPolyline
 90
        2
 70
     0
 43
0.0001332181640625
 10
1.049238995259216
 20
1.562142594507682
 10
1.109187169087342
 20
1.552151232202993
  0
LWPOLYLINE
  5
7DE1B343D9DF99A
330
7DE1B343D9DFAC2
100
AcDbEntity
  8
TEXT
100
AcDbPolyline
 90
        2
 70
     0
 43
0.0001332181640625
 10
1.022595362446719
 20
1.562142594507682
 10
1.095865352681093
 20
1.552151232202993
  0
LWPOLYLINE
  5
7DE1B343D9DF99E
330
7DE1B343D9DFAC2
100
AcDbEntity
  8
TEXT
100
AcDbPolyline
 90
        2
 70
     0
 43
0.0006660908203125
 10
1.049238995259216
 20
1.522177145288934
 10
1.022595362446719
 20
1.522177145288934
  0
LWPOLYLINE
  5
7DE1B343D9DF9A2
330
7DE1B343D9DFAC2
100
AcDbEntity
  8
TEXT
100
AcDbPolyline
 90
        2
 70
     0
 43
0.0006660908203125
 10
1.049238995259216
 20
1.562142594507682
 10
1.022595362446719
 20
1.562142594507682
  0
LINE
  5
7DE1B343D9DF9A6
330
7DE1B343D9DFAC2
100
AcDbEntity
  8
TEXT
100
AcDbLine
 10
2.537785791573216
 20
1.61110133930404
 30
0.0
 11
2.430579518185927
 21
1.61110133930404
 31
0.0
  0
LINE
  5
7DE1B343D9DF9A7
330
7DE1B343D9DFAC2
100
AcDbEntity
  8
TEXT
100
AcDbLine
 10
2.566816689917695
 20
1.675378033960806
 30
0.0
 11
2.431984780700636
 21
1.675378033960806
 31
0.0
  0
ARC
  5
7DE1B343D9DF9A8
330
7DE1B343D9DFAC2
100
AcDbEntity
  8
TEXT
100
AcDbCircle
 10
2.491298877093953
 20
1.506140784697789
 30
0.0
 40
0.0676855811441166
100
AcDbArc
 50
90.0
 51
153.7768192527749
  0
LWPOLYLINE
  5
7DE1B343D9DF9A9
330
7DE1B343D9DFAC2
100
AcDbEntity
  8
TEXT
100
AcDbPolyline
 90
        2
 70
     0
 43
0.0
 10
2.429547022731117
 20
1.452395945922733
 42
0.2901071551932823
 10
2.472622955598752
 20
1.408905000972295
 42
5.328517124445801
  0
ARC
  5
7DE1B343D9DF9AD
330
7DE1B343D9DFAC2
100
AcDbEntity
  8
TEXT
100
AcDbCircle
 10
1.786167499422467
 20
1.468697392310344
 30
0.0
 40
0.0601160179737537
100
AcDbArc
 50
180.0000000000003
 51
264.0521544866073
  0
LINE
  5
7DE1B343D9DF9AE
330
7DE1B343D9DFAC2
100
AcDbEntity
  8
TEXT
100
AcDbLine
 10
1.789682855048015
 20
1.709765951554944
 30
0.0
 11
1.729640250204008
 21
1.709765951554944
 31
0.0
  0
ARC
  5
7DE1B343D9DF9AF
330
7DE1B343D9DFAC2
100
AcDbEntity
  8
TEXT
100
AcDbCircle
 10
1.553908497305496
 20
1.593290574514304
 30
0.0
 40
0.0820874594465043
100
AcDbArc
 50
90.0
 51
270.0
  0
LWPOLYLINE
  5
7DE1B343D9DF9B0
330
7DE1B343D9DFAC2
100
AcDbEntity
  8
TEXT
100
AcDbPolyline
 90
        2
 70
     0
 43
0.0001332181640625
 10
1.145822164204532
 20
1.60210804372643
 10
1.135830801899841
 20
1.675378033960809
  0
LWPOLYLINE
  5
7DE1B343D9DF9B4
330
7DE1B343D9DFAC2
100
AcDbEntity
  8
TEXT
100
AcDbPolyline
 90
        2
 70
     0
 43
0.0001332181640625
 10
1.135830801899841
 20
1.648734401148308
 10
1.145822164204532
 20
1.588786227320183
  0
LWPOLYLINE
  5
7DE1B343D9DF9B8
330
7DE1B343D9DFAC2
100
AcDbEntity
  8
TEXT
100
AcDbPolyline
 90
        3
 70
     0
 43
0.0006660908203125
 10
1.289031690571718
 20
1.562142594507682
 10
1.289031690571718
 20
1.675378033960809
 10
1.175796251118593
 20
1.675378033960809
  0
LWPOLYLINE
  5
7DE1B343D9DF9BD
330
7DE1B343D9DFAC2
100
AcDbEntity
  8
TEXT
100
AcDbPolyline
 90
        3
 70
     0
 43
0.0006660908203125
 10
1.262388057759217
 20
1.562142594507682
 10
1.262388057759217
 20
1.648734401148308
 10
1.175796251118593
 20
1.648734401148308
  0
LWPOLYLINE
  5
7DE1B343D9DF9C2
330
7DE1B343D9DFAC2
100
AcDbEntity
  8
TEXT
100
AcDbPolyline
 90
        2
 70
     0
 43
0.0001332181640625
 10
1.262388057759217
 20
1.648734401148308
 10
1.202439883931094
 20
1.588786227320183
  0
LWPOLYLINE
  5
7DE1B343D9DF9C6
330
7DE1B343D9DFAC2
100
AcDbEntity
  8
TEXT
100
AcDbPolyline
 90
        2
 70
     0
 43
0.0001332181640625
 10
1.175796251118593
 20
1.648734401148308
 10
1.165804888813904
 20
1.588786227320183
  0
LWPOLYLINE
  5
7DE1B343D9DF9CA
330
7DE1B343D9DFAC2
100
AcDbEntity
  8
TEXT
100
AcDbPolyline
 90
        2
 70
     0
 43
0.0001332181640625
 10
1.175796251118593
 20
1.675378033960809
 10
1.165804888813904
 20
1.60210804372643
  0
LWPOLYLINE
  5
7DE1B343D9DF9CE
330
7DE1B343D9DFAC2
100
AcDbEntity
  8
TEXT
100
AcDbPolyline
 90
        2
 70
     0
 43
0.0001332181640625
 10
1.215761700337342
 20
1.552151232202993
 10
1.289031690571718
 20
1.562142594507682
  0
LWPOLYLINE
  5
7DE1B343D9DF9D2
330
7DE1B343D9DFAC2
100
AcDbEntity
  8
TEXT
100
AcDbPolyline
 90
        2
 70
     0
 43
0.0001332181640625
 10
1.262388057759217
 20
1.562142594507682
 10
1.202439883931094
 20
1.552151232202993
  0
LWPOLYLINE
  5
7DE1B343D9DF9D6
330
7DE1B343D9DFAC2
100
AcDbEntity
  8
TEXT
100
AcDbPolyline
 90
        2
 70
     0
 43
0.0001332181640625
 10
1.289031690571718
 20
1.522177145288934
 10
1.215761700337342
 20
1.532168507593619
  0
LWPOLYLINE
  5
7DE1B343D9DF9DA
330
7DE1B343D9DFAC2
100
AcDbEntity
  8
TEXT
100
AcDbPolyline
 90
        2
 70
     0
 43
0.0001332181640625
 10
1.262388057759217
 20
1.522177145288934
 10
1.202439883931094
 20
1.532168507593619
  0
LWPOLYLINE
  5
7DE1B343D9DF9DE
330
7DE1B343D9DFAC2
100
AcDbEntity
  8
TEXT
100
AcDbPolyline
 90
        2
 70
     0
 43
0.0001332181640625
 10
1.262388057759217
 20
1.435585338648307
 10
1.202439883931094
 20
1.495533512476433
  0
LWPOLYLINE
  5
7DE1B343D9DF9E2
330
7DE1B343D9DFAC2
100
AcDbEntity
  8
TEXT
100
AcDbPolyline
 90
        3
 70
     0
 43
0.0006660908203125
 10
1.175796251118593
 20
1.435585338648307
 10
1.262388057759217
 20
1.435585338648307
 10
1.262388057759217
 20
1.522177145288934
  0
LWPOLYLINE
  5
7DE1B343D9DF9E7
330
7DE1B343D9DFAC2
100
AcDbEntity
  8
TEXT
100
AcDbPolyline
 90
        3
 70
     0
 43
0.0006660908203125
 10
1.175796251118593
 20
1.408941705835806
 10
1.289031690571718
 20
1.408941705835806
 10
1.289031690571718
 20
1.522177145288934
  0
LWPOLYLINE
  5
7DE1B343D9DF9EC
330
7DE1B343D9DFAC2
100
AcDbEntity
  8
TEXT
100
AcDbPolyline
 90
        5
 70
     0
 43
0.0001332181640625
 10
1.145822164204532
 20
1.482211696070182
 10
1.145822164204532
 20
1.495533512476433
 10
1.109187169087344
 20
1.495533512476433
 10
1.109187169087344
 20
1.532168507593619
 10
1.095865352681093
 20
1.532168507593619
  0
LWPOLYLINE
  5
7DE1B343D9DF9F3
330
7DE1B343D9DFAC2
100
AcDbEntity
  8
TEXT
100
AcDbPolyline
 90
        2
 70
     0
 43
0.0006660908203125
 10
1.135830801899841
 20
1.435585338648307
 10
1.135830801899841
 20
1.408941705835806
  0
LWPOLYLINE
  5
7DE1B343D9DF9F7
330
7DE1B343D9DFAC2
100
AcDbEntity
  8
TEXT
100
AcDbPolyline
 90
        2
 70
     0
 43
0.0001332181640625
 10
1.135830801899841
 20
1.435585338648307
 10
1.145822164204532
 20
1.495533512476433
  0
LWPOLYLINE
  5
7DE1B343D9DF9FB
330
7DE1B343D9DFAC2
100
AcDbEntity
  8
TEXT
100
AcDbPolyline
 90
        2
 70
     0
 43
0.0001332181640625
 10
1.135830801899841
 20
1.408941705835806
 10
1.145822164204532
 20
1.482211696070182
  0
LWPOLYLINE
  5
7DE1B343D9DF9FF
330
7DE1B343D9DFAC2
100
AcDbEntity
  8
TEXT
100
AcDbPolyline
 90
        5
 70
     0
 43
0.0001332181640625
 10
1.095865352681093
 20
1.552151232202993
 10
1.109187169087342
 20
1.552151232202993
 10
1.109187169087342
 20
1.588786227320183
 10
1.145822164204532
 20
1.588786227320183
 10
1.145822164204532
 20
1.60210804372643
  0
LWPOLYLINE
  5
7DE1B343D9DFA06
330
7DE1B343D9DFAC2
100
AcDbEntity
  8
TEXT
100
AcDbPolyline
 90
        5
 70
     0
 43
0.0001332181640625
 10
1.165804888813904
 20
1.60210804372643
 10
1.165804888813904
 20
1.588786227320183
 10
1.202439883931094
 20
1.588786227320183
 10
1.202439883931094
 20
1.552151232202993
 10
1.215761700337342
 20
1.552151232202993
  0
LWPOLYLINE
  5
7DE1B343D9DFA0D
330
7DE1B343D9DFAC2
100
AcDbEntity
  8
TEXT
100
AcDbPolyline
 90
        2
 70
     0
 43
0.0001332181640625
 10
1.175796251118593
 20
1.435585338648307
 10
1.165804888813904
 20
1.495533512476433
  0
LWPOLYLINE
  5
7DE1B343D9DFA11
330
7DE1B343D9DFAC2
100
AcDbEntity
  8
TEXT
100
AcDbPolyline
 90
        2
 70
     0
 43
0.0001332181640625
 10
1.165804888813904
 20
1.482211696070182
 10
1.175796251118593
 20
1.408941705835806
  0
LWPOLYLINE
  5
7DE1B343D9DFA15
330
7DE1B343D9DFAC2
100
AcDbEntity
  8
TEXT
100
AcDbPolyline
 90
        2
 70
     0
 43
0.0006660908203125
 10
1.175796251118593
 20
1.435585338648307
 10
1.175796251118593
 20
1.408941705835806
  0
LWPOLYLINE
  5
7DE1B343D9DFA19
330
7DE1B343D9DFAC2
100
AcDbEntity
  8
TEXT
100
AcDbPolyline
 90
        5
 70
     0
 43
0.0001332181640625
 10
1.215761700337342
 20
1.532168507593619
 10
1.202439883931094
 20
1.532168507593619
 10
1.202439883931094
 20
1.495533512476433
 10
1.165804888813904
 20
1.495533512476433
 10
1.165804888813904
 20
1.482211696070182
  0
LWPOLYLINE
  5
7DE1B343D9DFA20
330
7DE1B343D9DFAC2
100
AcDbEntity
  8
TEXT
100
AcDbPolyline
 90
        2
 70
     0
 43
0.0006660908203125
 10
1.262388057759217
 20
1.562142594507682
 10
1.289031690571718
 20
1.562142594507682
  0
LWPOLYLINE
  5
7DE1B343D9DFA24
330
7DE1B343D9DFAC2
100
AcDbEntity
  8
TEXT
100
AcDbPolyline
 90
        2
 70
     0
 43
0.0006660908203125
 10
1.262388057759217
 20
1.522177145288934
 10
1.289031690571718
 20
1.522177145288934
  0
LINE
  5
7DE1B343D9DFA28
330
7DE1B343D9DFAC2
100
AcDbEntity
  8
TEXT
100
AcDbLine
 10
1.559145827419743
 20
1.61110133930404
 30
0.0
 11
1.726051481448715
 21
1.61110133930404
 31
0.0
  0
LINE
  5
7DE1B343D9DFA29
330
7DE1B343D9DFAC2
100
AcDbEntity
  8
TEXT
100
AcDbLine
 10
1.624745963664044
 20
1.575296617693412
 30
0.0
 11
1.559145827419743
 21
1.575296617693412
 31
0.0
  0
LINE
  5
7DE1B343D9DFA2A
330
7DE1B343D9DFAC2
100
AcDbEntity
  8
TEXT
100
AcDbLine
 10
1.471821037858992
 20
1.408905000972295
 30
0.0
 11
1.624745963664044
 21
1.408905000972295
 31
0.0
  0
LINE
  5
7DE1B343D9DFA2B
330
7DE1B343D9DFAC2
100
AcDbEntity
  8
TEXT
100
AcDbLine
 10
1.629686337570324
 20
1.477262007305734
 30
0.0
 11
1.47182103785899
 21
1.477262007305734
 31
0.0
  0
LINE
  5
7DE1B343D9DFA2C
330
7DE1B343D9DFAC2
100
AcDbEntity
  8
TEXT
100
AcDbLine
 10
1.553908497305495
 20
1.511203115067799
 30
0.0
 11
1.629686337570324
 21
1.511203115067799
 31
0.0
  0
ARC
  5
7DE1B343D9DFA2D
330
7DE1B343D9DFAC2
100
AcDbEntity
  8
TEXT
100
AcDbCircle
 10
1.559145827419744
 20
1.593198978498728
 30
0.0
 40
0.017902360805315
100
AcDbArc
 50
90.0
 51
270.0
  0
LINE
  5
7DE1B343D9DFA2E
330
7DE1B343D9DFAC2
100
AcDbEntity
  8
TEXT
100
AcDbLine
 10
1.47182103785899
 20
1.477262007305734
 30
0.0
 11
1.471821037858992
 21
1.408905000972295
 31
0.0
  0
LINE
  5
7DE1B343D9DFA2F
330
7DE1B343D9DFAC2
100
AcDbEntity
  8
TEXT
100
AcDbLine
 10
1.726051481448715
 20
1.61110133930404
 30
0.0
 11
1.726051481448715
 21
1.468697392310344
 31
0.0
  0
ARC
  5
7DE1B343D9DFA30
330
7DE1B343D9DFAC2
100
AcDbEntity
  8
TEXT
100
AcDbCircle
 10
1.624745963664045
 20
1.492100809332852
 30
0.0
 40
0.0831958083605586
100
AcDbArc
 50
270.0
 51
90.0
  0
ARC
  5
7DE1B343D9DFA31
330
7DE1B343D9DFAC2
100
AcDbEntity
  8
TEXT
100
AcDbCircle
 10
1.629686337570325
 20
1.494232561186768
 30
0.0
 40
0.0169705538810321
100
AcDbArc
 50
270.0
 51
90.0
  0
LWPOLYLINE
  5
7DE1B343D9DFA32
330
7DE1B343D9DFAC2
100
AcDbEntity
  8
TEXT
100
AcDbPolyline
 90
        2
 70
     0
 43
0.0006660908203125
 10
1.135830801899841
 20
1.648734401148308
 10
1.135830801899841
 20
1.675378033960809
  0
LWPOLYLINE
  5
7DE1B343D9DFA36
330
7DE1B343D9DFAC2
100
AcDbEntity
  8
TEXT
100
AcDbPolyline
 90
        2
 70
     0
 43
0.0006660908203125
 10
1.175796251118593
 20
1.648734401148308
 10
1.175796251118593
 20
1.675378033960809
  0
LINE
  5
7DE1B343D9DFA3A
330
7DE1B343D9DFAC2
100
AcDbEntity
  8
TEXT
100
AcDbLine
 10
1.729640250204008
 20
1.675378033960806
 30
0.0
 11
1.553908497305495
 21
1.675378033960806
 31
0.0
  0
LINE
  5
7DE1B343D9DFA3B
330
7DE1B343D9DFAC2
100
AcDbEntity
  8
TEXT
100
AcDbLine
 10
1.729640250204008
 20
1.709765951554944
 30
0.0
 11
1.729640250204008
 21
1.675378033960806
 31
0.0
  0
LINE
  5
7DE1B343D9DFA3C
330
7DE1B343D9DFAC2
100
AcDbEntity
  8
TEXT
100
AcDbLine
 10
1.92011214222386
 20
1.574506037847685
 30
0.0
 11
1.861481821191922
 21
1.675378033960806
 31
0.0
  0
LINE
  5
7DE1B343D9DFA3D
330
7DE1B343D9DFAC2
100
AcDbEntity
  8
TEXT
100
AcDbLine
 10
1.978860705029725
 20
1.675378033960806
 30
0.0
 11
1.92011214222386
 21
1.574506037847685
 31
0.0
  0
LINE
  5
7DE1B343D9DFA3E
330
7DE1B343D9DFAC2
100
AcDbEntity
  8
TEXT
100
AcDbLine
 10
2.075791330389467
 20
1.491292839075294
 30
0.0
 11
2.075791330389467
 21
1.743389511699616
 31
0.0
  0
LINE
  5
7DE1B343D9DFA3F
330
7DE1B343D9DFAC2
100
AcDbEntity
  8
TEXT
100
AcDbLine
 10
2.108103184527127
 20
1.675378033960806
 30
0.0
 11
2.108103184527127
 21
1.474513827228397
 31
0.0
  0
LINE
  5
7DE1B343D9DFA40
330
7DE1B343D9DFAC2
100
AcDbEntity
  8
TEXT
100
AcDbLine
 10
2.108103184527127
 20
1.474513827228397
 30
0.0
 11
2.091109547642525
 21
1.474513827228397
 31
0.0
  0
LINE
  5
7DE1B343D9DFA41
330
7DE1B343D9DFAC2
100
AcDbEntity
  8
TEXT
100
AcDbLine
 10
2.076930903885661
 20
1.408905000972295
 30
0.0
 11
2.174934237585096
 21
1.408905000972295
 31
0.0
  0
LINE
  5
7DE1B343D9DFA42
330
7DE1B343D9DFAC2
100
AcDbEntity
  8
TEXT
100
AcDbLine
 10
1.910511905226906
 20
1.428863507077308
 30
0.0
 11
2.00781161132035
 21
1.593213718012576
 31
0.0
  0
ARC
  5
7DE1B343D9DFA43
330
7DE1B343D9DFAC2
100
AcDbEntity
  8
TEXT
100
AcDbCircle
 10
1.876468345314691
 20
1.44845272324599
 30
0.0
 40
0.0392772371940762
100
AcDbArc
 50
270.1604552698595
 51
330.0831797321295
  0
LINE
  5
7DE1B343D9DFA44
330
7DE1B343D9DFAC2
100
AcDbEntity
  8
TEXT
100
AcDbLine
 10
1.77993808892882
 20
1.408905000972295
 30
0.0
 11
1.876578340003815
 21
1.409175640070577
 31
0.0
  0
LWPOLYLINE
  5
7DE1B343D9DFA45
330
7DE1B343D9DFAC2
100
AcDbEntity
  8
TEXT
100
AcDbPolyline
 90
        6
 70
     1
 43
0.0
 10
1.82246189250397
 20
1.61110133930404
 10
1.792145298283762
 20
1.61110133930404
 10
1.792145298283762
 20
1.487990341249146
 42
0.407328721240804
 10
1.803688949445238
 20
1.47617142657276
 10
1.864310648489969
 20
1.47617142657276
 10
1.881775988897287
 20
1.508983655616239
  0
LINE
  5
7DE1B343D9DFA4D
330
7DE1B343D9DFAC2
100
AcDbEntity
  8
TEXT
100
AcDbLine
 10
2.00781161132035
 20
1.593213718012576
 30
0.0
 11
2.00781161132035
 21
1.460456343187219
 31
0.0
  0
ARC
  5
7DE1B343D9DFA4E
330
7DE1B343D9DFAC2
100
AcDbEntity
  8
TEXT
100
AcDbCircle
 10
2.091109547642524
 20
1.489895633471823
 30
0.0
 40
0.0153818062434269
100
AcDbArc
 50
174.7883570302258
 51
270.0
  0
LWPOLYLINE
  5
7DE1B343D9DFA4F
330
7DE1B343D9DFAC2
100
AcDbEntity
  8
TEXT
100
AcDbPolyline
 90
        2
 70
     0
 43
0.0
 10
2.007811611320348
 20
1.460456343187223
 42
0.3318488747599744
 10
2.076930903885661
 20
1.408905000972295
 42
-6.868794160588311
  0
LINE
  5
7DE1B343D9DFA53
330
7DE1B343D9DFAC2
100
AcDbEntity
  8
TEXT
100
AcDbLine
 10
2.232323306574357
 20
1.408905000972295
 30
0.0
 11
2.299381353356197
 21
1.408905000972295
 31
0.0
  0
LINE
  5
7DE1B343D9DFA54
330
7DE1B343D9DFAC2
100
AcDbEntity
  8
TEXT
100
AcDbLine
 10
2.232323306574357
 20
1.60354755013793
 30
0.0
 11
2.232323306574357
 21
1.408905000972295
 31
0.0
  0
LINE
  5
7DE1B343D9DFA55
330
7DE1B343D9DFAC2
100
AcDbEntity
  8
TEXT
100
AcDbLine
 10
2.174934237585096
 20
1.61110133930404
 30
0.0
 11
2.224769517408244
 21
1.61110133930404
 31
0.0
  0
LINE
  5
7DE1B343D9DFA56
330
7DE1B343D9DFAC2
100
AcDbEntity
  8
TEXT
100
AcDbLine
 10
2.174934237585096
 20
1.408905000972295
 30
0.0
 11
2.174934237585096
 21
1.61110133930404
 31
0.0
  0
LWPOLYLINE
  5
7DE1B343D9DFA57
330
7DE1B343D9DFAC2
100
AcDbEntity
  8
TEXT
100
AcDbPolyline
 90
        2
 70
     0
 43
0.0
 10
2.224769517408242
 20
1.61110133930404
 42
-0.4142135623731017
 10
2.232323306574355
 20
1.60354755013793
 42
-0.9999999999999998
  0
LINE
  5
7DE1B343D9DFA5B
330
7DE1B343D9DFAC2
100
AcDbEntity
  8
TEXT
100
AcDbLine
 10
2.430579518185927
 20
1.61110133930404
 30
0.0
 11
2.430579518185927
 21
1.536048933229834
 31
0.0
  0
LINE
  5
7DE1B343D9DFA5C
330
7DE1B343D9DFAC2
100
AcDbEntity
  8
TEXT
100
AcDbLine
 10
2.299381353356197
 20
1.61110133930404
 30
0.0
 11
2.353514950277147
 21
1.61110133930404
 31
0.0
  0
LINE
  5
7DE1B343D9DFA5D
330
7DE1B343D9DFAC2
100
AcDbEntity
  8
TEXT
100
AcDbLine
 10
2.299381353356197
 20
1.408905000972295
 30
0.0
 11
2.299381353356197
 21
1.61110133930404
 31
0.0
  0
LWPOLYLINE
  5
7DE1B343D9DFA5E
330
7DE1B343D9DFAC2
100
AcDbEntity
  8
TEXT
100
AcDbPolyline
 90
        2
 70
     0
 43
0.0
 10
2.353514950277145
 20
1.61110133930404
 42
-0.4142135623731017
 10
2.361068739443259
 20
1.60354755013793
 42
-0.9999999999999998
  0
LWPOLYLINE
  5
7DE1B343D9DFA62
330
7DE1B343D9DFAC2
100
AcDbEntity
  8
TEXT
100
AcDbPolyline
 90
        4
 70
     0
 43
0.0
 10
2.361068739443259
 20
1.60354755013793
 10
2.361068739443259
 20
1.408905000972295
 10
2.429547022731117
 20
1.408905000972295
 10
2.429547022731117
 20
1.452395945922733
 42
-1.714843617202739
  0
LINE
  5
7DE1B343D9DFA68
330
7DE1B343D9DFAC2
100
AcDbEntity
  8
TEXT
100
AcDbLine
 10
1.789682855048015
 20
1.675378033960806
 30
0.0
 11
1.789682855048015
 21
1.709765951554944
 31
0.0
  0
LINE
  5
7DE1B343D9DFA69
330
7DE1B343D9DFAC2
100
AcDbEntity
  8
TEXT
100
AcDbLine
 10
1.861481821191922
 20
1.675378033960806
 30
0.0
 11
1.789682855048015
 21
1.675378033960806
 31
0.0
  0
LINE
  5
7DE1B343D9DFA6A
330
7DE1B343D9DFAC2
100
AcDbEntity
  8
TEXT
100
AcDbLine
 10
2.008982617823102
 20
1.675378033960806
 30
0.0
 11
1.978860705029725
 21
1.675378033960806
 31
0.0
  0
LINE
  5
7DE1B343D9DFA6B
330
7DE1B343D9DFAC2
100
AcDbEntity
  8
TEXT
100
AcDbLine
 10
2.008982617823102
 20
1.743389511699616
 30
0.0
 11
2.008982617823102
 21
1.675378033960806
 31
0.0
  0
LINE
  5
7DE1B343D9DFA6C
330
7DE1B343D9DFAC2
100
AcDbEntity
  8
TEXT
100
AcDbLine
 10
2.075791330389467
 20
1.743389511699616
 30
0.0
 11
2.008982617823102
 21
1.743389511699616
 31
0.0
  0
LWPOLYLINE
  5
7DE1B343D9DFA6D
330
7DE1B343D9DFAC2
100
AcDbEntity
  8
TEXT
100
AcDbPolyline
 90
        3
 70
     0
 43
0.0
 10
2.396203089987469
 20
1.675378033960809
 10
2.277902931171424
 20
1.675378033960809
 10
2.277902931171424
 20
1.648210537199913
 42
-1.960274751411753
  0
LINE
  5
7DE1B343D9DFA72
330
7DE1B343D9DFAC2
100
AcDbEntity
  8
TEXT
100
AcDbLine
 10
2.242121240458263
 20
1.675378033960806
 30
0.0
 11
2.108103184527127
 21
1.675378033960806
 31
0.0
  0
LWPOLYLINE
  5
7DE1B343D9DFA73
330
7DE1B343D9DFAC2
100
AcDbEntity
  8
TEXT
100
AcDbPolyline
 90
        2
 70
     0
 43
0.0
 10
2.242121240458263
 20
1.675378033960809
 42
-0.3328679258950098
 10
2.277902931171424
 20
1.648210537199913
 42
6.772930709997214
  0
LINE
  5
7DE1B343D9DFA77
330
7DE1B343D9DFAC2
100
AcDbEntity
  8
TEXT
100
AcDbLine
 10
2.431984780700636
 20
1.675378033960806
 30
0.0
 11
2.431984780700636
 21
1.647055488191162
 31
0.0
  0
LWPOLYLINE
  5
7DE1B343D9DFA78
330
7DE1B343D9DFAC2
100
AcDbEntity
  8
TEXT
100
AcDbPolyline
 90
        2
 70
     0
 43
0.0
 10
2.396203089987469
 20
1.675378033960809
 42
-0.3277054968067132
 10
2.431984780700634
 20
1.647055488191165
 42
6.667889725900311
  0
LINE
  5
7DE1B343D9DFA7C
330
7DE1B343D9DFAC2
100
AcDbEntity
  8
TEXT
100
AcDbLine
 10
2.645776628792736
 20
1.570166055407378
 30
0.0
 11
2.602025857610834
 21
1.652416331403524
 31
0.0
  0
LINE
  5
7DE1B343D9DFA7D
330
7DE1B343D9DFAC2
100
AcDbEntity
  8
TEXT
100
AcDbLine
 10
2.645776628792736
 20
1.675378033960806
 30
0.0
 11
2.645776628792736
 21
1.570166055407378
 31
0.0
  0
LINE
  5
7DE1B343D9DFA7E
330
7DE1B343D9DFAC2
100
AcDbEntity
  8
TEXT
100
AcDbLine
 10
2.873460367731105
 20
1.599512707549268
 30
0.0
 11
2.873460367731105
 21
1.740842239728406
 31
0.0
  0
LINE
  5
7DE1B343D9DFA7F
330
7DE1B343D9DFAC2
100
AcDbEntity
  8
TEXT
100
AcDbLine
 10
2.920558526287089
 20
1.675378033960806
 30
0.0
 11
2.873460367731105
 21
1.599512707549268
 31
0.0
  0
LINE
  5
7DE1B343D9DFA80
330
7DE1B343D9DFAC2
100
AcDbEntity
  8
TEXT
100
AcDbLine
 10
2.930993243051012
 20
1.565484791019832
 30
0.0
 11
2.995550359016717
 21
1.675378033960806
 31
0.0
  0
LINE
  5
7DE1B343D9DFA81
330
7DE1B343D9DFAC2
100
AcDbEntity
  8
TEXT
100
AcDbLine
 10
2.809625376508332
 20
1.408905000972295
 30
0.0
 11
2.874003560826952
 21
1.408905000972295
 31
0.0
  0
LWPOLYLINE
  5
7DE1B343D9DFA82
330
7DE1B343D9DFAC2
100
AcDbEntity
  8
TEXT
100
AcDbPolyline
 90
        2
 70
     0
 43
0.0
 10
2.649716306097773
 20
1.452395945922733
 42
-0.2901071551932486
 10
2.606640373230129
 20
1.408905000972295
 42
-5.328517124445184
  0
ARC
  5
7DE1B343D9DFA86
330
7DE1B343D9DFAC2
100
AcDbEntity
  8
TEXT
100
AcDbCircle
 10
2.537785791573214
 20
1.582741964304043
 30
0.0
 40
0.028359375
100
AcDbArc
 50
25.78218179591245
 51
90.0
  0
LINE
  5
7DE1B343D9DFA87
330
7DE1B343D9DFAC2
100
AcDbEntity
  8
TEXT
100
AcDbLine
 10
2.573586866877338
 20
1.573826365841908
 30
0.0
 11
2.563322106463773
 21
1.595076905414602
 31
0.0
  0
LINE
  5
7DE1B343D9DFA88
330
7DE1B343D9DFAC2
100
AcDbEntity
  8
TEXT
100
AcDbLine
 10
2.491298877093954
 20
1.573826365841908
 30
0.0
 11
2.573586866877338
 21
1.573826365841908
 31
0.0
  0
LWPOLYLINE
  5
7DE1B343D9DFA89
330
7DE1B343D9DFAC2
100
AcDbEntity
  8
TEXT
100
AcDbPolyline
 90
        4
 70
     1
 43
0.0
 10
2.586517908160236
 20
1.51186897895632
 10
2.497857589500378
 20
1.51186897895632
 42
0.9999999999999998
 10
2.497857589500378
 20
1.469470438452459
 10
2.586517908160236
 20
1.469470438452459
 42
1.0
  0
LWPOLYLINE
  5
7DE1B343D9DFA8F
330
7DE1B343D9DFAC2
100
AcDbEntity
  8
TEXT
100
AcDbPolyline
 90
        2
 70
     0
 43
0.0
 10
2.472622955598752
 20
1.408905000972295
 10
2.606640373230129
 20
1.408905000972295
 42
0.9999999999999998
  0
LINE
  5
7DE1B343D9DFA93
330
7DE1B343D9DFAC2
100
AcDbEntity
  8
TEXT
100
AcDbLine
 10
2.732977395215768
 20
1.61110133930404
 30
0.0
 11
2.809625376508326
 21
1.61110133930404
 31
0.0
  0
LINE
  5
7DE1B343D9DFA94
330
7DE1B343D9DFAC2
100
AcDbEntity
  8
TEXT
100
AcDbLine
 10
2.809625376508326
 20
1.61110133930404
 30
0.0
 11
2.809625376508332
 21
1.408905000972295
 31
0.0
  0
ARC
  5
7DE1B343D9DFA95
330
7DE1B343D9DFAC2
100
AcDbEntity
  8
TEXT
100
AcDbCircle
 10
2.732977395215767
 20
1.586195464021377
 30
0.0
 40
0.0249058752826653
100
AcDbArc
 50
89.99971217465335
 51
179.9999999999985
  0
LINE
  5
7DE1B343D9DFA96
330
7DE1B343D9DFAC2
100
AcDbEntity
  8
TEXT
100
AcDbLine
 10
2.708071519933109
 20
1.408905000972295
 30
0.0
 11
2.708071519933104
 21
1.586195506403763
 31
0.0
  0
LWPOLYLINE
  5
7DE1B343D9DFA97
330
7DE1B343D9DFAC2
100
AcDbEntity
  8
TEXT
100
AcDbPolyline
 90
        2
 70
     0
 43
0.0
 10
2.649716306097773
 20
1.408905000972295
 10
2.708071519933108
 20
1.408905000972295
  0
LWPOLYLINE
  5
7DE1B343D9DFA9B
330
7DE1B343D9DFAC2
100
AcDbEntity
  8
TEXT
100
AcDbPolyline
 90
        2
 70
     0
 43
0.0
 10
2.649716306097773
 20
1.452395945922733
 10
2.649716306097773
 20
1.408905000972295
  0
LINE
  5
7DE1B343D9DFA9F
330
7DE1B343D9DFAC2
100
AcDbEntity
  8
TEXT
100
AcDbLine
 10
3.026485466414623
 20
1.408905000972295
 30
0.0
 11
2.930993243051012
 21
1.565484791019832
 31
0.0
  0
LINE
  5
7DE1B343D9DFAA0
330
7DE1B343D9DFAC2
100
AcDbEntity
  8
TEXT
100
AcDbLine
 10
2.949907094038417
 20
1.408905000972295
 30
0.0
 11
3.026485466414623
 21
1.408905000972295
 31
0.0
  0
LINE
  5
7DE1B343D9DFAA1
330
7DE1B343D9DFAC2
100
AcDbEntity
  8
TEXT
100
AcDbLine
 10
2.874003560826952
 20
1.540484569448475
 30
0.0
 11
2.949907094038417
 21
1.408905000972295
 31
0.0
  0
LINE
  5
7DE1B343D9DFAA2
330
7DE1B343D9DFAC2
100
AcDbEntity
  8
TEXT
100
AcDbLine
 10
2.874003560826952
 20
1.408905000972295
 30
0.0
 11
2.874003560826952
 21
1.540484569448475
 31
0.0
  0
LINE
  5
7DE1B343D9DFAA3
330
7DE1B343D9DFAC2
100
AcDbEntity
  8
TEXT
100
AcDbLine
 10
2.873460367731105
 20
1.740842239728406
 30
0.0
 11
2.805145489181832
 21
1.740842239728406
 31
0.0
  0
ARC
  5
7DE1B343D9DFAA4
330
7DE1B343D9DFAC2
100
AcDbEntity
  8
TEXT
100
AcDbCircle
 10
2.564789750140625
 20
1.633794466839903
 30
0.0
 40
0.0416329381542859
100
AcDbArc
 50
26.56974201007528
 51
87.20939649401342
  0
LINE
  5
7DE1B343D9DFAA5
330
7DE1B343D9DFAC2
100
AcDbEntity
  8
TEXT
100
AcDbLine
 10
2.709673535092237
 20
1.675378033960806
 30
0.0
 11
2.645776628792736
 21
1.675378033960806
 31
0.0
  0
LINE
  5
7DE1B343D9DFAA6
330
7DE1B343D9DFAC2
100
AcDbEntity
  8
TEXT
100
AcDbLine
 10
2.709673535092237
 20
1.647830384099931
 30
0.0
 11
2.709673535092237
 21
1.675378033960806
 31
0.0
  0
ARC
  5
7DE1B343D9DFAA7
330
7DE1B343D9DFAC2
100
AcDbEntity
  8
TEXT
100
AcDbCircle
 10
2.740866352155344
 20
1.644132306678541
 30
0.0
 40
0.0314112657011332
100
AcDbArc
 50
95.88484768694724
 51
173.2388340632136
  0
LINE
  5
7DE1B343D9DFAA8
330
7DE1B343D9DFAC2
100
AcDbEntity
  8
TEXT
100
AcDbLine
 10
2.805145489181826
 20
1.675378033960806
 30
0.0
 11
2.73764577153231
 21
1.675378033960806
 31
0.0
  0
LINE
  5
7DE1B343D9DFAA9
330
7DE1B343D9DFAC2
100
AcDbEntity
  8
TEXT
100
AcDbLine
 10
2.805145489181832
 20
1.740842239728406
 30
0.0
 11
2.805145489181826
 21
1.675378033960806
 31
0.0
  0
LINE
  5
7DE1B343D9DFAAA
330
7DE1B343D9DFAC2
100
AcDbEntity
  8
TEXT
100
AcDbLine
 10
2.995550359016717
 20
1.675378033960806
 30
0.0
 11
2.920558526287091
 21
1.675378033960806
 31
0.0
  0
INSERT
  5
7DE1B343D9DFADD
330
7DE1B343D9DFAC2
100
AcDbEntity
  8
ASHADE
 62
     1
100
AcDbBlockReference
  2
AVE_RENDER
 10
0.0
 20
0.0
 30
0.0
1001
AVE_RENDER
1002
{
1070
     6
1000
Pref
1070
    30
1070
    20
1070
     1
1070
     0
1000

1070
    10
1070
     1
1070
    30
1040
1.0
1070
     1
1040
0.3
1040
0.7
1040
0.0
1040
10.0
1010
-1.0
1020
-1.0
1030
-1.0
1040
0.3
1070
    49
1070
     0
1070
     0
1010
1.0
1020
1.0
1030
1.0
1040
45.0
1070
     1
1070
     0
1000
WCS
1040
0.0
1002
}
  0
INSERT
  5
7DE1B343D9DFADE
330
7DE1B343D9DFAC2
100
AcDbEntity
  8
ASHADE
 62
     3
100
AcDbBlockReference
  2
AVE_RENDER
 10
0.0
 20
0.0
 30
0.0
1001
AVE_RENDER
1002
{
1070
     0
1000
Full Opt
1070
     0
1070
     1
1070
     1
1070
     1
1070
     0
1070
     0
1070
     0
1070
     1
1070
     1
1040
0.0001
1040
0.0001
1002
}
  0
INSERT
  5
7DE1B343D9DFADF
330
7DE1B343D9DFAC2
100
AcDbEntity
  8
ASHADE
 62
     4
100
AcDbBlockReference
  2
AVE_RENDER
 10
0.0
 20
0.0
 30
0.0
1001
AVE_RENDER
1002
{
1070
     0
1000
Quick Opt
1070
     0
1070
     1
1070
     1
1070
     1
1070
     0
1070
     0
1070
     1
1002
}
  0
INSERT
  5
7DE1B343D9DFAE0
330
7DE1B343D9DFAC2
100
AcDbEntity
  8
ASHADE
 62
     5
100
AcDbBlockReference
  2
AVE_RENDER
 10
0.0
 20
0.0
 30
0.0
1001
AVE_RENDER
1002
{
1070
     1
1000
Scanl Opt
1070
     2
1070
     0
1070
     2
1040
2.0
1040
4.0
1070
     0
1070
     1
1070
     0
1040
0.03
1002
}
  0
INSERT
  5
7DE1B343D9DFAE1
330
7DE1B343D9DFAC2
100
AcDbEntity
  8
ASHADE
 62
     6
100
AcDbBlockReference
  2
AVE_RENDER
 10
0.0
 20
0.0
 30
0.0
1001
AVE_RENDER
1002
{
1070
     2
1000
Raytr Opt
1070
     2
1070
     0
1070
     2
1040
2.0
1040
4.0
1070
     0
1070
     1
1070
     1
1040
0.03
1070
     3
1040
0.03
1002
}
  0
INSERT
  5
7DE1B343D9DFAE2
330
7DE1B343D9DFAC2
100
AcDbEntity
  8
ASHADE
 62
     7
100
AcDbBlockReference
  2
AVE_RENDER
 10
0.0
 20
0.0
 30
0.0
1001
AVE_RENDER
1002
{
1070
     0
1000
RFile Opt
1070
     5
1070
   640
1070
   480
1070
 10000
1070
     3
1070
    32
1070
    24
1070
     0
1070
     0
1070
     0
1070
     1
1070
     0
1070
     0
1070
     0
1002
}
  0
INSERT
  5
7DE1B343D9DFAE3
330
7DE1B343D9DFAC2
100
AcDbEntity
  8
ASHADE
 62
     8
100
AcDbBlockReference
  2
AVE_RENDER
 10
0.0
 20
0.0
 30
0.0
1001
AVE_RENDER
1002
{
1070
     0
1000
Fog Opt
1070
     0
1070
     0
1040
0.0
1040
1.0
1040
0.0
1040
1.0
1010
0.5
1020
0.5
1030
0.5
1002
}
  0
INSERT
  5
7DE1B343D9DFAE4
330
7DE1B343D9DFAC2
100
AcDbEntity
  8
ASHADE
 62
     9
100
AcDbBlockReference
  2
AVE_RENDER
 10
0.0
 20
0.0
 30
0.0
1001
AVE_RENDER
1002
{
1070
     0
1000
BG Opt
1070
     0
1070
     1
1010
0.0
1020
0.0
1030
0.0
1010
1.0
1020
0.0
1030
0.0
1010
0.0
1020
1.0
1030
0.0
1010
0.0
1020
0.0
1030
1.0
1040
0.5
1040
0.33
1040
0.0
1000

1070
     1
1000

1070
     1
1070
     1
1040
1.0
1040
1.0
1040
0.0
1040
0.0
1070
     0
1002
}
  0
INSERT
  5
7DE1B343D9DFAEB
330
7DE1B343D9DFAC2
100
AcDbEntity
  8
ASHADE
 62
     1
100
AcDbBlockReference
  2
AVE_GLOBAL
 10
0.0
 20
0.0
 30
0.0
1001
AVE_MATERIAL
1002
{
1000
*GLOBAL*
1000
1
1000
Global finish.
1002
{
1002
}
1002
{
1070
    63
1002
{
1002
{
1010
-1.0
1020
-1.0
1030
-1.0
1002
}
1040
0.1000000014901161
1000

1040
0.0
1002
{
1002
}
1040
0.0
1002
{
1002
}
1040
0.0
1002
}
1002
{
1002
{
1010
-1.0
1020
-1.0
1030
-1.0
1002
}
1040
0.6999999880790711
1000

1040
0.0
1002
{
1002
}
1040
0.0
1002
{
1002
}
1040
0.0
1002
}
1002
{
1002
{
1010
-1.0
1020
-1.0
1030
-1.0
1002
}
1040
0.2000000029802322
1000

1040
0.0
1002
{
1002
}
1040
0.0
1002
{
1002
}
1040
0.0
1002
}
1002
{
1070
     0
1002
{
1070
     1
1002
{
1040
1.0
1040
1.0
1000

1040
0.0
1002
{
1002
}
1040
0.0
1002
{
1002
}
1040
0.0
1002
}
1002
}
1040
1.0
1040
0.0
1040
0.0
1002
}
1002
{
1040
1.0
1040
1.0
1000

1040
0.0
1002
{
1002
}
1040
0.0
1002
{
1002
}
1040
0.0
1002
}
1002
{
1040
0.5
1040
1.0
1000

1040
0.0
1002
{
1002
}
1040
0.0
1002
{
1002
}
1040
0.0
1002
}
1002
{
1070
     0
1040
0.0
1002
{
1002
}
1040
1.0
1002
{
1002
}
1040
0.0
1002
}
1002
{
1040
0.0
1002
{
1002
{
1010
0.0
1020
0.0
1030
0.0
1002
}
1040
1.0
1000

1040
0.0
1002
{
1002
}
1040
0.0
1002
{
1002
}
1040
0.0
1002
}
1002
}
1002
{
1002
{
1070
     1
1002
{
1040
0.0
1040
1.0
1000

1040
0.0
1002
{
1002
}
1040
0.0
1002
{
1002
}
1040
0.0
1002
}
1002
}
1040
0.0
1002
{
1002
}
1010
1.0
1020
0.0
1030
0.0
1010
0.0
1020
1.0
1030
0.0
1010
0.0
1020
0.0
1030
1.0
1070
     0
1002
}
1002
{
1002
{
1040
1.0
1040
1.0
1002
{
1070
     1
1002
{
1040
1.0
1040
1.0
1000

1040
0.0
1002
{
1002
}
1040
0.0
1002
{
1002
}
1040
0.0
1002
}
1002
}
1002
}
1070
     0
1040
0.0
1002
{
1002
}
1002
}
1002
{
1002
}
1002
}
1002
{
1071
        3
1070
     3
1070
     0
1002
{
1070
     2
1070
     0
1070
     0
1040
0.0
1002
}
1070
     0
1070
     2
1002
{
1002
}
1002
}
1002
{
1040
8030.0
1040
190.3000030517578
1040
0.3050000071525574
1040
228.0
1040
545.0
1040
14.0
1040
17.39999961853027
1040
0.4560000002384186
1002
}
1002
}
  0
ENDSEC
  0
SECTION
  2
OBJECTS
  0
DICTIONARY
  5
7DE1B343D9DFAB6
330
0
100
AcDbDictionary
  3
ACAD_GROUP
350
7DE1B343D9DFAB7
  3
ACAD_LAYOUT
350
7DE1B343D9DFAF7
  3
ACAD_MLINESTYLE
350
7DE1B343D9DFAB8
  3
ACAD_PLOTSETTINGS
350
7DE1B343D9DFAF8
  3
ACAD_PLOTSTYLENAME
350
7DE1B343D9DFAF5
  3
ACDBHEADERROUNDTRIPXREC
350
7DE1B343D9DFB02
  3
ACDBVARIABLEDICTIONARY
350
7DE1B343D9DFAFF
  0
DICTIONARY
  5
7DE1B343D9DFB24
330
7DE1B343D9DFAC2
100
AcDbDictionary
280
     1
  3
ACAD_LAYOUTSELFREF
360
7DE1B343D9DFB25
  0
DICTIONARY
  5
7DE1B343D9DFB22
330
7DE1B343D9DFABF
100
AcDbDictionary
280
     1
  3
ACAD_LAYOUTSELFREF
360
7DE1B343D9DFB23
  0
DICTIONARY
  5
7DE1B343D9DFAB7
102
{ACAD_REACTORS
330
7DE1B343D9DFAB6
102
}
330
7DE1B343D9DFAB6
100
AcDbDictionary
  0
DICTIONARY
  5
7DE1B343D9DFAF7
102
{ACAD_REACTORS
330
7DE1B343D9DFAB6
102
}
330
7DE1B343D9DFAB6
100
AcDbDictionary
  0
DICTIONARY
  5
7DE1B343D9DFAB8
102
{ACAD_REACTORS
330
7DE1B343D9DFAB6
102
}
330
7DE1B343D9DFAB6
100
AcDbDictionary
  3
STANDARD
350
7DE1B343D9DFAC5
  0
DICTIONARY
  5
7DE1B343D9DFAF8
102
{ACAD_REACTORS
330
7DE1B343D9DFAB6
102
}
330
7DE1B343D9DFAB6
100
AcDbDictionary
  0
ACDBDICTIONARYWDFLT
  5
7DE1B343D9DFAF5
102
{ACAD_REACTORS
330
7DE1B343D9DFAB6
102
}
330
7DE1B343D9DFAB6
100
AcDbDictionary
281
     1
  3
Normal
350
7DE1B343D9DFAF6
100
AcDbDictionaryWithDefault
340
7DE1B343D9DFAF6
  0
DICTIONARY
  5
7DE1B343D9DFB02
102
{ACAD_REACTORS
330
7DE1B343D9DFAB6
102
}
330
7DE1B343D9DFAB6
100
AcDbDictionary
  3
CEPSNTYPE
350
7DE1B343D9DFB0C
  3
FINGERPRINTGUID
350
7DE1B343D9DFB0D
  3
HYPERLINKBASE
350
7DE1B343D9DFB05
  3
INSUNITS
350
7DE1B343D9DFB0B
  3
LAYOUTDICT
350
7DE1B343D9DFB07
  3
LWETCUNION
350
7DE1B343D9DFB0A
  3
PLOTSETDICT
350
7DE1B343D9DFB08
  3
PLOTSTYLNAMDICT
350
7DE1B343D9DFB09
  3
PSVPSCALE
350
7DE1B343D9DFB0F
  3
PUCSBASE
350
7DE1B343D9DFB12
  3
PUCSORGBACK
350
7DE1B343D9DFB18
  3
PUCSORGBOTTOM
350
7DE1B343D9DFB14
  3
PUCSORGFRONT
350
7DE1B343D9DFB17
  3
PUCSORGLEFT
350
7DE1B343D9DFB15
  3
PUCSORGRIGHT
350
7DE1B343D9DFB16
  3
PUCSORGTOP
350
7DE1B343D9DFB13
  3
PUCSORTHOREF
350
7DE1B343D9DFB10
  3
PUCSORTHOVIEW
350
7DE1B343D9DFB11
  3
STYLESHEET
350
7DE1B343D9DFB06
  3
TSTACKALIGN
350
7DE1B343D9DFB03
  3
TSTACKSIZE
350
7DE1B343D9DFB04
  3
UCSBASE
350
7DE1B343D9DFB1B
  3
UCSORGBACK
350
7DE1B343D9DFB21
  3
UCSORGBOTTOM
350
7DE1B343D9DFB1D
  3
UCSORGFRONT
350
7DE1B343D9DFB20
  3
UCSORGLEFT
350
7DE1B343D9DFB1E
  3
UCSORGRIGHT
350
7DE1B343D9DFB1F
  3
UCSORGTOP
350
7DE1B343D9DFB1C
  3
UCSORTHOREF
350
7DE1B343D9DFB19
  3
UCSORTHOVIEW
350
7DE1B343D9DFB1A
  3
VERSIONGUID
350
7DE1B343D9DFB0E
  0
DICTIONARY
  5
7DE1B343D9DFAFF
102
{ACAD_REACTORS
330
7DE1B343D9DFAB6
102
}
330
7DE1B343D9DFAB6
100
AcDbDictionary
  3
DIMASSOC
350
7DE1B343D9DFB00
  0
XRECORD
  5
7DE1B343D9DFB25
102
{ACAD_REACTORS
330
7DE1B343D9DFB24
102
}
330
7DE1B343D9DFB24
100
AcDbXrecord
340
7DE1B343D9DFAC2
  0
XRECORD
  5
7DE1B343D9DFB23
102
{ACAD_REACTORS
330
7DE1B343D9DFB22
102
}
330
7DE1B343D9DFB22
100
AcDbXrecord
340
7DE1B343D9DFABF
  0
MLINESTYLE
  5
7DE1B343D9DFAC5
102
{ACAD_REACTORS
330
7DE1B343D9DFAB8
102
}
330
7DE1B343D9DFAB8
100
AcDbMlineStyle
  2
STANDARD
 70
     0
  3

 62
     0
 51
90.0
 52
90.0
 71
     2
 49
0.5
 62
   256
  6
BYLAYER
 49
-0.5
 62
   256
  6
BYLAYER
  0
ACDBPLACEHOLDER
  5
7DE1B343D9DFAF6
102
{ACAD_REACTORS
330
7DE1B343D9DFAF5
102
}
330
7DE1B343D9DFAF5
100
AcDbPlaceHolder
280
     0
  0
XRECORD
  5
7DE1B343D9DFB0C
102
{ACAD_REACTORS
330
7DE1B343D9DFB02
102
}
330
7DE1B343D9DFB02
100
AcDbXrecord
 90
        0
  0
XRECORD
  5
7DE1B343D9DFB0D
102
{ACAD_REACTORS
330
7DE1B343D9DFB02
102
}
330
7DE1B343D9DFB02
100
AcDbXrecord
  1
{79B06970-8DB7-11D6-88E6-0090279574E7}
  0
XRECORD
  5
7DE1B343D9DFB05
102
{ACAD_REACTORS
330
7DE1B343D9DFB02
102
}
330
7DE1B343D9DFB02
100
AcDbXrecord
  1

  0
XRECORD
  5
7DE1B343D9DFB0B
102
{ACAD_REACTORS
330
7DE1B343D9DFB02
102
}
330
7DE1B343D9DFB02
100
AcDbXrecord
 90
        0
  0
XRECORD
  5
7DE1B343D9DFB07
102
{ACAD_REACTORS
330
7DE1B343D9DFB02
102
}
330
7DE1B343D9DFB02
100
AcDbXrecord
340
7DE1B343D9DFAF7
  0
XRECORD
  5
7DE1B343D9DFB0A
102
{ACAD_REACTORS
330
7DE1B343D9DFB02
102
}
330
7DE1B343D9DFB02
100
AcDbXrecord
 90
    14877
  0
XRECORD
  5
7DE1B343D9DFB08
102
{ACAD_REACTORS
330
7DE1B343D9DFB02
102
}
330
7DE1B343D9DFB02
100
AcDbXrecord
340
7DE1B343D9DFAF8
  0
XRECORD
  5
7DE1B343D9DFB09
102
{ACAD_REACTORS
330
7DE1B343D9DFB02
102
}
330
7DE1B343D9DFB02
100
AcDbXrecord
340
7DE1B343D9DFAF5
  0
XRECORD
  5
7DE1B343D9DFB0F
102
{ACAD_REACTORS
330
7DE1B343D9DFB02
102
}
330
7DE1B343D9DFB02
100
AcDbXrecord
 40
0.0
  0
XRECORD
  5
7DE1B343D9DFB12
102
{ACAD_REACTORS
330
7DE1B343D9DFB02
102
}
330
7DE1B343D9DFB02
100
AcDbXrecord
340
0
  0
XRECORD
  5
7DE1B343D9DFB18
102
{ACAD_REACTORS
330
7DE1B343D9DFB02
102
}
330
7DE1B343D9DFB02
100
AcDbXrecord
 10
0.0
 20
0.0
 30
0.0
  0
XRECORD
  5
7DE1B343D9DFB14
102
{ACAD_REACTORS
330
7DE1B343D9DFB02
102
}
330
7DE1B343D9DFB02
100
AcDbXrecord
 10
0.0
 20
0.0
 30
0.0
  0
XRECORD
  5
7DE1B343D9DFB17
102
{ACAD_REACTORS
330
7DE1B343D9DFB02
102
}
330
7DE1B343D9DFB02
100
AcDbXrecord
 10
0.0
 20
0.0
 30
0.0
  0
XRECORD
  5
7DE1B343D9DFB15
102
{ACAD_REACTORS
330
7DE1B343D9DFB02
102
}
330
7DE1B343D9DFB02
100
AcDbXrecord
 10
0.0
 20
0.0
 30
0.0
  0
XRECORD
  5
7DE1B343D9DFB16
102
{ACAD_REACTORS
330
7DE1B343D9DFB02
102
}
330
7DE1B343D9DFB02
100
AcDbXrecord
 10
0.0
 20
0.0
 30
0.0
  0
XRECORD
  5
7DE1B343D9DFB13
102
{ACAD_REACTORS
330
7DE1B343D9DFB02
102
}
330
7DE1B343D9DFB02
100
AcDbXrecord
 10
0.0
 20
0.0
 30
0.0
  0
XRECORD
  5
7DE1B343D9DFB10
102
{ACAD_REACTORS
330
7DE1B343D9DFB02
102
}
330
7DE1B343D9DFB02
100
AcDbXrecord
340
0
  0
XRECORD
  5
7DE1B343D9DFB11
102
{ACAD_REACTORS
330
7DE1B343D9DFB02
102
}
330
7DE1B343D9DFB02
100
AcDbXrecord
 70
     0
  0
XRECORD
  5
7DE1B343D9DFB06
102
{ACAD_REACTORS
330
7DE1B343D9DFB02
102
}
330
7DE1B343D9DFB02
100
AcDbXrecord
  1

  0
XRECORD
  5
7DE1B343D9DFB03
102
{ACAD_REACTORS
330
7DE1B343D9DFB02
102
}
330
7DE1B343D9DFB02
100
AcDbXrecord
 90
        1
  0
XRECORD
  5
7DE1B343D9DFB04
102
{ACAD_REACTORS
330
7DE1B343D9DFB02
102
}
330
7DE1B343D9DFB02
100
AcDbXrecord
 90
       70
  0
XRECORD
  5
7DE1B343D9DFB1B
102
{ACAD_REACTORS
330
7DE1B343D9DFB02
102
}
330
7DE1B343D9DFB02
100
AcDbXrecord
340
0
  0
XRECORD
  5
7DE1B343D9DFB21
102
{ACAD_REACTORS
330
7DE1B343D9DFB02
102
}
330
7DE1B343D9DFB02
100
AcDbXrecord
 10
0.0
 20
0.0
 30
0.0
  0
XRECORD
  5
7DE1B343D9DFB1D
102
{ACAD_REACTORS
330
7DE1B343D9DFB02
102
}
330
7DE1B343D9DFB02
100
AcDbXrecord
 10
0.0
 20
0.0
 30
0.0
  0
XRECORD
  5
7DE1B343D9DFB20
102
{ACAD_REACTORS
330
7DE1B343D9DFB02
102
}
330
7DE1B343D9DFB02
100
AcDbXrecord
 10
0.0
 20
0.0
 30
0.0
  0
XRECORD
  5
7DE1B343D9DFB1E
102
{ACAD_REACTORS
330
7DE1B343D9DFB02
102
}
330
7DE1B343D9DFB02
100
AcDbXrecord
 10
0.0
 20
0.0
 30
0.0
  0
XRECORD
  5
7DE1B343D9DFB1F
102
{ACAD_REACTORS
330
7DE1B343D9DFB02
102
}
330
7DE1B343D9DFB02
100
AcDbXrecord
 10
0.0
 20
0.0
 30
0.0
  0
XRECORD
  5
7DE1B343D9DFB1C
102
{ACAD_REACTORS
330
7DE1B343D9DFB02
102
}
330
7DE1B343D9DFB02
100
AcDbXrecord
 10
0.0
 20
0.0
 30
0.0
  0
XRECORD
  5
7DE1B343D9DFB19
102
{ACAD_REACTORS
330
7DE1B343D9DFB02
102
}
330
7DE1B343D9DFB02
100
AcDbXrecord
340
0
  0
XRECORD
  5
7DE1B343D9DFB1A
102
{ACAD_REACTORS
330
7DE1B343D9DFB02
102
}
330
7DE1B343D9DFB02
100
AcDbXrecord
 70
     0
  0
XRECORD
  5
7DE1B343D9DFB0E
102
{ACAD_REACTORS
330
7DE1B343D9DFB02
102
}
330
7DE1B343D9DFB02
100
AcDbXrecord
  1
{79B06972-8DB7-11D6-88E6-0090279574E7}
  0
DICTIONARYVAR
  5
7DE1B343D9DFB00
102
{ACAD_REACTORS
330
7DE1B343D9DFAFF
102
}
330
7DE1B343D9DFAFF
100
DictionaryVariables
280
     0
  1
1
  0
ENDSEC
  0
EOF
