  0
SECTION
  2
HEADER
  9
$ACADVER
  1
AC1014
  9
$ACADMAINTVER
 70
     9
  9
$DWGCODEPAGE
  3
ANSI_1252
  9
$INSBASE
 10
0.0
 20
0.0
 30
0.0
  9
$EXTMIN
 10
-0.4871888320301365
 20
1.416979779088634
 30
0.0
  9
$EXTMAX
 10
2.998030489716992
 20
2.780605191963829
 30
0.0
  9
$LIMMIN
 10
0.0
 20
0.0
  9
$LIMMAX
 10
18.0
 20
12.0
  9
$ORTHOMODE
 70
     1
  9
$REGENMODE
 70
     1
  9
$FILLMODE
 70
     1
  9
$QTEXTMODE
 70
     0
  9
$MIRRTEXT
 70
     0
  9
$DRAGMODE
 70
     2
  9
$LTSCALE
 40
0.5
  9
$OSMODE
 70
    39
  9
$ATTMODE
 70
     1
  9
$TEXTSIZE
 40
0.125
  9
$TRACEWID
 40
0.05
  9
$TEXTSTYLE
  7
ROMANS
  9
$CLAYER
  8
TEXT
  9
$CELTYPE
  6
BYLAYER
  9
$CECOLOR
 62
   256
  9
$CELTSCALE
 40
1.0
  9
$DELOBJ
 70
     1
  9
$DISPSILH
 70
     1
  9
$DIMSCALE
 40
1.0
  9
$DIMASZ
 40
0.125
  9
$DIMEXO
 40
0.125
  9
$DIMDLI
 40
0.375
  9
$DIMRND
 40
0.0
  9
$DIMDLE
 40
0.0
  9
$DIMEXE
 40
0.125
  9
$DIMTP
 40
0.0
  9
$DIMTM
 40
0.0
  9
$DIMTXT
 40
0.125
  9
$DIMCEN
 40
-0.125
  9
$DIMTSZ
 40
0.0
  9
$DIMTOL
 70
     0
  9
$DIMLIM
 70
     0
  9
$DIMTIH
 70
     1
  9
$DIMTOH
 70
     1
  9
$DIMSE1
 70
     0
  9
$DIMSE2
 70
     0
  9
$DIMTAD
 70
     0
  9
$DIMZIN
 70
     4
  9
$DIMBLK
  1

  9
$DIMASO
 70
     1
  9
$DIMSHO
 70
     1
  9
$DIMPOST
  1

  9
$DIMAPOST
  1

  9
$DIMALT
 70
     0
  9
$DIMALTD
 70
     2
  9
$DIMALTF
 40
25.4
  9
$DIMLFAC
 40
0.5
  9
$DIMTOFL
 70
     0
  9
$DIMTVP
 40
0.0
  9
$DIMTIX
 70
     1
  9
$DIMSOXD
 70
     0
  9
$DIMSAH
 70
     0
  9
$DIMBLK1
  1

  9
$DIMBLK2
  1

  9
$DIMSTYLE
  2
STANDARD
  9
$DIMCLRD
 70
     0
  9
$DIMCLRE
 70
     0
  9
$DIMCLRT
 70
     0
  9
$DIMTFAC
 40
1.0
  9
$DIMGAP
 40
0.09
  9
$DIMJUST
 70
     0
  9
$DIMSD1
 70
     0
  9
$DIMSD2
 70
     0
  9
$DIMTOLJ
 70
     1
  9
$DIMTZIN
 70
     4
  9
$DIMALTZ
 70
     0
  9
$DIMALTTZ
 70
     0
  9
$DIMFIT
 70
     3
  9
$DIMUPT
 70
     1
  9
$DIMUNIT
 70
     2
  9
$DIMDEC
 70
     3
  9
$DIMTDEC
 70
     3
  9
$DIMALTU
 70
     2
  9
$DIMALTTD
 70
     2
  9
$DIMTXSTY
  7
ROMANS
  9
$DIMAUNIT
 70
     0
  9
$LUNITS
 70
     2
  9
$LUPREC
 70
     3
  9
$SKETCHINC
 40
0.1
  9
$FILLETRAD
 40
0.03125
  9
$AUNITS
 70
     0
  9
$AUPREC
 70
     0
  9
$MENU
  1
acad
  9
$ELEVATION
 40
0.0
  9
$PELEVATION
 40
0.0
  9
$THICKNESS
 40
0.0
  9
$LIMCHECK
 70
     0
  9
$BLIPMODE
 70
     0
  9
$CHAMFERA
 40
0.0
  9
$CHAMFERB
 40
0.0
  9
$CHAMFERC
 40
0.0
  9
$CHAMFERD
 40
0.0
  9
$SKPOLY
 70
     0
  9
$TDCREATE
 40
2448650.540122222
  9
$TDUPDATE
 40
2452458.312690682
  9
$TDINDWG
 40
0.0754682870
  9
$TDUSRTIMER
 40
0.0754682870
  9
$USRTIMER
 70
     1
  9
$ANGBASE
 50
0.0
  9
$ANGDIR
 70
     0
  9
$PDMODE
 70
     0
  9
$PDSIZE
 40
0.0
  9
$PLINEWID
 40
0.0
  9
$COORDS
 70
     2
  9
$SPLFRAME
 70
     0
  9
$SPLINETYPE
 70
     6
  9
$SPLINESEGS
 70
     8
  9
$ATTDIA
 70
     0
  9
$ATTREQ
 70
     1
  9
$HANDLING
 70
 22529
  9
$HANDSEED
  5
82D
  9
$SURFTAB1
 70
     6
  9
$SURFTAB2
 70
     6
  9
$SURFTYPE
 70
     6
  9
$SURFU
 70
     6
  9
$SURFV
 70
     6
  9
$UCSNAME
  2

  9
$UCSORG
 10
0.0
 20
0.0
 30
0.0
  9
$UCSXDIR
 10
1.0
 20
0.0
 30
0.0
  9
$UCSYDIR
 10
0.0
 20
1.0
 30
0.0
  9
$PUCSNAME
  2

  9
$PUCSORG
 10
0.0
 20
0.0
 30
0.0
  9
$PUCSXDIR
 10
1.0
 20
0.0
 30
0.0
  9
$PUCSYDIR
 10
0.0
 20
1.0
 30
0.0
  9
$USERI1
 70
     0
  9
$USERI2
 70
     0
  9
$USERI3
 70
     0
  9
$USERI4
 70
     0
  9
$USERI5
 70
     0
  9
$USERR1
 40
0.0
  9
$USERR2
 40
0.0
  9
$USERR3
 40
0.0
  9
$USERR4
 40
0.0
  9
$USERR5
 40
0.0
  9
$WORLDVIEW
 70
     1
  9
$SHADEDGE
 70
     3
  9
$SHADEDIF
 70
    70
  9
$TILEMODE
 70
     1
  9
$MAXACTVP
 70
    16
  9
$PINSBASE
 10
0.0
 20
0.0
 30
0.0
  9
$PLIMCHECK
 70
     0
  9
$PEXTMIN
 10
1.000000000000000E+20
 20
1.000000000000000E+20
 30
1.000000000000000E+20
  9
$PEXTMAX
 10
-1.000000000000000E+20
 20
-1.000000000000000E+20
 30
-1.000000000000000E+20
  9
$PLIMMIN
 10
0.0
 20
0.0
  9
$PLIMMAX
 10
12.0
 20
9.0
  9
$UNITMODE
 70
     0
  9
$VISRETAIN
 70
     0
  9
$PLINEGEN
 70
     1
  9
$PSLTSCALE
 70
     0
  9
$TREEDEPTH
 70
  3020
  9
$PICKSTYLE
 70
     1
  9
$CMLSTYLE
  2
STANDARD
  9
$CMLJUST
 70
     0
  9
$CMLSCALE
 40
1.0
  9
$PROXYGRAPHICS
 70
     1
  9
$MEASUREMENT
 70
     0
  0
ENDSEC
  0
SECTION
  2
CLASSES
  0
CLASS
  1
LWPOLYLINE
  2
AcDbPolyline
  3
AutoCAD 2000
 90
        0
280
     0
281
     1
  0
CLASS
  1
DICTIONARYVAR
  2
AcDbDictionaryVar
  3
AutoCAD 2000
 90
        0
280
     0
281
     0
  0
CLASS
  1
ACDBDICTIONARYWDFLT
  2
AcDbDictionaryWithDefault
  3
AutoCAD 2000
 90
        0
280
     0
281
     0
  0
CLASS
  1
ACDBPLACEHOLDER
  2
AcDbPlaceHolder
  3
AutoCAD 2000
 90
        0
280
     0
281
     0
  0
CLASS
  1
LAYOUT
  2
AcDbLayout
  3
AutoCAD 2000
 90
        0
280
     0
281
     0
  0
CLASS
  1
LONG_TRANSACTION
  2
AcDbLongTransaction
  3
AutoCAD 2000
 90
        0
280
     0
281
     0
  0
CLASS
  1
LWPOLYLINE
  2
AcDbPolyline
  3
AutoCAD 2000
 90
        0
280
     0
281
     1
  0
CLASS
  1
HATCH
  2
AcDbHatch
  3
AutoCAD 2000
 90
        0
280
     0
281
     1
  0
CLASS
  1
XRECORD
  2
AcDbXrecord
  3
AutoCAD 2000
 90
        0
280
     0
281
     0
  0
ENDSEC
  0
SECTION
  2
TABLES
  0
TABLE
  2
VPORT
  5
8
330
0
100
AcDbSymbolTable
 70
     2
  0
VPORT
  5
808
330
8
100
AcDbSymbolTableRecord
100
AcDbViewportTableRecord
  2
*ACTIVE
 70
     0
 10
0.0
 20
0.0
 11
1.0
 21
1.0
 12
4.177671902060406
 22
2.098475594105515
 13
0.0
 23
0.0
 14
0.125
 24
0.125
 15
0.125
 25
0.125
 16
0.0
 26
0.0
 36
1.0
 17
0.0
 27
0.0
 37
0.0
 40
2.163628077419659
 41
4.320930232558139
 42
50.0
 43
0.0
 44
0.0
 50
0.0
 51
0.0
 71
     0
 72
  2000
 73
     1
 74
     1
 75
     0
 76
     0
 77
     0
 78
     0
  0
ENDTAB
  0
TABLE
  2
LTYPE
  5
5
330
0
100
AcDbSymbolTable
 70
     1
  0
LTYPE
  5
12
330
5
100
AcDbSymbolTableRecord
100
AcDbLinetypeTableRecord
  2
BYBLOCK
 70
     0
  3

 72
    65
 73
     0
 40
0.0
  0
LTYPE
  5
13
330
5
100
AcDbSymbolTableRecord
100
AcDbLinetypeTableRecord
  2
BYLAYER
 70
     0
  3

 72
    65
 73
     0
 40
0.0
  0
LTYPE
  5
14
330
5
100
AcDbSymbolTableRecord
100
AcDbLinetypeTableRecord
  2
CONTINUOUS
 70
     0
  3
Solid line
 72
    65
 73
     0
 40
0.0
  0
ENDTAB
  0
TABLE
  2
LAYER
  5
2
330
0
100
AcDbSymbolTable
 70
     3
  0
LAYER
  5
F
330
2
100
AcDbSymbolTableRecord
100
AcDbLayerTableRecord
  2
0
 70
     0
 62
     7
  6
CONTINUOUS
  0
LAYER
  5
2C
330
2
100
AcDbSymbolTableRecord
100
AcDbLayerTableRecord
  2
TEXT
 70
     0
 62
     3
  6
CONTINUOUS
  0
LAYER
  5
5EA
330
2
100
AcDbSymbolTableRecord
100
AcDbLayerTableRecord
  2
110441
 70
     0
 62
     5
  6
CONTINUOUS
  0
ENDTAB
  0
TABLE
  2
STYLE
  5
3
330
0
100
AcDbSymbolTable
 70
     3
  0
STYLE
  5
10
330
3
100
AcDbSymbolTableRecord
100
AcDbTextStyleTableRecord
  2
STANDARD
 70
     0
 40
0.0
 41
1.0
 50
0.0
 71
     0
 42
0.125
  3
txt
  4

  0
STYLE
  5
487
330
3
100
AcDbSymbolTableRecord
100
AcDbTextStyleTableRecord
  2
ROMANS
 70
     0
 40
0.0
 41
1.0
 50
0.0
 71
     0
 42
0.125
  3
romans.shx
  4

  0
STYLE
  5
6F7
330
3
100
AcDbSymbolTableRecord
100
AcDbTextStyleTableRecord
  2
ITALICC
 70
     0
 40
0.0
 41
1.0
 50
0.0
 71
     0
 42
0.125
  3
italicc
  4

  0
ENDTAB
  0
TABLE
  2
VIEW
  5
6
330
0
100
AcDbSymbolTable
 70
     0
  0
ENDTAB
  0
TABLE
  2
UCS
  5
7
330
0
100
AcDbSymbolTable
 70
     0
  0
ENDTAB
  0
TABLE
  2
APPID
  5
9
330
0
100
AcDbSymbolTable
 70
     1
  0
APPID
  5
11
330
9
100
AcDbSymbolTableRecord
100
AcDbRegAppTableRecord
  2
ACAD
 70
     0
  0
ENDTAB
  0
TABLE
  2
DIMSTYLE
  5
A
330
0
100
AcDbSymbolTable
 70
     1
  0
DIMSTYLE
105
393
330
A
100
AcDbSymbolTableRecord
100
AcDbDimStyleTableRecord
  2
STANDARD
 70
     0
  3

  4

  5

  6

  7

 40
1.0
 41
0.125
 42
0.125
 43
0.375
 44
0.125
 45
0.0
 46
0.0
 47
0.0
 48
0.0
140
0.125
141
-0.125
142
0.0
143
25.4
144
0.5
145
0.0
146
1.0
147
0.09
 71
     0
 72
     0
 73
     1
 74
     1
 75
     0
 76
     0
 77
     0
 78
     4
170
     0
171
     2
172
     0
173
     0
174
     1
175
     0
176
     0
177
     0
178
     0
270
     2
271
     3
272
     3
273
     2
274
     2
340
487
275
     0
280
     0
281
     0
282
     0
283
     1
284
     4
285
     0
286
     0
287
     3
288
     1
  0
ENDTAB
  0
TABLE
  2
BLOCK_RECORD
  5
1
330
0
100
AcDbSymbolTable
 70
     0
  0
BLOCK_RECORD
  5
18
102
{ACAD_XDICTIONARY
360
82B
102
}
330
1
100
AcDbSymbolTableRecord
100
AcDbBlockTableRecord
  2
*MODEL_SPACE
  0
BLOCK_RECORD
  5
15
102
{ACAD_XDICTIONARY
360
829
102
}
330
1
100
AcDbSymbolTableRecord
100
AcDbBlockTableRecord
  2
*PAPER_SPACE
  0
ENDTAB
  0
ENDSEC
  0
SECTION
  2
BLOCKS
  0
BLOCK
  5
36
330
18
100
AcDbEntity
  8
0
100
AcDbBlockBegin
  2
*MODEL_SPACE
 70
     0
 10
0.0
 20
0.0
 30
0.0
  3
*MODEL_SPACE
  1

  0
ENDBLK
  5
37
330
18
100
AcDbEntity
  8
0
100
AcDbBlockEnd
  0
BLOCK
  5
34
330
15
100
AcDbEntity
 67
     1
  8
0
100
AcDbBlockBegin
  2
*PAPER_SPACE
 70
     0
 10
0.0
 20
0.0
 30
0.0
  3
*PAPER_SPACE
  1

  0
ENDBLK
  5
35
330
15
100
AcDbEntity
 67
     1
  8
0
100
AcDbBlockEnd
  0
ENDSEC
  0
SECTION
  2
ENTITIES
  0
LWPOLYLINE
  5
1C9
330
18
100
AcDbEntity
  8
110441
100
AcDbPolyline
 90
       10
 70
     1
 43
0.0
 10
1.75
 20
2.343105191963829
 10
1.0625
 20
2.343105191963829
 10
1.0625
 20
2.718105191963829
 10
0.9375
 20
2.718105191963829
 10
0.9375
 20
2.343105191963829
 10
0.875
 20
2.343105191963829
 10
0.875
 20
2.780605191963829
 10
1.125
 20
2.780605191963829
 10
1.125
 20
2.405605191963829
 10
1.75
 20
2.405605191963829
  0
LINE
  5
77C
330
18
100
AcDbEntity
  8
TEXT
100
AcDbLine
 10
1.364009218664406
 20
1.619056065396609
 30
0.0
 11
1.364009218664406
 21
1.760385597575748
 31
0.0
  0
LINE
  5
77D
330
18
100
AcDbEntity
  8
TEXT
100
AcDbLine
 10
1.411107377220389
 20
1.694921391808147
 30
0.0
 11
1.364009218664406
 21
1.619056065396609
 31
0.0
  0
LINE
  5
77E
330
18
100
AcDbEntity
  8
TEXT
100
AcDbLine
 10
1.421542093984314
 20
1.585028148867174
 30
0.0
 11
1.486099209950019
 21
1.694921391808147
 31
0.0
  0
TEXT
  5
77F
330
18
100
AcDbEntity
  8
TEXT
100
AcDbText
 10
1.669097905447328
 20
1.614592594431424
 30
0.0
 40
0.0522247191011236
  1
6536 Main St. N.E. * P.O. Box 32008
 41
0.8388932496075355
 72
     5
 11
2.998030489716992
 21
1.614592594431424
 31
0.0
100
AcDbText
  0
ARC
  5
780
330
18
100
AcDbEntity
  8
TEXT
100
AcDbCircle
 10
1.223526246149068
 20
1.605738821868719
 30
0.0
 40
0.0249058752826653
100
AcDbArc
 50
89.99971217465335
 51
179.9999999999985
  0
LINE
  5
781
330
18
100
AcDbEntity
  8
TEXT
100
AcDbLine
 10
1.136325479726036
 20
1.58970941325472
 30
0.0
 11
1.092574708544134
 21
1.671959689250865
 31
0.0
  0
LINE
  5
782
330
18
100
AcDbEntity
  8
TEXT
100
AcDbLine
 10
1.136325479726036
 20
1.694921391808147
 30
0.0
 11
1.136325479726036
 21
1.58970941325472
 31
0.0
  0
ARC
  5
783
330
18
100
AcDbEntity
  8
TEXT
100
AcDbCircle
 10
1.028334642506516
 20
1.602285322151384
 30
0.0
 40
0.028359375
100
AcDbArc
 50
25.78218179591245
 51
90.0
  0
LINE
  5
784
330
18
100
AcDbEntity
  8
TEXT
100
AcDbLine
 10
0.5663401813227687
 20
1.510836196922635
 30
0.0
 11
0.5663401813227687
 21
1.762932869546958
 31
0.0
  0
LINE
  5
785
330
18
100
AcDbEntity
  8
TEXT
100
AcDbLine
 10
0.5986520354604288
 20
1.694921391808147
 30
0.0
 11
0.5986520354604288
 21
1.494057185075739
 31
0.0
  0
LINE
  5
786
330
18
100
AcDbEntity
  8
TEXT
100
AcDbLine
 10
0.4694095559630256
 20
1.694921391808147
 30
0.0
 11
0.4106609931571619
 21
1.594049395695027
 31
0.0
  0
LINE
  5
787
330
18
100
AcDbEntity
  8
TEXT
100
AcDbLine
 10
0.4106609931571619
 20
1.594049395695027
 30
0.0
 11
0.352030672125224
 21
1.694921391808147
 31
0.0
  0
ARC
  5
788
330
18
100
AcDbEntity
  8
TEXT
100
AcDbCircle
 10
0.0444573482387973
 20
1.612833932361645
 30
0.0
 40
0.0820874594465043
100
AcDbArc
 50
90.0
 51
270.0
  0
LWPOLYLINE
  5
789
330
18
100
AcDbEntity
  8
TEXT
100
AcDbPolyline
 90
        2
 70
     0
 43
0.0001332181640625
 10
-0.3636289848621672
 20
1.621651401573771
 10
-0.3736203471668578
 20
1.694921391808151
  0
LWPOLYLINE
  5
78A
330
18
100
AcDbEntity
  8
TEXT
100
AcDbPolyline
 90
        2
 70
     0
 43
0.0001332181640625
 10
-0.3736203471668578
 20
1.66827775899565
 10
-0.3636289848621672
 20
1.608329585167524
  0
LWPOLYLINE
  5
78B
330
18
100
AcDbEntity
  8
TEXT
100
AcDbPolyline
 90
        2
 70
     0
 43
0.0001332181640625
 10
-0.3336548979481062
 20
1.66827775899565
 10
-0.343646260252795
 20
1.608329585167524
  0
LWPOLYLINE
  5
78C
330
18
100
AcDbEntity
  8
TEXT
100
AcDbPolyline
 90
        2
 70
     0
 43
0.0001332181640625
 10
-0.3336548979481062
 20
1.694921391808151
 10
-0.343646260252795
 20
1.621651401573771
  0
LWPOLYLINE
  5
78D
330
18
100
AcDbEntity
  8
TEXT
100
AcDbPolyline
 90
        3
 70
     0
 43
0.0006660908203125
 10
-0.2204194584949803
 20
1.581685952355023
 10
-0.2204194584949803
 20
1.694921391808151
 10
-0.3336548979481062
 20
1.694921391808151
  0
LWPOLYLINE
  5
78E
330
18
100
AcDbEntity
  8
TEXT
100
AcDbPolyline
 90
        3
 70
     0
 43
0.0006660908203125
 10
-0.2470630913074814
 20
1.581685952355023
 10
-0.2470630913074814
 20
1.66827775899565
 10
-0.3336548979481062
 20
1.66827775899565
  0
LWPOLYLINE
  5
78F
330
18
100
AcDbEntity
  8
TEXT
100
AcDbPolyline
 90
        2
 70
     0
 43
0.0001332181640625
 10
-0.2470630913074814
 20
1.66827775899565
 10
-0.3070112651356052
 20
1.608329585167524
  0
LWPOLYLINE
  5
790
330
18
100
AcDbEntity
  8
TEXT
100
AcDbPolyline
 90
        2
 70
     0
 43
0.0001332181640625
 10
-0.4602121538074826
 20
1.66827775899565
 10
-0.4002639799793571
 20
1.608329585167524
  0
LWPOLYLINE
  5
791
330
18
100
AcDbEntity
  8
TEXT
100
AcDbPolyline
 90
        3
 70
     0
 43
0.0006660908203125
 10
-0.3736203471668578
 20
1.694921391808151
 10
-0.4868557866199801
 20
1.694921391808151
 10
-0.4868557866199801
 20
1.581685952355023
  0
LWPOLYLINE
  5
792
330
18
100
AcDbEntity
  8
TEXT
100
AcDbPolyline
 90
        3
 70
     0
 43
0.0006660908203125
 10
-0.3736203471668578
 20
1.66827775899565
 10
-0.4602121538074826
 20
1.66827775899565
 10
-0.4602121538074826
 20
1.581685952355023
  0
LINE
  5
793
330
18
100
AcDbEntity
  8
TEXT
100
AcDbLine
 10
0.1152948145973465
 20
1.594839975540754
 30
0.0
 11
0.0496946783530454
 21
1.594839975540754
 31
0.0
  0
LINE
  5
794
330
18
100
AcDbEntity
  8
TEXT
100
AcDbLine
 10
0.0444573482387973
 20
1.53074647291514
 30
0.0
 11
0.1202351885036261
 21
1.53074647291514
 31
0.0
  0
LINE
  5
795
330
18
100
AcDbEntity
  8
TEXT
100
AcDbLine
 10
-0.0376301112077062
 20
1.428448358819636
 30
0.0
 11
0.1152948145973465
 21
1.428448358819636
 31
0.0
  0
LINE
  5
796
330
18
100
AcDbEntity
  8
TEXT
100
AcDbLine
 10
0.1202351885036261
 20
1.496805365153075
 30
0.0
 11
-0.037630111207708
 21
1.496805365153075
 31
0.0
  0
LINE
  5
797
330
18
100
AcDbEntity
  8
TEXT
100
AcDbLine
 10
0.0496946783530454
 20
1.630644697151382
 30
0.0
 11
0.2166003323820149
 21
1.630644697151382
 31
0.0
  0
LWPOLYLINE
  5
798
330
18
100
AcDbEntity
  8
TEXT
100
AcDbPolyline
 90
        2
 70
     0
 43
0.0006660908203125
 10
-0.2470630913074814
 20
1.581685952355023
 10
-0.2204194584949803
 20
1.581685952355023
  0
LWPOLYLINE
  5
799
330
18
100
AcDbEntity
  8
TEXT
100
AcDbPolyline
 90
        2
 70
     0
 43
0.0001332181640625
 10
-0.2936894487293564
 20
1.571694590050334
 10
-0.2204194584949803
 20
1.581685952355023
  0
LWPOLYLINE
  5
79A
330
18
100
AcDbEntity
  8
TEXT
100
AcDbPolyline
 90
        2
 70
     0
 43
0.0006660908203125
 10
-0.2470630913074814
 20
1.541720503136275
 10
-0.2204194584949803
 20
1.541720503136275
  0
LWPOLYLINE
  5
79B
330
18
100
AcDbEntity
  8
TEXT
100
AcDbPolyline
 90
        3
 70
     0
 43
0.0006660908203125
 10
-0.3336548979481062
 20
1.428485063683147
 10
-0.2204194584949803
 20
1.428485063683147
 10
-0.2204194584949803
 20
1.541720503136275
  0
LWPOLYLINE
  5
79C
330
18
100
AcDbEntity
  8
TEXT
100
AcDbPolyline
 90
        2
 70
     0
 43
0.0001332181640625
 10
-0.2204194584949803
 20
1.541720503136275
 10
-0.2936894487293564
 20
1.55171186544096
  0
LWPOLYLINE
  5
79D
330
18
100
AcDbEntity
  8
TEXT
100
AcDbPolyline
 90
        3
 70
     0
 43
0.0006660908203125
 10
-0.4868557866199801
 20
1.541720503136275
 10
-0.4868557866199801
 20
1.428485063683147
 10
-0.3736203471668578
 20
1.428485063683147
  0
LWPOLYLINE
  5
79E
330
18
100
AcDbEntity
  8
TEXT
100
AcDbPolyline
 90
        3
 70
     0
 43
0.0006660908203125
 10
-0.4602121538074826
 20
1.541720503136275
 10
-0.4602121538074826
 20
1.455128696495648
 10
-0.3736203471668578
 20
1.455128696495648
  0
LWPOLYLINE
  5
79F
330
18
100
AcDbEntity
  8
TEXT
100
AcDbPolyline
 90
        5
 70
     0
 43
0.0001332181640625
 10
-0.3636289848621672
 20
1.501755053917523
 10
-0.3636289848621672
 20
1.515076870323774
 10
-0.4002639799793553
 20
1.515076870323774
 10
-0.4002639799793553
 20
1.55171186544096
 10
-0.4135857963856058
 20
1.55171186544096
  0
LWPOLYLINE
  5
7A0
330
18
100
AcDbEntity
  8
TEXT
100
AcDbPolyline
 90
        5
 70
     0
 43
0.0001332181640625
 10
-0.4135857963856058
 20
1.571694590050334
 10
-0.4002639799793571
 20
1.571694590050334
 10
-0.4002639799793571
 20
1.608329585167524
 10
-0.3636289848621672
 20
1.608329585167524
 10
-0.3636289848621672
 20
1.621651401573771
  0
LWPOLYLINE
  5
7A1
330
18
100
AcDbEntity
  8
TEXT
100
AcDbPolyline
 90
        2
 70
     0
 43
0.0001332181640625
 10
-0.4602121538074826
 20
1.581685952355023
 10
-0.4002639799793571
 20
1.571694590050334
  0
LWPOLYLINE
  5
7A2
330
18
100
AcDbEntity
  8
TEXT
100
AcDbPolyline
 90
        2
 70
     0
 43
0.0001332181640625
 10
-0.4868557866199801
 20
1.581685952355023
 10
-0.4135857963856058
 20
1.571694590050334
  0
LWPOLYLINE
  5
7A3
330
18
100
AcDbEntity
  8
TEXT
100
AcDbPolyline
 90
        2
 70
     0
 43
0.0006660908203125
 10
-0.4602121538074826
 20
1.581685952355023
 10
-0.4868557866199801
 20
1.581685952355023
  0
LWPOLYLINE
  5
7A4
330
18
100
AcDbEntity
  8
TEXT
100
AcDbPolyline
 90
        2
 70
     0
 43
0.0001332181640625
 10
-0.4602121538074826
 20
1.455128696495648
 10
-0.4002639799793553
 20
1.515076870323774
  0
LWPOLYLINE
  5
7A5
330
18
100
AcDbEntity
  8
TEXT
100
AcDbPolyline
 90
        2
 70
     0
 43
0.0006660908203125
 10
-0.4602121538074826
 20
1.541720503136275
 10
-0.4868557866199801
 20
1.541720503136275
  0
LWPOLYLINE
  5
7A6
330
18
100
AcDbEntity
  8
TEXT
100
AcDbPolyline
 90
        2
 70
     0
 43
0.0001332181640625
 10
-0.4135857963856058
 20
1.55171186544096
 10
-0.4868557866199801
 20
1.541720503136275
  0
LWPOLYLINE
  5
7A7
330
18
100
AcDbEntity
  8
TEXT
100
AcDbPolyline
 90
        2
 70
     0
 43
0.0001332181640625
 10
-0.4602121538074826
 20
1.541720503136275
 10
-0.4002639799793553
 20
1.55171186544096
  0
LWPOLYLINE
  5
7A8
330
18
100
AcDbEntity
  8
TEXT
100
AcDbPolyline
 90
        5
 70
     0
 43
0.0001332181640625
 10
-0.343646260252795
 20
1.621651401573771
 10
-0.343646260252795
 20
1.608329585167524
 10
-0.3070112651356052
 20
1.608329585167524
 10
-0.3070112651356052
 20
1.571694590050334
 10
-0.2936894487293564
 20
1.571694590050334
  0
LWPOLYLINE
  5
7A9
330
18
100
AcDbEntity
  8
TEXT
100
AcDbPolyline
 90
        2
 70
     0
 43
0.0001332181640625
 10
-0.2470630913074814
 20
1.581685952355023
 10
-0.3070112651356052
 20
1.571694590050334
  0
LWPOLYLINE
  5
7AA
330
18
100
AcDbEntity
  8
TEXT
100
AcDbPolyline
 90
        2
 70
     0
 43
0.0006660908203125
 10
-0.3736203471668578
 20
1.455128696495648
 10
-0.3736203471668578
 20
1.428485063683147
  0
LWPOLYLINE
  5
7AB
330
18
100
AcDbEntity
  8
TEXT
100
AcDbPolyline
 90
        2
 70
     0
 43
0.0001332181640625
 10
-0.3736203471668578
 20
1.455128696495648
 10
-0.3636289848621672
 20
1.515076870323774
  0
LWPOLYLINE
  5
7AC
330
18
100
AcDbEntity
  8
TEXT
100
AcDbPolyline
 90
        2
 70
     0
 43
0.0001332181640625
 10
-0.3736203471668578
 20
1.428485063683147
 10
-0.3636289848621672
 20
1.501755053917523
  0
LWPOLYLINE
  5
7AD
330
18
100
AcDbEntity
  8
TEXT
100
AcDbPolyline
 90
        2
 70
     0
 43
0.0001332181640625
 10
-0.3336548979481062
 20
1.455128696495648
 10
-0.343646260252795
 20
1.515076870323774
  0
LWPOLYLINE
  5
7AE
330
18
100
AcDbEntity
  8
TEXT
100
AcDbPolyline
 90
        2
 70
     0
 43
0.0001332181640625
 10
-0.343646260252795
 20
1.501755053917523
 10
-0.3336548979481062
 20
1.428485063683147
  0
LWPOLYLINE
  5
7AF
330
18
100
AcDbEntity
  8
TEXT
100
AcDbPolyline
 90
        2
 70
     0
 43
0.0006660908203125
 10
-0.3336548979481062
 20
1.455128696495648
 10
-0.3336548979481062
 20
1.428485063683147
  0
LWPOLYLINE
  5
7B0
330
18
100
AcDbEntity
  8
TEXT
100
AcDbPolyline
 90
        2
 70
     0
 43
0.0001332181640625
 10
-0.2470630913074814
 20
1.455128696495648
 10
-0.3070112651356052
 20
1.515076870323774
  0
LWPOLYLINE
  5
7B1
330
18
100
AcDbEntity
  8
TEXT
100
AcDbPolyline
 90
        3
 70
     0
 43
0.0006660908203125
 10
-0.3336548979481062
 20
1.455128696495648
 10
-0.2470630913074814
 20
1.455128696495648
 10
-0.2470630913074814
 20
1.541720503136275
  0
LWPOLYLINE
  5
7B2
330
18
100
AcDbEntity
  8
TEXT
100
AcDbPolyline
 90
        2
 70
     0
 43
0.0001332181640625
 10
-0.2470630913074814
 20
1.541720503136275
 10
-0.3070112651356052
 20
1.55171186544096
  0
LWPOLYLINE
  5
7B3
330
18
100
AcDbEntity
  8
TEXT
100
AcDbPolyline
 90
        5
 70
     0
 43
0.0001332181640625
 10
-0.2936894487293564
 20
1.55171186544096
 10
-0.3070112651356052
 20
1.55171186544096
 10
-0.3070112651356052
 20
1.515076870323774
 10
-0.343646260252795
 20
1.515076870323774
 10
-0.343646260252795
 20
1.501755053917523
  0
ARC
  5
7B4
330
18
100
AcDbEntity
  8
TEXT
100
AcDbCircle
 10
0.0496946783530454
 20
1.61274233634607
 30
0.0
 40
0.017902360805315
100
AcDbArc
 50
90.0
 51
270.0
  0
LINE
  5
7B5
330
18
100
AcDbEntity
  8
TEXT
100
AcDbLine
 10
-0.037630111207708
 20
1.496805365153075
 30
0.0
 11
-0.0376301112077062
 21
1.428448358819636
 31
0.0
  0
TEXT
  5
7B6
330
18
100
AcDbEntity
  8
TEXT
100
AcDbText
 10
1.669097905447328
 20
1.42807574049884
 30
0.0
 40
0.0522247191011236
  1
Phone  1-800-328-2495
 41
1.272321428571429
 72
     5
 11
2.998030489716992
 21
1.42807574049884
 31
0.0
100
AcDbText
  0
TEXT
  5
7B7
330
18
100
AcDbEntity
  8
TEXT
100
AcDbText
 10
1.669097905447328
 20
1.521334167465132
 30
0.0
 40
0.0522247191011236
  1
Minneapolis, MN 55432-0008
 41
1.11444212721585
 72
     5
 11
2.998030489716992
 21
1.521334167465132
 31
0.0
100
AcDbText
  0
LINE
  5
7B8
330
18
100
AcDbEntity
  8
TEXT
100
AcDbLine
 10
1.22352624614907
 20
1.630644697151382
 30
0.0
 11
1.300174227441626
 21
1.630644697151382
 31
0.0
  0
LINE
  5
7B9
330
18
100
AcDbEntity
  8
TEXT
100
AcDbLine
 10
0.6654830885183963
 20
1.630644697151382
 30
0.0
 11
0.7153183683415456
 21
1.630644697151382
 31
0.0
  0
ARC
  5
7BA
330
18
100
AcDbEntity
  8
TEXT
100
AcDbCircle
 10
0.3670171962479927
 20
1.467996081093332
 30
0.0
 40
0.0392772371940762
100
AcDbArc
 50
270.1604552698595
 51
330.0831797321295
  0
ARC
  5
7BB
330
18
100
AcDbEntity
  8
TEXT
100
AcDbCircle
 10
0.2767163503557679
 20
1.488240750157686
 30
0.0
 40
0.0601160179737537
100
AcDbArc
 50
180.0000000000003
 51
264.0521544866073
  0
LINE
  5
7BC
330
18
100
AcDbEntity
  8
TEXT
100
AcDbLine
 10
0.2166003323820149
 20
1.630644697151382
 30
0.0
 11
0.2166003323820149
 21
1.488240750157686
 31
0.0
  0
ARC
  5
7BD
330
18
100
AcDbEntity
  8
TEXT
100
AcDbCircle
 10
0.1202351885036261
 20
1.51377591903411
 30
0.0
 40
0.0169705538810321
100
AcDbArc
 50
270.0
 51
90.0
  0
ARC
  5
7BE
330
18
100
AcDbEntity
  8
TEXT
100
AcDbCircle
 10
0.1152948145973465
 20
1.511644167180193
 30
0.0
 40
0.0831958083605586
100
AcDbArc
 50
270.0
 51
90.0
  0
LWPOLYLINE
  5
7BF
330
18
100
AcDbEntity
  8
TEXT
100
AcDbPolyline
 90
        6
 70
     1
 43
0.0
 10
0.3130107434372711
 20
1.630644697151382
 10
0.2826941492170629
 20
1.630644697151382
 10
0.2826941492170629
 20
1.507533699096487
 42
0.407328721240804
 10
0.2942378003785393
 20
1.495714784420101
 10
0.3548594994232701
 20
1.495714784420101
 10
0.3723248398305881
 20
1.52852701346358
  0
LINE
  5
7C0
330
18
100
AcDbEntity
  8
TEXT
100
AcDbLine
 10
0.2704869398621206
 20
1.428448358819636
 30
0.0
 11
0.367127190937115
 21
1.428718997917918
 31
0.0
  0
LWPOLYLINE
  5
7C1
330
18
100
AcDbEntity
  8
TEXT
100
AcDbPolyline
 90
        2
 70
     0
 43
0.0
 10
0.4983604622536504
 20
1.479999701034564
 42
0.3318488747599744
 10
0.5674797548189634
 20
1.428448358819636
 42
-6.868794160588311
  0
LINE
  5
7C2
330
18
100
AcDbEntity
  8
TEXT
100
AcDbLine
 10
0.4983604622536504
 20
1.612757075859917
 30
0.0
 11
0.4983604622536504
 21
1.479999701034561
 31
0.0
  0
LINE
  5
7C3
330
18
100
AcDbEntity
  8
TEXT
100
AcDbLine
 10
0.4010607561602058
 20
1.448406864924649
 30
0.0
 11
0.4983604622536504
 21
1.612757075859917
 31
0.0
  0
ARC
  5
7C4
330
18
100
AcDbEntity
  8
TEXT
100
AcDbCircle
 10
0.5816583985758257
 20
1.509438991319164
 30
0.0
 40
0.0153818062434269
100
AcDbArc
 50
174.7883570302258
 51
270.0
  0
LINE
  5
7C5
330
18
100
AcDbEntity
  8
TEXT
100
AcDbLine
 10
0.5986520354604288
 20
1.494057185075739
 30
0.0
 11
0.5816583985758257
 21
1.494057185075739
 31
0.0
  0
LINE
  5
7C6
330
18
100
AcDbEntity
  8
TEXT
100
AcDbLine
 10
0.5674797548189617
 20
1.428448358819636
 30
0.0
 11
0.6654830885183963
 21
1.428448358819636
 31
0.0
  0
LINE
  5
7C7
330
18
100
AcDbEntity
  8
TEXT
100
AcDbLine
 10
0.6654830885183963
 20
1.428448358819636
 30
0.0
 11
0.6654830885183963
 21
1.630644697151382
 31
0.0
  0
LINE
  5
7C8
330
18
100
AcDbEntity
  8
TEXT
100
AcDbLine
 10
1.028334642506518
 20
1.630644697151382
 30
0.0
 11
0.9211283691192271
 21
1.630644697151382
 31
0.0
  0
LINE
  5
7C9
330
18
100
AcDbEntity
  8
TEXT
100
AcDbLine
 10
0.9818477280272546
 20
1.593369723689249
 30
0.0
 11
1.064135717810639
 21
1.593369723689249
 31
0.0
  0
LWPOLYLINE
  5
7CA
330
18
100
AcDbEntity
  8
TEXT
100
AcDbPolyline
 90
        4
 70
     1
 43
0.0
 10
1.077066759093538
 20
1.531412336803661
 10
0.98840644043368
 20
1.531412336803661
 42
0.9999999999999998
 10
0.98840644043368
 20
1.489013796299801
 10
1.077066759093538
 20
1.489013796299801
 42
1.0
  0
LWPOLYLINE
  5
7CB
330
18
100
AcDbEntity
  8
TEXT
100
AcDbPolyline
 90
        2
 70
     0
 43
0.0
 10
0.9631718065320544
 20
1.428448358819636
 10
1.097189224163431
 20
1.428448358819636
 42
0.9999999999999998
  0
LINE
  5
7CC
330
18
100
AcDbEntity
  8
TEXT
100
AcDbLine
 10
0.7899302042894974
 20
1.630644697151382
 30
0.0
 11
0.8440638012104493
 21
1.630644697151382
 31
0.0
  0
LINE
  5
7CD
330
18
100
AcDbEntity
  8
TEXT
100
AcDbLine
 10
0.7228721575076591
 20
1.428448358819636
 30
0.0
 11
0.7899302042894974
 21
1.428448358819636
 31
0.0
  0
LINE
  5
7CE
330
18
100
AcDbEntity
  8
TEXT
100
AcDbLine
 10
0.7899302042894974
 20
1.428448358819636
 30
0.0
 11
0.7899302042894974
 21
1.630644697151382
 31
0.0
  0
LINE
  5
7CF
330
18
100
AcDbEntity
  8
TEXT
100
AcDbLine
 10
0.7228721575076591
 20
1.623090907985272
 30
0.0
 11
0.7228721575076591
 21
1.428448358819636
 31
0.0
  0
LWPOLYLINE
  5
7D0
330
18
100
AcDbEntity
  8
TEXT
100
AcDbPolyline
 90
        2
 70
     0
 43
0.0
 10
0.7153183683415439
 20
1.630644697151382
 42
-0.4142135623731017
 10
0.7228721575076574
 20
1.623090907985272
 42
-0.9999999999999998
  0
LINE
  5
7D1
330
18
100
AcDbEntity
  8
TEXT
100
AcDbLine
 10
0.9211283691192271
 20
1.630644697151382
 30
0.0
 11
0.9211283691192271
 21
1.555592291077175
 31
0.0
  0
ARC
  5
7D2
330
18
100
AcDbEntity
  8
TEXT
100
AcDbCircle
 10
0.9818477280272546
 20
1.525684142545131
 30
0.0
 40
0.0676855811441166
100
AcDbArc
 50
90.0
 51
153.7768192527749
  0
LWPOLYLINE
  5
7D3
330
18
100
AcDbEntity
  8
TEXT
100
AcDbPolyline
 90
        2
 70
     0
 43
0.0
 10
0.9200958736644189
 20
1.471939303770074
 42
0.2901071551932823
 10
0.9631718065320544
 20
1.428448358819636
 42
5.328517124445801
  0
LWPOLYLINE
  5
7D4
330
18
100
AcDbEntity
  8
TEXT
100
AcDbPolyline
 90
        2
 70
     0
 43
0.0
 10
0.8440638012104475
 20
1.630644697151382
 42
-0.4142135623731017
 10
0.851617590376561
 20
1.623090907985272
 42
-0.9999999999999998
  0
LWPOLYLINE
  5
7D5
330
18
100
AcDbEntity
  8
TEXT
100
AcDbPolyline
 90
        4
 70
     0
 43
0.0
 10
0.851617590376561
 20
1.623090907985272
 10
0.851617590376561
 20
1.428448358819636
 10
0.9200958736644189
 20
1.428448358819636
 10
0.9200958736644189
 20
1.471939303770074
 42
-1.714843617202739
  0
LWPOLYLINE
  5
7D6
330
18
100
AcDbEntity
  8
TEXT
100
AcDbPolyline
 90
        2
 70
     0
 43
0.0
 10
1.140265157031075
 20
1.471939303770074
 42
-0.2901071551932486
 10
1.097189224163431
 20
1.428448358819636
 42
-5.328517124445184
  0
LWPOLYLINE
  5
7D7
330
18
100
AcDbEntity
  8
TEXT
100
AcDbPolyline
 90
        2
 70
     0
 43
0.0
 10
1.140265157031075
 20
1.428448358819636
 10
1.198620370866409
 20
1.428448358819636
  0
LWPOLYLINE
  5
7D8
330
18
100
AcDbEntity
  8
TEXT
100
AcDbPolyline
 90
        2
 70
     0
 43
0.0
 10
1.140265157031075
 20
1.471939303770074
 10
1.140265157031075
 20
1.428448358819636
  0
LINE
  5
7D9
330
18
100
AcDbEntity
  8
TEXT
100
AcDbLine
 10
1.064135717810639
 20
1.593369723689249
 30
0.0
 11
1.053870957397073
 21
1.614620263261944
 31
0.0
  0
LINE
  5
7DA
330
18
100
AcDbEntity
  8
TEXT
100
AcDbLine
 10
1.198620370866411
 20
1.428448358819636
 30
0.0
 11
1.198620370866404
 21
1.605738864251105
 31
0.0
  0
LINE
  5
7DB
330
18
100
AcDbEntity
  8
TEXT
100
AcDbLine
 10
1.517034317347924
 20
1.428448358819636
 30
0.0
 11
1.421542093984314
 21
1.585028148867174
 31
0.0
  0
LINE
  5
7DC
330
18
100
AcDbEntity
  8
TEXT
100
AcDbLine
 10
1.440455944971716
 20
1.428448358819636
 30
0.0
 11
1.517034317347924
 21
1.428448358819636
 31
0.0
  0
LINE
  5
7DD
330
18
100
AcDbEntity
  8
TEXT
100
AcDbLine
 10
1.300174227441633
 20
1.428448358819636
 30
0.0
 11
1.364552411760254
 21
1.428448358819636
 31
0.0
  0
LINE
  5
7DE
330
18
100
AcDbEntity
  8
TEXT
100
AcDbLine
 10
1.300174227441626
 20
1.630644697151382
 30
0.0
 11
1.300174227441633
 21
1.428448358819636
 31
0.0
  0
LINE
  5
7DF
330
18
100
AcDbEntity
  8
TEXT
100
AcDbLine
 10
1.364552411760254
 20
1.560027927295816
 30
0.0
 11
1.440455944971716
 21
1.428448358819636
 31
0.0
  0
LINE
  5
7E0
330
18
100
AcDbEntity
  8
TEXT
100
AcDbLine
 10
1.364552411760254
 20
1.428448358819636
 30
0.0
 11
1.364552411760254
 21
1.560027927295816
 31
0.0
  0
LINE
  5
7E1
330
18
100
AcDbEntity
  8
TEXT
100
AcDbLine
 10
0.2201891011373078
 20
1.694921391808147
 30
0.0
 11
0.0444573482387973
 21
1.694921391808147
 31
0.0
  0
LWPOLYLINE
  5
7E2
330
18
100
AcDbEntity
  8
TEXT
100
AcDbPolyline
 90
        2
 70
     0
 43
0.0006660908203125
 10
-0.3736203471668578
 20
1.66827775899565
 10
-0.3736203471668578
 20
1.694921391808151
  0
LWPOLYLINE
  5
7E3
330
18
100
AcDbEntity
  8
TEXT
100
AcDbPolyline
 90
        2
 70
     0
 43
0.0006660908203125
 10
-0.3336548979481062
 20
1.66827775899565
 10
-0.3336548979481062
 20
1.694921391808151
  0
TEXT
  5
7E4
330
18
100
AcDbEntity
  8
TEXT
100
AcDbText
 10
1.669097905447328
 20
1.707851021397717
 30
0.0
 40
0.0522247191011236
  1
Stylmark  Incorporated
 41
1.221428571428571
 72
     5
 11
2.998030489716992
 21
1.707851021397717
 31
0.0
100
AcDbText
  0
LINE
  5
7E5
330
18
100
AcDbEntity
  8
TEXT
100
AcDbLine
 10
1.295694340115126
 20
1.694921391808147
 30
0.0
 11
1.228194622465611
 21
1.694921391808147
 31
0.0
  0
TEXT
  5
7E6
330
18
100
AcDbEntity
  8
TEXT
100
AcDbText
 10
0.5147213186255775
 20
1.874998383171216
 30
0.0
 40
0.125
  1
PART #110441
  7
ITALICC
 72
     1
 11
1.255792747197006
 21
1.874998383171216
 31
0.0
100
AcDbText
  0
LINE
  5
7E7
330
18
100
AcDbEntity
  8
TEXT
100
AcDbLine
 10
0.7326700913915652
 20
1.694921391808147
 30
0.0
 11
0.5986520354604288
 21
1.694921391808147
 31
0.0
  0
LINE
  5
7E8
330
18
100
AcDbEntity
  8
TEXT
100
AcDbLine
 10
0.2802317059813148
 20
1.729309309402285
 30
0.0
 11
0.2201891011373078
 21
1.729309309402285
 31
0.0
  0
LINE
  5
7E9
330
18
100
AcDbEntity
  8
TEXT
100
AcDbLine
 10
0.2201891011373078
 20
1.729309309402285
 30
0.0
 11
0.2201891011373078
 21
1.694921391808147
 31
0.0
  0
LINE
  5
7EA
330
18
100
AcDbEntity
  8
TEXT
100
AcDbLine
 10
0.352030672125224
 20
1.694921391808147
 30
0.0
 11
0.2802317059813148
 21
1.694921391808147
 31
0.0
  0
LINE
  5
7EB
330
18
100
AcDbEntity
  8
TEXT
100
AcDbLine
 10
0.2802317059813148
 20
1.694921391808147
 30
0.0
 11
0.2802317059813148
 21
1.729309309402285
 31
0.0
  0
LINE
  5
7EC
330
18
100
AcDbEntity
  8
TEXT
100
AcDbLine
 10
0.5663401813227687
 20
1.762932869546958
 30
0.0
 11
0.4995314687564019
 21
1.762932869546958
 31
0.0
  0
LINE
  5
7ED
330
18
100
AcDbEntity
  8
TEXT
100
AcDbLine
 10
0.4995314687564019
 20
1.694921391808147
 30
0.0
 11
0.4694095559630256
 21
1.694921391808147
 31
0.0
  0
LINE
  5
7EE
330
18
100
AcDbEntity
  8
TEXT
100
AcDbLine
 10
0.4995314687564019
 20
1.762932869546958
 30
0.0
 11
0.4995314687564019
 21
1.694921391808147
 31
0.0
  0
LINE
  5
7EF
330
18
100
AcDbEntity
  8
TEXT
100
AcDbLine
 10
1.057365540850994
 20
1.694921391808147
 30
0.0
 11
0.9225336316339358
 21
1.694921391808147
 31
0.0
  0
LWPOLYLINE
  5
7F0
330
18
100
AcDbEntity
  8
TEXT
100
AcDbPolyline
 90
        3
 70
     0
 43
0.0
 10
0.8867519409207709
 20
1.694921391808151
 10
0.7684517821047266
 20
1.694921391808151
 10
0.7684517821047266
 20
1.667753895047255
 42
-1.960274751411753
  0
LWPOLYLINE
  5
7F1
330
18
100
AcDbEntity
  8
TEXT
100
AcDbPolyline
 90
        2
 70
     0
 43
0.0
 10
0.7326700913915652
 20
1.694921391808151
 42
-0.3328679258950098
 10
0.7684517821047266
 20
1.667753895047255
 42
6.772930709997214
  0
LINE
  5
7F2
330
18
100
AcDbEntity
  8
TEXT
100
AcDbLine
 10
0.9225336316339358
 20
1.694921391808147
 30
0.0
 11
0.9225336316339358
 21
1.666598846038503
 31
0.0
  0
LWPOLYLINE
  5
7F3
330
18
100
AcDbEntity
  8
TEXT
100
AcDbPolyline
 90
        2
 70
     0
 43
0.0
 10
0.8867519409207709
 20
1.694921391808151
 42
-0.3277054968067132
 10
0.9225336316339358
 20
1.666598846038507
 42
6.667889725900311
  0
LINE
  5
7F4
330
18
100
AcDbEntity
  8
TEXT
100
AcDbLine
 10
1.200222386025536
 20
1.694921391808147
 30
0.0
 11
1.136325479726036
 21
1.694921391808147
 31
0.0
  0
ARC
  5
7F5
330
18
100
AcDbEntity
  8
TEXT
100
AcDbCircle
 10
1.055338601073927
 20
1.653337824687245
 30
0.0
 40
0.0416329381542859
100
AcDbArc
 50
26.56974201007528
 51
87.20939649401342
  0
LINE
  5
7F6
330
18
100
AcDbEntity
  8
TEXT
100
AcDbLine
 10
1.200222386025536
 20
1.667373741947272
 30
0.0
 11
1.200222386025536
 21
1.694921391808147
 31
0.0
  0
ARC
  5
7F7
330
18
100
AcDbEntity
  8
TEXT
100
AcDbCircle
 10
1.231415203088646
 20
1.663675664525882
 30
0.0
 40
0.0314112657011332
100
AcDbArc
 50
95.88484768694724
 51
173.2388340632136
  0
LINE
  5
7F8
330
18
100
AcDbEntity
  8
TEXT
100
AcDbLine
 10
1.486099209950019
 20
1.694921391808147
 30
0.0
 11
1.411107377220393
 21
1.694921391808147
 31
0.0
  0
LINE
  5
7F9
330
18
100
AcDbEntity
  8
TEXT
100
AcDbLine
 10
1.295694340115133
 20
1.760385597575748
 30
0.0
 11
1.295694340115126
 21
1.694921391808147
 31
0.0
  0
LINE
  5
7FA
330
18
100
AcDbEntity
  8
TEXT
100
AcDbLine
 10
1.364009218664406
 20
1.760385597575748
 30
0.0
 11
1.295694340115133
 21
1.760385597575748
 31
0.0
  0
ENDSEC
  0
SECTION
  2
OBJECTS
  0
DICTIONARY
  5
C
330
0
100
AcDbDictionary
  3
ACAD_GROUP
350
D
  3
ACAD_LAYOUT
350
7FF
  3
ACAD_MLINESTYLE
350
E
  3
ACAD_PLOTSETTINGS
350
800
  3
ACAD_PLOTSTYLENAME
350
7FD
  3
ACDBHEADERROUNDTRIPXREC
350
809
  3
ACDBVARIABLEDICTIONARY
350
6EE
  0
DICTIONARY
  5
82B
330
18
100
AcDbDictionary
280
     1
  3
ACAD_LAYOUTSELFREF
360
82C
  0
DICTIONARY
  5
829
330
15
100
AcDbDictionary
280
     1
  3
ACAD_LAYOUTSELFREF
360
82A
  0
DICTIONARY
  5
D
102
{ACAD_REACTORS
330
C
102
}
330
C
100
AcDbDictionary
  3
*A1
350
488
  3
*A2
350
59F
  0
DICTIONARY
  5
7FF
102
{ACAD_REACTORS
330
C
102
}
330
C
100
AcDbDictionary
  0
DICTIONARY
  5
E
102
{ACAD_REACTORS
330
C
102
}
330
C
100
AcDbDictionary
  3
STANDARD
350
1B
  0
DICTIONARY
  5
800
102
{ACAD_REACTORS
330
C
102
}
330
C
100
AcDbDictionary
  0
ACDBDICTIONARYWDFLT
  5
7FD
102
{ACAD_REACTORS
330
C
102
}
330
C
100
AcDbDictionary
281
     1
  3
Normal
350
7FE
100
AcDbDictionaryWithDefault
340
7FE
  0
DICTIONARY
  5
809
102
{ACAD_REACTORS
330
C
102
}
330
C
100
AcDbDictionary
  3
CEPSNTYPE
350
813
  3
FINGERPRINTGUID
350
814
  3
HYPERLINKBASE
350
80C
  3
INSUNITS
350
812
  3
LAYOUTDICT
350
80E
  3
LWETCUNION
350
811
  3
PLOTSETDICT
350
80F
  3
PLOTSTYLNAMDICT
350
810
  3
PSVPSCALE
350
816
  3
PUCSBASE
350
819
  3
PUCSORGBACK
350
81F
  3
PUCSORGBOTTOM
350
81B
  3
PUCSORGFRONT
350
81E
  3
PUCSORGLEFT
350
81C
  3
PUCSORGRIGHT
350
81D
  3
PUCSORGTOP
350
81A
  3
PUCSORTHOREF
350
817
  3
PUCSORTHOVIEW
350
818
  3
STYLESHEET
350
80D
  3
TSTACKALIGN
350
80A
  3
TSTACKSIZE
350
80B
  3
UCSBASE
350
822
  3
UCSORGBACK
350
828
  3
UCSORGBOTTOM
350
824
  3
UCSORGFRONT
350
827
  3
UCSORGLEFT
350
825
  3
UCSORGRIGHT
350
826
  3
UCSORGTOP
350
823
  3
UCSORTHOREF
350
820
  3
UCSORTHOVIEW
350
821
  3
VERSIONGUID
350
815
  0
DICTIONARY
  5
6EE
102
{ACAD_REACTORS
330
C
102
}
330
C
100
AcDbDictionary
  3
DIMASSOC
350
807
  3
SORTENTS
350
6EF
  0
XRECORD
  5
82C
102
{ACAD_REACTORS
330
82B
102
}
330
82B
100
AcDbXrecord
340
18
  0
XRECORD
  5
82A
102
{ACAD_REACTORS
330
829
102
}
330
829
100
AcDbXrecord
340
15
  0
GROUP
  5
488
102
{ACAD_REACTORS
330
D
102
}
330
D
100
AcDbGroup
300
BORDER FRAME 10-1-95
 70
     0
 71
     1
  0
GROUP
  5
59F
102
{ACAD_REACTORS
330
D
102
}
330
D
100
AcDbGroup
300
BORDER FRAME 10-1-95
 70
     0
 71
     1
  0
MLINESTYLE
  5
1B
102
{ACAD_REACTORS
330
E
102
}
330
E
100
AcDbMlineStyle
  2
STANDARD
 70
     0
  3

 62
     0
 51
90.0
 52
90.0
 71
     2
 49
0.5
 62
   256
  6
BYLAYER
 49
-0.5
 62
   256
  6
BYLAYER
  0
ACDBPLACEHOLDER
  5
7FE
102
{ACAD_REACTORS
330
7FD
102
}
330
7FD
100
AcDbPlaceHolder
280
     0
  0
XRECORD
  5
813
102
{ACAD_REACTORS
330
809
102
}
330
809
100
AcDbXrecord
 90
        0
  0
XRECORD
  5
814
102
{ACAD_REACTORS
330
809
102
}
330
809
100
AcDbXrecord
  1
{751643E0-8DB7-11D6-88E6-0090279574E7}
  0
XRECORD
  5
80C
102
{ACAD_REACTORS
330
809
102
}
330
809
100
AcDbXrecord
  1

  0
XRECORD
  5
812
102
{ACAD_REACTORS
330
809
102
}
330
809
100
AcDbXrecord
 90
        0
  0
XRECORD
  5
80E
102
{ACAD_REACTORS
330
809
102
}
330
809
100
AcDbXrecord
340
7FF
  0
XRECORD
  5
811
102
{ACAD_REACTORS
330
809
102
}
330
809
100
AcDbXrecord
 90
    14877
  0
XRECORD
  5
80F
102
{ACAD_REACTORS
330
809
102
}
330
809
100
AcDbXrecord
340
800
  0
XRECORD
  5
810
102
{ACAD_REACTORS
330
809
102
}
330
809
100
AcDbXrecord
340
7FD
  0
XRECORD
  5
816
102
{ACAD_REACTORS
330
809
102
}
330
809
100
AcDbXrecord
 40
0.0
  0
XRECORD
  5
819
102
{ACAD_REACTORS
330
809
102
}
330
809
100
AcDbXrecord
340
0
  0
XRECORD
  5
81F
102
{ACAD_REACTORS
330
809
102
}
330
809
100
AcDbXrecord
 10
0.0
 20
0.0
 30
0.0
  0
XRECORD
  5
81B
102
{ACAD_REACTORS
330
809
102
}
330
809
100
AcDbXrecord
 10
0.0
 20
0.0
 30
0.0
  0
XRECORD
  5
81E
102
{ACAD_REACTORS
330
809
102
}
330
809
100
AcDbXrecord
 10
0.0
 20
0.0
 30
0.0
  0
XRECORD
  5
81C
102
{ACAD_REACTORS
330
809
102
}
330
809
100
AcDbXrecord
 10
0.0
 20
0.0
 30
0.0
  0
XRECORD
  5
81D
102
{ACAD_REACTORS
330
809
102
}
330
809
100
AcDbXrecord
 10
0.0
 20
0.0
 30
0.0
  0
XRECORD
  5
81A
102
{ACAD_REACTORS
330
809
102
}
330
809
100
AcDbXrecord
 10
0.0
 20
0.0
 30
0.0
  0
XRECORD
  5
817
102
{ACAD_REACTORS
330
809
102
}
330
809
100
AcDbXrecord
340
0
  0
XRECORD
  5
818
102
{ACAD_REACTORS
330
809
102
}
330
809
100
AcDbXrecord
 70
     0
  0
XRECORD
  5
80D
102
{ACAD_REACTORS
330
809
102
}
330
809
100
AcDbXrecord
  1

  0
XRECORD
  5
80A
102
{ACAD_REACTORS
330
809
102
}
330
809
100
AcDbXrecord
 90
        1
  0
XRECORD
  5
80B
102
{ACAD_REACTORS
330
809
102
}
330
809
100
AcDbXrecord
 90
       70
  0
XRECORD
  5
822
102
{ACAD_REACTORS
330
809
102
}
330
809
100
AcDbXrecord
340
0
  0
XRECORD
  5
828
102
{ACAD_REACTORS
330
809
102
}
330
809
100
AcDbXrecord
 10
0.0
 20
0.0
 30
0.0
  0
XRECORD
  5
824
102
{ACAD_REACTORS
330
809
102
}
330
809
100
AcDbXrecord
 10
0.0
 20
0.0
 30
0.0
  0
XRECORD
  5
827
102
{ACAD_REACTORS
330
809
102
}
330
809
100
AcDbXrecord
 10
0.0
 20
0.0
 30
0.0
  0
XRECORD
  5
825
102
{ACAD_REACTORS
330
809
102
}
330
809
100
AcDbXrecord
 10
0.0
 20
0.0
 30
0.0
  0
XRECORD
  5
826
102
{ACAD_REACTORS
330
809
102
}
330
809
100
AcDbXrecord
 10
0.0
 20
0.0
 30
0.0
  0
XRECORD
  5
823
102
{ACAD_REACTORS
330
809
102
}
330
809
100
AcDbXrecord
 10
0.0
 20
0.0
 30
0.0
  0
XRECORD
  5
820
102
{ACAD_REACTORS
330
809
102
}
330
809
100
AcDbXrecord
340
0
  0
XRECORD
  5
821
102
{ACAD_REACTORS
330
809
102
}
330
809
100
AcDbXrecord
 70
     0
  0
XRECORD
  5
815
102
{ACAD_REACTORS
330
809
102
}
330
809
100
AcDbXrecord
  1
{751643E2-8DB7-11D6-88E6-0090279574E7}
  0
DICTIONARYVAR
  5
807
102
{ACAD_REACTORS
330
6EE
102
}
330
6EE
100
DictionaryVariables
280
     0
  1
1
  0
DICTIONARYVAR
  5
6EF
102
{ACAD_REACTORS
330
6EE
102
}
330
6EE
100
DictionaryVariables
280
     0
  1
97
  0
ENDSEC
  0
EOF
