  0
SECTION
  2
HEADER
  9
$ACADVER
  1
AC1014
  9
$ACADMAINTVER
 70
     9
  9
$DWGCODEPAGE
  3
ANSI_1252
  9
$INSBASE
 10
2.621988348870768
 20
1.682980502213196
 30
0.0
  9
$EXTMIN
 10
0.8759208332112764
 20
0.4102978004542834
 30
0.0
  9
$EXTMAX
 10
4.361140154958405
 20
2.182980502213196
 30
0.0
  9
$LIMMIN
 10
0.0
 20
0.0
  9
$LIMMAX
 10
18.0
 20
12.0
  9
$ORTHOMODE
 70
     1
  9
$REGENMODE
 70
     1
  9
$FILLMODE
 70
     1
  9
$QTEXTMODE
 70
     0
  9
$MIRRTEXT
 70
     0
  9
$DRAGMODE
 70
     2
  9
$LTSCALE
 40
1.0
  9
$OSMODE
 70
    39
  9
$ATTMODE
 70
     1
  9
$TEXTSIZE
 40
0.125
  9
$TRACEWID
 40
0.05
  9
$TEXTSTYLE
  7
ROMANS
  9
$CLAYER
  8
0
  9
$CELTYPE
  6
BYLAYER
  9
$CECOLOR
 62
   256
  9
$CELTSCALE
 40
1.0
  9
$DELOBJ
 70
     1
  9
$DISPSILH
 70
     1
  9
$DIMSCALE
 40
1.0
  9
$DIMASZ
 40
0.125
  9
$DIMEXO
 40
0.125
  9
$DIMDLI
 40
0.375
  9
$DIMRND
 40
0.0
  9
$DIMDLE
 40
0.0
  9
$DIMEXE
 40
0.125
  9
$DIMTP
 40
0.0
  9
$DIMTM
 40
0.0
  9
$DIMTXT
 40
0.125
  9
$DIMCEN
 40
-0.125
  9
$DIMTSZ
 40
0.0
  9
$DIMTOL
 70
     0
  9
$DIMLIM
 70
     0
  9
$DIMTIH
 70
     1
  9
$DIMTOH
 70
     1
  9
$DIMSE1
 70
     0
  9
$DIMSE2
 70
     0
  9
$DIMTAD
 70
     0
  9
$DIMZIN
 70
     4
  9
$DIMBLK
  1

  9
$DIMASO
 70
     1
  9
$DIMSHO
 70
     1
  9
$DIMPOST
  1

  9
$DIMAPOST
  1

  9
$DIMALT
 70
     0
  9
$DIMALTD
 70
     2
  9
$DIMALTF
 40
25.4
  9
$DIMLFAC
 40
1.0
  9
$DIMTOFL
 70
     0
  9
$DIMTVP
 40
0.0
  9
$DIMTIX
 70
     1
  9
$DIMSOXD
 70
     0
  9
$DIMSAH
 70
     0
  9
$DIMBLK1
  1

  9
$DIMBLK2
  1

  9
$DIMSTYLE
  2
STANDARD
  9
$DIMCLRD
 70
     0
  9
$DIMCLRE
 70
     0
  9
$DIMCLRT
 70
     0
  9
$DIMTFAC
 40
1.0
  9
$DIMGAP
 40
0.09
  9
$DIMJUST
 70
     0
  9
$DIMSD1
 70
     0
  9
$DIMSD2
 70
     0
  9
$DIMTOLJ
 70
     1
  9
$DIMTZIN
 70
     4
  9
$DIMALTZ
 70
     0
  9
$DIMALTTZ
 70
     0
  9
$DIMFIT
 70
     3
  9
$DIMUPT
 70
     0
  9
$DIMUNIT
 70
     2
  9
$DIMDEC
 70
     3
  9
$DIMTDEC
 70
     3
  9
$DIMALTU
 70
     2
  9
$DIMALTTD
 70
     2
  9
$DIMTXSTY
  7
ROMANS
  9
$DIMAUNIT
 70
     0
  9
$LUNITS
 70
     2
  9
$LUPREC
 70
     3
  9
$SKETCHINC
 40
0.1
  9
$FILLETRAD
 40
0.03125
  9
$AUNITS
 70
     0
  9
$AUPREC
 70
     0
  9
$MENU
  1
ACAD
  9
$ELEVATION
 40
0.0
  9
$PELEVATION
 40
0.0
  9
$THICKNESS
 40
0.0
  9
$LIMCHECK
 70
     0
  9
$BLIPMODE
 70
     0
  9
$CHAMFERA
 40
0.0
  9
$CHAMFERB
 40
0.0
  9
$CHAMFERC
 40
0.0
  9
$CHAMFERD
 40
0.0
  9
$SKPOLY
 70
     0
  9
$TDCREATE
 40
2448994.658221643
  9
$TDUPDATE
 40
2452458.312328125
  9
$TDINDWG
 40
0.0006084144
  9
$TDUSRTIMER
 40
0.0006084144
  9
$USRTIMER
 70
     1
  9
$ANGBASE
 50
0.0
  9
$ANGDIR
 70
     0
  9
$PDMODE
 70
     0
  9
$PDSIZE
 40
0.0
  9
$PLINEWID
 40
0.0
  9
$COORDS
 70
     2
  9
$SPLFRAME
 70
     0
  9
$SPLINETYPE
 70
     6
  9
$SPLINESEGS
 70
     8
  9
$ATTDIA
 70
     0
  9
$ATTREQ
 70
     1
  9
$HANDLING
 70
 22529
  9
$HANDSEED
  5
7DE1B343D9E1370
  9
$SURFTAB1
 70
     6
  9
$SURFTAB2
 70
     6
  9
$SURFTYPE
 70
     6
  9
$SURFU
 70
     6
  9
$SURFV
 70
     6
  9
$UCSNAME
  2

  9
$UCSORG
 10
0.0
 20
0.0
 30
0.0
  9
$UCSXDIR
 10
1.0
 20
0.0
 30
0.0
  9
$UCSYDIR
 10
0.0
 20
1.0
 30
0.0
  9
$PUCSNAME
  2

  9
$PUCSORG
 10
0.0
 20
0.0
 30
0.0
  9
$PUCSXDIR
 10
1.0
 20
0.0
 30
0.0
  9
$PUCSYDIR
 10
0.0
 20
1.0
 30
0.0
  9
$USERI1
 70
     0
  9
$USERI2
 70
     0
  9
$USERI3
 70
     0
  9
$USERI4
 70
     0
  9
$USERI5
 70
     0
  9
$USERR1
 40
0.0
  9
$USERR2
 40
0.0
  9
$USERR3
 40
0.0
  9
$USERR4
 40
0.0
  9
$USERR5
 40
0.0
  9
$WORLDVIEW
 70
     1
  9
$SHADEDGE
 70
     3
  9
$SHADEDIF
 70
    70
  9
$TILEMODE
 70
     1
  9
$MAXACTVP
 70
    16
  9
$PINSBASE
 10
1.008465698597065
 20
10.32666000183817
 30
2.679878056832005
  9
$PLIMCHECK
 70
     0
  9
$PEXTMIN
 10
1.000000000000000E+20
 20
1.000000000000000E+20
 30
1.000000000000000E+20
  9
$PEXTMAX
 10
-1.000000000000000E+20
 20
-1.000000000000000E+20
 30
-1.000000000000000E+20
  9
$PLIMMIN
 10
0.0
 20
0.0
  9
$PLIMMAX
 10
12.0
 20
9.0
  9
$UNITMODE
 70
     0
  9
$VISRETAIN
 70
     0
  9
$PLINEGEN
 70
     1
  9
$PSLTSCALE
 70
     0
  9
$TREEDEPTH
 70
  3020
  9
$PICKSTYLE
 70
     1
  9
$CMLSTYLE
  2
STANDARD
  9
$CMLJUST
 70
     0
  9
$CMLSCALE
 40
1.0
  9
$PROXYGRAPHICS
 70
     1
  9
$MEASUREMENT
 70
     0
  0
ENDSEC
  0
SECTION
  2
CLASSES
  0
CLASS
  1
LWPOLYLINE
  2
AcDbPolyline
  3
AutoCAD 2000
 90
        0
280
     0
281
     1
  0
CLASS
  1
ACDBDICTIONARYWDFLT
  2
AcDbDictionaryWithDefault
  3
AutoCAD 2000
 90
        0
280
     0
281
     0
  0
CLASS
  1
ACDBPLACEHOLDER
  2
AcDbPlaceHolder
  3
AutoCAD 2000
 90
        0
280
     0
281
     0
  0
CLASS
  1
LAYOUT
  2
AcDbLayout
  3
AutoCAD 2000
 90
        0
280
     0
281
     0
  0
CLASS
  1
DICTIONARYVAR
  2
AcDbDictionaryVar
  3
AutoCAD 2000
 90
        0
280
     0
281
     0
  0
CLASS
  1
LONG_TRANSACTION
  2
AcDbLongTransaction
  3
AutoCAD 2000
 90
        0
280
     0
281
     0
  0
CLASS
  1
LWPOLYLINE
  2
AcDbPolyline
  3
AutoCAD 2000
 90
        0
280
     0
281
     1
  0
CLASS
  1
HATCH
  2
AcDbHatch
  3
AutoCAD 2000
 90
        0
280
     0
281
     1
  0
CLASS
  1
XRECORD
  2
AcDbXrecord
  3
AutoCAD 2000
 90
        0
280
     0
281
     0
  0
ENDSEC
  0
SECTION
  2
TABLES
  0
TABLE
  2
VPORT
  5
7DE1B343D9E1317
330
0
100
AcDbSymbolTable
 70
     2
  0
VPORT
  5
7DE1B343D9E134B
330
7DE1B343D9E1317
100
AcDbSymbolTableRecord
100
AcDbViewportTableRecord
  2
*ACTIVE
 70
     0
 10
0.0
 20
0.0
 11
1.0
 21
1.0
 12
5.595339619418102
 22
1.296478293948432
 13
0.0
 23
0.0
 14
0.015625
 24
0.015625
 15
0.0
 25
0.0
 16
0.0
 26
0.0
 36
1.0
 17
0.0
 27
0.0
 37
0.0
 40
2.282647215150728
 41
4.320930232558139
 42
50.0
 43
0.0
 44
0.0
 50
0.0
 51
0.0
 71
     0
 72
  2000
 73
     1
 74
     0
 75
     0
 76
     0
 77
     0
 78
     0
  0
ENDTAB
  0
TABLE
  2
LTYPE
  5
7DE1B343D9E1314
330
0
100
AcDbSymbolTable
 70
     1
  0
LTYPE
  5
7DE1B343D9E1321
330
7DE1B343D9E1314
100
AcDbSymbolTableRecord
100
AcDbLinetypeTableRecord
  2
BYBLOCK
 70
     0
  3

 72
    65
 73
     0
 40
0.0
  0
LTYPE
  5
7DE1B343D9E1322
330
7DE1B343D9E1314
100
AcDbSymbolTableRecord
100
AcDbLinetypeTableRecord
  2
BYLAYER
 70
     0
  3

 72
    65
 73
     0
 40
0.0
  0
LTYPE
  5
7DE1B343D9E1323
330
7DE1B343D9E1314
100
AcDbSymbolTableRecord
100
AcDbLinetypeTableRecord
  2
CONTINUOUS
 70
     0
  3
Solid line
 72
    65
 73
     0
 40
0.0
  0
ENDTAB
  0
TABLE
  2
LAYER
  5
7DE1B343D9E1311
330
0
100
AcDbSymbolTable
 70
     2
  0
LAYER
  5
7DE1B343D9E131E
330
7DE1B343D9E1311
100
AcDbSymbolTableRecord
100
AcDbLayerTableRecord
  2
0
 70
     0
 62
     7
  6
CONTINUOUS
  0
LAYER
  5
7DE1B343D9E132E
330
7DE1B343D9E1311
100
AcDbSymbolTableRecord
100
AcDbLayerTableRecord
  2
TEXT
 70
     0
 62
     3
  6
CONTINUOUS
  0
ENDTAB
  0
TABLE
  2
STYLE
  5
7DE1B343D9E1312
330
0
100
AcDbSymbolTable
 70
     3
  0
STYLE
  5
7DE1B343D9E131F
330
7DE1B343D9E1312
100
AcDbSymbolTableRecord
100
AcDbTextStyleTableRecord
  2
STANDARD
 70
     0
 40
0.0
 41
1.0
 50
0.0
 71
     0
 42
0.3125
  3
txt
  4

  0
STYLE
  5
7DE1B343D9E132B
330
7DE1B343D9E1312
100
AcDbSymbolTableRecord
100
AcDbTextStyleTableRecord
  2
ITALICC
 70
     0
 40
0.0
 41
1.0
 50
0.0
 71
     0
 42
0.125
  3
italicc
  4

  0
STYLE
  5
7DE1B343D9E133B
330
7DE1B343D9E1312
100
AcDbSymbolTableRecord
100
AcDbTextStyleTableRecord
  2
ROMANS
 70
     0
 40
0.0
 41
1.0
 50
0.0
 71
     0
 42
0.125
  3
romans.shx
  4

  0
ENDTAB
  0
TABLE
  2
VIEW
  5
7DE1B343D9E1315
330
0
100
AcDbSymbolTable
 70
     0
  0
ENDTAB
  0
TABLE
  2
UCS
  5
7DE1B343D9E1316
330
0
100
AcDbSymbolTable
 70
     0
  0
ENDTAB
  0
TABLE
  2
APPID
  5
7DE1B343D9E1318
330
0
100
AcDbSymbolTable
 70
     1
  0
APPID
  5
7DE1B343D9E1320
330
7DE1B343D9E1318
100
AcDbSymbolTableRecord
100
AcDbRegAppTableRecord
  2
ACAD
 70
     0
  0
ENDTAB
  0
TABLE
  2
DIMSTYLE
  5
7DE1B343D9E1319
330
0
100
AcDbSymbolTable
 70
     1
  0
DIMSTYLE
105
7DE1B343D9E1333
330
7DE1B343D9E1319
100
AcDbSymbolTableRecord
100
AcDbDimStyleTableRecord
  2
STANDARD
 70
     0
  3

  4

  5

  6

  7

 40
1.0
 41
0.125
 42
0.125
 43
0.375
 44
0.125
 45
0.0
 46
0.0
 47
0.0
 48
0.0
140
0.125
141
-0.125
142
0.0
143
25.4
144
1.0
145
0.0
146
1.0
147
0.09
 71
     0
 72
     0
 73
     1
 74
     1
 75
     0
 76
     0
 77
     0
 78
     4
170
     0
171
     2
172
     0
173
     0
174
     1
175
     0
176
     0
177
     0
178
     0
270
     2
271
     3
272
     3
273
     2
274
     2
340
7DE1B343D9E133B
275
     0
280
     0
281
     0
282
     0
283
     1
284
     4
285
     0
286
     0
287
     3
288
     0
  0
ENDTAB
  0
TABLE
  2
BLOCK_RECORD
  5
7DE1B343D9E1310
330
0
100
AcDbSymbolTable
 70
     0
  0
BLOCK_RECORD
  5
7DE1B343D9E1327
102
{ACAD_XDICTIONARY
360
7DE1B343D9E136E
102
}
330
7DE1B343D9E1310
100
AcDbSymbolTableRecord
100
AcDbBlockTableRecord
  2
*MODEL_SPACE
  0
BLOCK_RECORD
  5
7DE1B343D9E1324
102
{ACAD_XDICTIONARY
360
7DE1B343D9E136C
102
}
330
7DE1B343D9E1310
100
AcDbSymbolTableRecord
100
AcDbBlockTableRecord
  2
*PAPER_SPACE
  0
ENDTAB
  0
ENDSEC
  0
SECTION
  2
BLOCKS
  0
BLOCK
  5
7DE1B343D9E1331
330
7DE1B343D9E1327
100
AcDbEntity
  8
0
100
AcDbBlockBegin
  2
*MODEL_SPACE
 70
     0
 10
0.0
 20
0.0
 30
0.0
  3
*MODEL_SPACE
  1

  0
ENDBLK
  5
7DE1B343D9E1332
330
7DE1B343D9E1327
100
AcDbEntity
  8
0
100
AcDbBlockEnd
  0
BLOCK
  5
7DE1B343D9E132F
330
7DE1B343D9E1324
100
AcDbEntity
 67
     1
  8
0
100
AcDbBlockBegin
  2
*PAPER_SPACE
 70
     0
 10
0.0
 20
0.0
 30
0.0
  3
*PAPER_SPACE
  1

  0
ENDBLK
  5
7DE1B343D9E1330
330
7DE1B343D9E1324
100
AcDbEntity
 67
     1
  8
0
100
AcDbBlockEnd
  0
ENDSEC
  0
SECTION
  2
ENTITIES
  0
LWPOLYLINE
  5
7DE1B343D9DFF0E
330
7DE1B343D9E1327
100
AcDbEntity
  8
0
100
AcDbPolyline
 90
       14
 70
     1
 43
0.0
 10
2.184488348870768
 20
1.229855502213195
 42
-0.4142135623730951
 10
2.200113348870768
 20
1.245480502213195
 10
2.559488348870768
 20
1.245480502213196
 10
2.559488348870768
 20
1.620480502213196
 10
2.200113348870768
 20
1.620480502213196
 42
-0.4142135623730951
 10
2.184488348870768
 20
1.636105502213196
 10
2.184488348870768
 20
1.667355502213196
 42
-0.4142135623730951
 10
2.200113348870768
 20
1.682980502213196
 10
2.559488348870768
 20
1.682980502213196
 10
2.559488348870768
 20
2.182980502213196
 10
2.621988348870768
 20
2.182980502213196
 42
-1.0
 10
2.621988348870768
 20
1.182980502213196
 10
2.200113348870768
 20
1.182980502213196
 42
-0.4142135623730951
 10
2.184488348870768
 20
1.198605502213196
  0
LWPOLYLINE
  5
7DE1B343D9DFF1E
330
7DE1B343D9E1327
100
AcDbEntity
  8
0
100
AcDbPolyline
 90
        2
 70
     1
 43
0.0
 10
2.621988348870768
 20
2.120480502213195
 10
2.621988348870767
 20
1.245480502213195
 42
0.9999999999999998
  0
TEXT
  5
7DE1B343D9E11D2
330
7DE1B343D9E1327
100
AcDbEntity
  8
TEXT
100
AcDbText
 10
1.865926221962229
 20
0.8683164045368648
 30
0.0
 40
0.125
  1
PART #110432
  7
ITALICC
 72
     1
 11
2.618902412438419
 21
0.8683164045368648
 31
0.0
100
AcDbText
  0
TEXT
  5
7DE1B343D9E11D3
330
7DE1B343D9E1327
100
AcDbEntity
  8
TEXT
100
AcDbText
 10
3.03220757068874
 20
0.4213937618644899
 30
0.0
 40
0.0522247191011236
  1
Phone  1-800-328-2495
 41
1.272321428571429
 72
     5
 11
4.361140154958404
 21
0.4213937618644899
 31
0.0
100
AcDbText
  0
TEXT
  5
7DE1B343D9E11D4
330
7DE1B343D9E1327
100
AcDbEntity
  8
TEXT
100
AcDbText
 10
3.03220757068874
 20
0.7011690427633664
 30
0.0
 40
0.0522247191011236
  1
Stylmark  Incorporated
 41
1.221428571428573
 72
     5
 11
4.361140154958404
 21
0.7011690427633664
 31
0.0
100
AcDbText
  0
TEXT
  5
7DE1B343D9E11D5
330
7DE1B343D9E1327
100
AcDbEntity
  8
TEXT
100
AcDbText
 10
3.03220757068874
 20
0.6079106157970742
 30
0.0
 40
0.0522247191011236
  1
6536 Main St. N.E. * P.O. Box 32008
 41
0.8388932496075366
 72
     5
 11
4.361140154958404
 21
0.6079106157970742
 31
0.0
100
AcDbText
  0
TEXT
  5
7DE1B343D9E11D6
330
7DE1B343D9E1327
100
AcDbEntity
  8
TEXT
100
AcDbText
 10
3.03220757068874
 20
0.514652188830782
 30
0.0
 40
0.0522247191011236
  1
Minneapolis, MN 55432-0008
 41
1.11444212721585
 72
     5
 11
4.361140154958404
 21
0.514652188830782
 31
0.0
100
AcDbText
  0
LWPOLYLINE
  5
7DE1B343D9E11D7
330
7DE1B343D9E1327
100
AcDbEntity
  8
TEXT
100
AcDbPolyline
 90
        3
 70
     0
 43
0.0006660908203125
 10
0.8762538786214326
 20
0.5350385245019247
 10
0.8762538786214326
 20
0.4218030850487971
 10
0.9894893180745549
 20
0.4218030850487971
  0
LWPOLYLINE
  5
7DE1B343D9E11DC
330
7DE1B343D9E1327
100
AcDbEntity
  8
TEXT
100
AcDbPolyline
 90
        3
 70
     0
 43
0.0006660908203125
 10
0.9028975114339301
 20
0.5350385245019247
 10
0.9028975114339301
 20
0.4484467178612981
 10
0.9894893180745549
 20
0.4484467178612981
  0
LWPOLYLINE
  5
7DE1B343D9E11E1
330
7DE1B343D9E1327
100
AcDbEntity
  8
TEXT
100
AcDbPolyline
 90
        2
 70
     0
 43
0.0001332181640625
 10
0.9495238688558069
 20
0.5450298868066099
 10
0.8762538786214326
 20
0.5350385245019247
  0
LWPOLYLINE
  5
7DE1B343D9E11E5
330
7DE1B343D9E1327
100
AcDbEntity
  8
TEXT
100
AcDbPolyline
 90
        2
 70
     0
 43
0.0001332181640625
 10
0.9028975114339301
 20
0.5350385245019247
 10
0.9628456852620574
 20
0.5450298868066099
  0
LWPOLYLINE
  5
7DE1B343D9E11E9
330
7DE1B343D9E1327
100
AcDbEntity
  8
TEXT
100
AcDbPolyline
 90
        2
 70
     0
 43
0.0001332181640625
 10
0.9028975114339301
 20
0.4484467178612981
 10
0.9628456852620574
 20
0.5083948916894237
  0
LWPOLYLINE
  5
7DE1B343D9E11ED
330
7DE1B343D9E1327
100
AcDbEntity
  8
TEXT
100
AcDbPolyline
 90
        3
 70
     0
 43
0.0006660908203125
 10
0.9894893180745549
 20
0.6882394131738004
 10
0.8762538786214326
 20
0.6882394131738004
 10
0.8762538786214326
 20
0.5750039737206727
  0
LWPOLYLINE
  5
7DE1B343D9E11F2
330
7DE1B343D9E1327
100
AcDbEntity
  8
TEXT
100
AcDbPolyline
 90
        3
 70
     0
 43
0.0006660908203125
 10
0.9894893180745549
 20
0.6615957803612993
 10
0.9028975114339301
 20
0.6615957803612993
 10
0.9028975114339301
 20
0.5750039737206727
  0
LWPOLYLINE
  5
7DE1B343D9E11F7
330
7DE1B343D9E1327
100
AcDbEntity
  8
TEXT
100
AcDbPolyline
 90
        2
 70
     0
 43
0.0001332181640625
 10
0.9028975114339301
 20
0.6615957803612993
 10
0.9628456852620557
 20
0.6016476065331738
  0
LWPOLYLINE
  5
7DE1B343D9E11FB
330
7DE1B343D9E1327
100
AcDbEntity
  8
TEXT
100
AcDbPolyline
 90
        2
 70
     0
 43
0.0001332181640625
 10
0.9028975114339301
 20
0.5750039737206727
 10
0.9628456852620557
 20
0.565012611415984
  0
LWPOLYLINE
  5
7DE1B343D9E11FF
330
7DE1B343D9E1327
100
AcDbEntity
  8
TEXT
100
AcDbPolyline
 90
        2
 70
     0
 43
0.0001332181640625
 10
0.8762538786214326
 20
0.5750039737206727
 10
0.9495238688558069
 20
0.565012611415984
  0
LWPOLYLINE
  5
7DE1B343D9E1203
330
7DE1B343D9E1327
100
AcDbEntity
  8
TEXT
100
AcDbPolyline
 90
        2
 70
     0
 43
0.0006660908203125
 10
0.9028975114339301
 20
0.5350385245019247
 10
0.8762538786214326
 20
0.5350385245019247
  0
LWPOLYLINE
  5
7DE1B343D9E1207
330
7DE1B343D9E1327
100
AcDbEntity
  8
TEXT
100
AcDbPolyline
 90
        2
 70
     0
 43
0.0006660908203125
 10
0.9028975114339301
 20
0.5750039737206727
 10
0.8762538786214326
 20
0.5750039737206727
  0
LINE
  5
7DE1B343D9E120B
330
7DE1B343D9E1327
100
AcDbEntity
  8
TEXT
100
AcDbLine
 10
2.39144430774793
 20
0.6239627185170314
 30
0.0
 11
2.28423803436064
 21
0.6239627185170314
 31
0.0
  0
LINE
  5
7DE1B343D9E120C
330
7DE1B343D9E1327
100
AcDbEntity
  8
TEXT
100
AcDbLine
 10
2.420475206092408
 20
0.6882394131737968
 30
0.0
 11
2.285643296875349
 21
0.6882394131737968
 31
0.0
  0
ARC
  5
7DE1B343D9E120D
330
7DE1B343D9E1327
100
AcDbEntity
  8
TEXT
100
AcDbCircle
 10
2.344957393268666
 20
0.5190021639107805
 30
0.0
 40
0.0676855811441166
100
AcDbArc
 50
90.0
 51
153.7768192527749
  0
LWPOLYLINE
  5
7DE1B343D9E120E
330
7DE1B343D9E1327
100
AcDbEntity
  8
TEXT
100
AcDbPolyline
 90
        2
 70
     0
 43
0.0
 10
2.28320553890583
 20
0.465257325135724
 42
0.2901071551932823
 10
2.326281471773466
 20
0.4217663801852858
 42
5.328517124445801
  0
ARC
  5
7DE1B343D9E1212
330
7DE1B343D9E1327
100
AcDbEntity
  8
TEXT
100
AcDbCircle
 10
1.63982601559718
 20
0.4815587715233356
 30
0.0
 40
0.0601160179737537
100
AcDbArc
 50
180.0000000000003
 51
264.0521544866073
  0
LINE
  5
7DE1B343D9E1213
330
7DE1B343D9E1327
100
AcDbEntity
  8
TEXT
100
AcDbLine
 10
1.643341371222728
 20
0.722627330767935
 30
0.0
 11
1.583298766378721
 21
0.722627330767935
 31
0.0
  0
ARC
  5
7DE1B343D9E1214
330
7DE1B343D9E1327
100
AcDbEntity
  8
TEXT
100
AcDbCircle
 10
1.40756701348021
 20
0.6061519537272951
 30
0.0
 40
0.0820874594465043
100
AcDbArc
 50
90.0
 51
270.0
  0
LWPOLYLINE
  5
7DE1B343D9E1215
330
7DE1B343D9E1327
100
AcDbEntity
  8
TEXT
100
AcDbPolyline
 90
        2
 70
     0
 43
0.0001332181640625
 10
0.9994806803792455
 20
0.6149694229394207
 10
0.9894893180745549
 20
0.6882394131738004
  0
LWPOLYLINE
  5
7DE1B343D9E1219
330
7DE1B343D9E1327
100
AcDbEntity
  8
TEXT
100
AcDbPolyline
 90
        2
 70
     0
 43
0.0001332181640625
 10
0.9894893180745549
 20
0.6615957803612993
 10
0.9994806803792455
 20
0.6016476065331738
  0
LWPOLYLINE
  5
7DE1B343D9E121D
330
7DE1B343D9E1327
100
AcDbEntity
  8
TEXT
100
AcDbPolyline
 90
        3
 70
     0
 43
0.0006660908203125
 10
1.142690206746432
 20
0.5750039737206727
 10
1.142690206746432
 20
0.6882394131738004
 10
1.029454767293306
 20
0.6882394131738004
  0
LWPOLYLINE
  5
7DE1B343D9E1222
330
7DE1B343D9E1327
100
AcDbEntity
  8
TEXT
100
AcDbPolyline
 90
        3
 70
     0
 43
0.0006660908203125
 10
1.116046573933931
 20
0.5750039737206727
 10
1.116046573933931
 20
0.6615957803612993
 10
1.029454767293306
 20
0.6615957803612993
  0
LWPOLYLINE
  5
7DE1B343D9E1227
330
7DE1B343D9E1327
100
AcDbEntity
  8
TEXT
100
AcDbPolyline
 90
        2
 70
     0
 43
0.0001332181640625
 10
1.116046573933931
 20
0.6615957803612993
 10
1.056098400105807
 20
0.6016476065331738
  0
LWPOLYLINE
  5
7DE1B343D9E122B
330
7DE1B343D9E1327
100
AcDbEntity
  8
TEXT
100
AcDbPolyline
 90
        2
 70
     0
 43
0.0001332181640625
 10
1.029454767293306
 20
0.6615957803612993
 10
1.019463404988617
 20
0.6016476065331738
  0
LWPOLYLINE
  5
7DE1B343D9E122F
330
7DE1B343D9E1327
100
AcDbEntity
  8
TEXT
100
AcDbPolyline
 90
        2
 70
     0
 43
0.0001332181640625
 10
1.029454767293306
 20
0.6882394131738004
 10
1.019463404988617
 20
0.6149694229394207
  0
LWPOLYLINE
  5
7DE1B343D9E1233
330
7DE1B343D9E1327
100
AcDbEntity
  8
TEXT
100
AcDbPolyline
 90
        2
 70
     0
 43
0.0001332181640625
 10
1.069420216512056
 20
0.565012611415984
 10
1.142690206746432
 20
0.5750039737206727
  0
LWPOLYLINE
  5
7DE1B343D9E1237
330
7DE1B343D9E1327
100
AcDbEntity
  8
TEXT
100
AcDbPolyline
 90
        2
 70
     0
 43
0.0001332181640625
 10
1.116046573933931
 20
0.5750039737206727
 10
1.056098400105807
 20
0.565012611415984
  0
LWPOLYLINE
  5
7DE1B343D9E123B
330
7DE1B343D9E1327
100
AcDbEntity
  8
TEXT
100
AcDbPolyline
 90
        2
 70
     0
 43
0.0001332181640625
 10
1.142690206746432
 20
0.5350385245019247
 10
1.069420216512056
 20
0.5450298868066099
  0
LWPOLYLINE
  5
7DE1B343D9E123F
330
7DE1B343D9E1327
100
AcDbEntity
  8
TEXT
100
AcDbPolyline
 90
        2
 70
     0
 43
0.0001332181640625
 10
1.116046573933931
 20
0.5350385245019247
 10
1.056098400105807
 20
0.5450298868066099
  0
LWPOLYLINE
  5
7DE1B343D9E1243
330
7DE1B343D9E1327
100
AcDbEntity
  8
TEXT
100
AcDbPolyline
 90
        2
 70
     0
 43
0.0001332181640625
 10
1.116046573933931
 20
0.4484467178612981
 10
1.056098400105807
 20
0.5083948916894237
  0
LWPOLYLINE
  5
7DE1B343D9E1247
330
7DE1B343D9E1327
100
AcDbEntity
  8
TEXT
100
AcDbPolyline
 90
        3
 70
     0
 43
0.0006660908203125
 10
1.029454767293306
 20
0.4484467178612981
 10
1.116046573933931
 20
0.4484467178612981
 10
1.116046573933931
 20
0.5350385245019247
  0
LWPOLYLINE
  5
7DE1B343D9E124C
330
7DE1B343D9E1327
100
AcDbEntity
  8
TEXT
100
AcDbPolyline
 90
        3
 70
     0
 43
0.0006660908203125
 10
1.029454767293306
 20
0.4218030850487971
 10
1.142690206746432
 20
0.4218030850487971
 10
1.142690206746432
 20
0.5350385245019247
  0
LWPOLYLINE
  5
7DE1B343D9E1251
330
7DE1B343D9E1327
100
AcDbEntity
  8
TEXT
100
AcDbPolyline
 90
        5
 70
     0
 43
0.0001332181640625
 10
0.9994806803792455
 20
0.4950730752831732
 10
0.9994806803792455
 20
0.5083948916894237
 10
0.9628456852620574
 20
0.5083948916894237
 10
0.9628456852620574
 20
0.5450298868066099
 10
0.9495238688558069
 20
0.5450298868066099
  0
LWPOLYLINE
  5
7DE1B343D9E1258
330
7DE1B343D9E1327
100
AcDbEntity
  8
TEXT
100
AcDbPolyline
 90
        2
 70
     0
 43
0.0006660908203125
 10
0.9894893180745549
 20
0.4484467178612981
 10
0.9894893180745549
 20
0.4218030850487971
  0
LWPOLYLINE
  5
7DE1B343D9E125C
330
7DE1B343D9E1327
100
AcDbEntity
  8
TEXT
100
AcDbPolyline
 90
        2
 70
     0
 43
0.0001332181640625
 10
0.9894893180745549
 20
0.4484467178612981
 10
0.9994806803792455
 20
0.5083948916894237
  0
LWPOLYLINE
  5
7DE1B343D9E1260
330
7DE1B343D9E1327
100
AcDbEntity
  8
TEXT
100
AcDbPolyline
 90
        2
 70
     0
 43
0.0001332181640625
 10
0.9894893180745549
 20
0.4218030850487971
 10
0.9994806803792455
 20
0.4950730752831732
  0
LWPOLYLINE
  5
7DE1B343D9E1264
330
7DE1B343D9E1327
100
AcDbEntity
  8
TEXT
100
AcDbPolyline
 90
        5
 70
     0
 43
0.0001332181640625
 10
0.9495238688558069
 20
0.565012611415984
 10
0.9628456852620557
 20
0.565012611415984
 10
0.9628456852620557
 20
0.6016476065331738
 10
0.9994806803792455
 20
0.6016476065331738
 10
0.9994806803792455
 20
0.6149694229394207
  0
LWPOLYLINE
  5
7DE1B343D9E126B
330
7DE1B343D9E1327
100
AcDbEntity
  8
TEXT
100
AcDbPolyline
 90
        5
 70
     0
 43
0.0001332181640625
 10
1.019463404988617
 20
0.6149694229394207
 10
1.019463404988617
 20
0.6016476065331738
 10
1.056098400105807
 20
0.6016476065331738
 10
1.056098400105807
 20
0.565012611415984
 10
1.069420216512056
 20
0.565012611415984
  0
LWPOLYLINE
  5
7DE1B343D9E1272
330
7DE1B343D9E1327
100
AcDbEntity
  8
TEXT
100
AcDbPolyline
 90
        2
 70
     0
 43
0.0001332181640625
 10
1.029454767293306
 20
0.4484467178612981
 10
1.019463404988617
 20
0.5083948916894237
  0
LWPOLYLINE
  5
7DE1B343D9E1276
330
7DE1B343D9E1327
100
AcDbEntity
  8
TEXT
100
AcDbPolyline
 90
        2
 70
     0
 43
0.0001332181640625
 10
1.019463404988617
 20
0.4950730752831732
 10
1.029454767293306
 20
0.4218030850487971
  0
LWPOLYLINE
  5
7DE1B343D9E127A
330
7DE1B343D9E1327
100
AcDbEntity
  8
TEXT
100
AcDbPolyline
 90
        2
 70
     0
 43
0.0006660908203125
 10
1.029454767293306
 20
0.4484467178612981
 10
1.029454767293306
 20
0.4218030850487971
  0
LWPOLYLINE
  5
7DE1B343D9E127E
330
7DE1B343D9E1327
100
AcDbEntity
  8
TEXT
100
AcDbPolyline
 90
        5
 70
     0
 43
0.0001332181640625
 10
1.069420216512056
 20
0.5450298868066099
 10
1.056098400105807
 20
0.5450298868066099
 10
1.056098400105807
 20
0.5083948916894237
 10
1.019463404988617
 20
0.5083948916894237
 10
1.019463404988617
 20
0.4950730752831732
  0
LWPOLYLINE
  5
7DE1B343D9E1285
330
7DE1B343D9E1327
100
AcDbEntity
  8
TEXT
100
AcDbPolyline
 90
        2
 70
     0
 43
0.0006660908203125
 10
1.116046573933931
 20
0.5750039737206727
 10
1.142690206746432
 20
0.5750039737206727
  0
LWPOLYLINE
  5
7DE1B343D9E1289
330
7DE1B343D9E1327
100
AcDbEntity
  8
TEXT
100
AcDbPolyline
 90
        2
 70
     0
 43
0.0006660908203125
 10
1.116046573933931
 20
0.5350385245019247
 10
1.142690206746432
 20
0.5350385245019247
  0
LINE
  5
7DE1B343D9E128D
330
7DE1B343D9E1327
100
AcDbEntity
  8
TEXT
100
AcDbLine
 10
1.412804343594457
 20
0.6239627185170314
 30
0.0
 11
1.579709997623428
 21
0.6239627185170314
 31
0.0
  0
LINE
  5
7DE1B343D9E128E
330
7DE1B343D9E1327
100
AcDbEntity
  8
TEXT
100
AcDbLine
 10
1.478404479838758
 20
0.5881579969064035
 30
0.0
 11
1.412804343594457
 21
0.5881579969064035
 31
0.0
  0
LINE
  5
7DE1B343D9E128F
330
7DE1B343D9E1327
100
AcDbEntity
  8
TEXT
100
AcDbLine
 10
1.325479554033705
 20
0.4217663801852858
 30
0.0
 11
1.478404479838758
 21
0.4217663801852858
 31
0.0
  0
LINE
  5
7DE1B343D9E1290
330
7DE1B343D9E1327
100
AcDbEntity
  8
TEXT
100
AcDbLine
 10
1.483344853745037
 20
0.4901233865187252
 30
0.0
 11
1.325479554033703
 21
0.4901233865187252
 31
0.0
  0
LINE
  5
7DE1B343D9E1291
330
7DE1B343D9E1327
100
AcDbEntity
  8
TEXT
100
AcDbLine
 10
1.407567013480209
 20
0.5240644942807898
 30
0.0
 11
1.483344853745037
 21
0.5240644942807898
 31
0.0
  0
ARC
  5
7DE1B343D9E1292
330
7DE1B343D9E1327
100
AcDbEntity
  8
TEXT
100
AcDbCircle
 10
1.412804343594458
 20
0.6060603577117192
 30
0.0
 40
0.017902360805315
100
AcDbArc
 50
90.0
 51
270.0
  0
LINE
  5
7DE1B343D9E1293
330
7DE1B343D9E1327
100
AcDbEntity
  8
TEXT
100
AcDbLine
 10
1.325479554033703
 20
0.4901233865187252
 30
0.0
 11
1.325479554033705
 21
0.4217663801852858
 31
0.0
  0
LINE
  5
7DE1B343D9E1294
330
7DE1B343D9E1327
100
AcDbEntity
  8
TEXT
100
AcDbLine
 10
1.579709997623428
 20
0.6239627185170314
 30
0.0
 11
1.579709997623428
 21
0.4815587715233356
 31
0.0
  0
ARC
  5
7DE1B343D9E1295
330
7DE1B343D9E1327
100
AcDbEntity
  8
TEXT
100
AcDbCircle
 10
1.478404479838759
 20
0.5049621885458429
 30
0.0
 40
0.0831958083605586
100
AcDbArc
 50
270.0
 51
90.0
  0
ARC
  5
7DE1B343D9E1296
330
7DE1B343D9E1327
100
AcDbEntity
  8
TEXT
100
AcDbCircle
 10
1.483344853745038
 20
0.5070939403997592
 30
0.0
 40
0.0169705538810321
100
AcDbArc
 50
270.0
 51
90.0
  0
LWPOLYLINE
  5
7DE1B343D9E1297
330
7DE1B343D9E1327
100
AcDbEntity
  8
TEXT
100
AcDbPolyline
 90
        2
 70
     0
 43
0.0006660908203125
 10
0.9894893180745549
 20
0.6615957803612993
 10
0.9894893180745549
 20
0.6882394131738004
  0
LWPOLYLINE
  5
7DE1B343D9E129B
330
7DE1B343D9E1327
100
AcDbEntity
  8
TEXT
100
AcDbPolyline
 90
        2
 70
     0
 43
0.0006660908203125
 10
1.029454767293306
 20
0.6615957803612993
 10
1.029454767293306
 20
0.6882394131738004
  0
LINE
  5
7DE1B343D9E129F
330
7DE1B343D9E1327
100
AcDbEntity
  8
TEXT
100
AcDbLine
 10
1.583298766378721
 20
0.6882394131737968
 30
0.0
 11
1.407567013480209
 21
0.6882394131737968
 31
0.0
  0
LINE
  5
7DE1B343D9E12A0
330
7DE1B343D9E1327
100
AcDbEntity
  8
TEXT
100
AcDbLine
 10
1.583298766378721
 20
0.722627330767935
 30
0.0
 11
1.583298766378721
 21
0.6882394131737968
 31
0.0
  0
LINE
  5
7DE1B343D9E12A1
330
7DE1B343D9E1327
100
AcDbEntity
  8
TEXT
100
AcDbLine
 10
1.773770658398573
 20
0.5873674170606762
 30
0.0
 11
1.715140337366635
 21
0.6882394131737968
 31
0.0
  0
LINE
  5
7DE1B343D9E12A2
330
7DE1B343D9E1327
100
AcDbEntity
  8
TEXT
100
AcDbLine
 10
1.832519221204439
 20
0.6882394131737968
 30
0.0
 11
1.773770658398573
 21
0.5873674170606762
 31
0.0
  0
LINE
  5
7DE1B343D9E12A3
330
7DE1B343D9E1327
100
AcDbEntity
  8
TEXT
100
AcDbLine
 10
1.92944984656418
 20
0.504154218288285
 30
0.0
 11
1.92944984656418
 21
0.7562508909126074
 31
0.0
  0
LINE
  5
7DE1B343D9E12A4
330
7DE1B343D9E1327
100
AcDbEntity
  8
TEXT
100
AcDbLine
 10
1.96176170070184
 20
0.6882394131737968
 30
0.0
 11
1.96176170070184
 21
0.4873752064413886
 31
0.0
  0
LINE
  5
7DE1B343D9E12A5
330
7DE1B343D9E1327
100
AcDbEntity
  8
TEXT
100
AcDbLine
 10
1.96176170070184
 20
0.4873752064413886
 30
0.0
 11
1.944768063817239
 21
0.4873752064413886
 31
0.0
  0
LINE
  5
7DE1B343D9E12A6
330
7DE1B343D9E1327
100
AcDbEntity
  8
TEXT
100
AcDbLine
 10
1.930589420060375
 20
0.4217663801852858
 30
0.0
 11
2.028592753759809
 21
0.4217663801852858
 31
0.0
  0
LINE
  5
7DE1B343D9E12A7
330
7DE1B343D9E1327
100
AcDbEntity
  8
TEXT
100
AcDbLine
 10
1.764170421401619
 20
0.4417248862902988
 30
0.0
 11
1.861470127495064
 21
0.6060750972255669
 31
0.0
  0
ARC
  5
7DE1B343D9E12A8
330
7DE1B343D9E1327
100
AcDbEntity
  8
TEXT
100
AcDbCircle
 10
1.730126861489405
 20
0.4613141024589816
 30
0.0
 40
0.0392772371940762
100
AcDbArc
 50
270.1604552698595
 51
330.0831797321295
  0
LINE
  5
7DE1B343D9E12A9
330
7DE1B343D9E1327
100
AcDbEntity
  8
TEXT
100
AcDbLine
 10
1.633596605103534
 20
0.4217663801852858
 30
0.0
 11
1.730236856178528
 21
0.4220370192835681
 31
0.0
  0
LWPOLYLINE
  5
7DE1B343D9E12AA
330
7DE1B343D9E1327
100
AcDbEntity
  8
TEXT
100
AcDbPolyline
 90
        6
 70
     1
 43
0.0
 10
1.676120408678683
 20
0.6239627185170314
 10
1.645803814458475
 20
0.6239627185170314
 10
1.645803814458475
 20
0.500851720462137
 42
0.407328721240804
 10
1.657347465619952
 20
0.489032805785751
 10
1.717969164664682
 20
0.489032805785751
 10
1.735434505072
 20
0.5218450348292301
  0
LINE
  5
7DE1B343D9E12B2
330
7DE1B343D9E1327
100
AcDbEntity
  8
TEXT
100
AcDbLine
 10
1.861470127495064
 20
0.6060750972255669
 30
0.0
 11
1.861470127495064
 21
0.4733177224002106
 31
0.0
  0
ARC
  5
7DE1B343D9E12B3
330
7DE1B343D9E1327
100
AcDbEntity
  8
TEXT
100
AcDbCircle
 10
1.944768063817237
 20
0.502757012684814
 30
0.0
 40
0.0153818062434269
100
AcDbArc
 50
174.7883570302258
 51
270.0
  0
LWPOLYLINE
  5
7DE1B343D9E12B4
330
7DE1B343D9E1327
100
AcDbEntity
  8
TEXT
100
AcDbPolyline
 90
        2
 70
     0
 43
0.0
 10
1.861470127495062
 20
0.4733177224002141
 42
0.3318488747599744
 10
1.930589420060375
 20
0.4217663801852858
 42
-6.868794160588311
  0
LINE
  5
7DE1B343D9E12B8
330
7DE1B343D9E1327
100
AcDbEntity
  8
TEXT
100
AcDbLine
 10
2.08598182274907
 20
0.4217663801852858
 30
0.0
 11
2.15303986953091
 21
0.4217663801852858
 31
0.0
  0
LINE
  5
7DE1B343D9E12B9
330
7DE1B343D9E1327
100
AcDbEntity
  8
TEXT
100
AcDbLine
 10
2.08598182274907
 20
0.6164089293509214
 30
0.0
 11
2.08598182274907
 21
0.4217663801852858
 31
0.0
  0
LINE
  5
7DE1B343D9E12BA
330
7DE1B343D9E1327
100
AcDbEntity
  8
TEXT
100
AcDbLine
 10
2.028592753759809
 20
0.6239627185170314
 30
0.0
 11
2.078428033582957
 21
0.6239627185170314
 31
0.0
  0
LINE
  5
7DE1B343D9E12BB
330
7DE1B343D9E1327
100
AcDbEntity
  8
TEXT
100
AcDbLine
 10
2.028592753759809
 20
0.4217663801852858
 30
0.0
 11
2.028592753759809
 21
0.6239627185170314
 31
0.0
  0
LWPOLYLINE
  5
7DE1B343D9E12BC
330
7DE1B343D9E1327
100
AcDbEntity
  8
TEXT
100
AcDbPolyline
 90
        2
 70
     0
 43
0.0
 10
2.078428033582955
 20
0.6239627185170314
 42
-0.4142135623731017
 10
2.085981822749069
 20
0.6164089293509214
 42
-0.9999999999999998
  0
LINE
  5
7DE1B343D9E12C0
330
7DE1B343D9E1327
100
AcDbEntity
  8
TEXT
100
AcDbLine
 10
2.28423803436064
 20
0.6239627185170314
 30
0.0
 11
2.28423803436064
 21
0.5489103124428248
 31
0.0
  0
LINE
  5
7DE1B343D9E12C1
330
7DE1B343D9E1327
100
AcDbEntity
  8
TEXT
100
AcDbLine
 10
2.15303986953091
 20
0.6239627185170314
 30
0.0
 11
2.207173466451861
 21
0.6239627185170314
 31
0.0
  0
LINE
  5
7DE1B343D9E12C2
330
7DE1B343D9E1327
100
AcDbEntity
  8
TEXT
100
AcDbLine
 10
2.15303986953091
 20
0.4217663801852858
 30
0.0
 11
2.15303986953091
 21
0.6239627185170314
 31
0.0
  0
LWPOLYLINE
  5
7DE1B343D9E12C3
330
7DE1B343D9E1327
100
AcDbEntity
  8
TEXT
100
AcDbPolyline
 90
        2
 70
     0
 43
0.0
 10
2.207173466451859
 20
0.6239627185170314
 42
-0.4142135623731017
 10
2.214727255617972
 20
0.6164089293509214
 42
-0.9999999999999998
  0
LWPOLYLINE
  5
7DE1B343D9E12C7
330
7DE1B343D9E1327
100
AcDbEntity
  8
TEXT
100
AcDbPolyline
 90
        4
 70
     0
 43
0.0
 10
2.214727255617972
 20
0.6164089293509214
 10
2.214727255617972
 20
0.4217663801852858
 10
2.28320553890583
 20
0.4217663801852858
 10
2.28320553890583
 20
0.465257325135724
 42
-1.714843617202739
  0
LINE
  5
7DE1B343D9E12CD
330
7DE1B343D9E1327
100
AcDbEntity
  8
TEXT
100
AcDbLine
 10
1.643341371222728
 20
0.6882394131737968
 30
0.0
 11
1.643341371222728
 21
0.722627330767935
 31
0.0
  0
LINE
  5
7DE1B343D9E12CE
330
7DE1B343D9E1327
100
AcDbEntity
  8
TEXT
100
AcDbLine
 10
1.715140337366635
 20
0.6882394131737968
 30
0.0
 11
1.643341371222728
 21
0.6882394131737968
 31
0.0
  0
LINE
  5
7DE1B343D9E12CF
330
7DE1B343D9E1327
100
AcDbEntity
  8
TEXT
100
AcDbLine
 10
1.862641133997815
 20
0.6882394131737968
 30
0.0
 11
1.832519221204439
 21
0.6882394131737968
 31
0.0
  0
LINE
  5
7DE1B343D9E12D0
330
7DE1B343D9E1327
100
AcDbEntity
  8
TEXT
100
AcDbLine
 10
1.862641133997815
 20
0.7562508909126074
 30
0.0
 11
1.862641133997815
 21
0.6882394131737968
 31
0.0
  0
LINE
  5
7DE1B343D9E12D1
330
7DE1B343D9E1327
100
AcDbEntity
  8
TEXT
100
AcDbLine
 10
1.92944984656418
 20
0.7562508909126074
 30
0.0
 11
1.862641133997815
 21
0.7562508909126074
 31
0.0
  0
LWPOLYLINE
  5
7DE1B343D9E12D2
330
7DE1B343D9E1327
100
AcDbEntity
  8
TEXT
100
AcDbPolyline
 90
        3
 70
     0
 43
0.0
 10
2.249861606162182
 20
0.6882394131738004
 10
2.131561447346138
 20
0.6882394131738004
 10
2.131561447346138
 20
0.6610719164129045
 42
-1.960274751411753
  0
LINE
  5
7DE1B343D9E12D7
330
7DE1B343D9E1327
100
AcDbEntity
  8
TEXT
100
AcDbLine
 10
2.095779756632976
 20
0.6882394131737968
 30
0.0
 11
1.96176170070184
 21
0.6882394131737968
 31
0.0
  0
LWPOLYLINE
  5
7DE1B343D9E12D8
330
7DE1B343D9E1327
100
AcDbEntity
  8
TEXT
100
AcDbPolyline
 90
        2
 70
     0
 43
0.0
 10
2.095779756632976
 20
0.6882394131738004
 42
-0.3328679258950098
 10
2.131561447346138
 20
0.6610719164129045
 42
6.772930709997214
  0
LINE
  5
7DE1B343D9E12DC
330
7DE1B343D9E1327
100
AcDbEntity
  8
TEXT
100
AcDbLine
 10
2.285643296875349
 20
0.6882394131737968
 30
0.0
 11
2.285643296875349
 21
0.6599168674041529
 31
0.0
  0
LWPOLYLINE
  5
7DE1B343D9E12DD
330
7DE1B343D9E1327
100
AcDbEntity
  8
TEXT
100
AcDbPolyline
 90
        2
 70
     0
 43
0.0
 10
2.249861606162182
 20
0.6882394131738004
 42
-0.3277054968067132
 10
2.285643296875347
 20
0.6599168674041565
 42
6.667889725900311
  0
LINE
  5
7DE1B343D9E12E1
330
7DE1B343D9E1327
100
AcDbEntity
  8
TEXT
100
AcDbLine
 10
2.499435144967449
 20
0.5830274346203695
 30
0.0
 11
2.455684373785548
 21
0.6652777106165147
 31
0.0
  0
LINE
  5
7DE1B343D9E12E2
330
7DE1B343D9E1327
100
AcDbEntity
  8
TEXT
100
AcDbLine
 10
2.499435144967449
 20
0.6882394131737968
 30
0.0
 11
2.499435144967449
 21
0.5830274346203695
 31
0.0
  0
LINE
  5
7DE1B343D9E12E3
330
7DE1B343D9E1327
100
AcDbEntity
  8
TEXT
100
AcDbLine
 10
2.727118883905818
 20
0.6123740867622587
 30
0.0
 11
2.727118883905818
 21
0.7537036189413975
 31
0.0
  0
LINE
  5
7DE1B343D9E12E4
330
7DE1B343D9E1327
100
AcDbEntity
  8
TEXT
100
AcDbLine
 10
2.774217042461803
 20
0.6882394131737968
 30
0.0
 11
2.727118883905818
 21
0.6123740867622587
 31
0.0
  0
LINE
  5
7DE1B343D9E12E5
330
7DE1B343D9E1327
100
AcDbEntity
  8
TEXT
100
AcDbLine
 10
2.784651759225726
 20
0.5783461702328232
 30
0.0
 11
2.849208875191431
 21
0.6882394131737968
 31
0.0
  0
LINE
  5
7DE1B343D9E12E6
330
7DE1B343D9E1327
100
AcDbEntity
  8
TEXT
100
AcDbLine
 10
2.663283892683045
 20
0.4217663801852858
 30
0.0
 11
2.727662077001665
 21
0.4217663801852858
 31
0.0
  0
LWPOLYLINE
  5
7DE1B343D9E12E7
330
7DE1B343D9E1327
100
AcDbEntity
  8
TEXT
100
AcDbPolyline
 90
        2
 70
     0
 43
0.0
 10
2.503374822272487
 20
0.465257325135724
 42
-0.2901071551932486
 10
2.460298889404842
 20
0.4217663801852858
 42
-5.328517124445184
  0
ARC
  5
7DE1B343D9E12EB
330
7DE1B343D9E1327
100
AcDbEntity
  8
TEXT
100
AcDbCircle
 10
2.391444307747928
 20
0.5956033435170341
 30
0.0
 40
0.028359375
100
AcDbArc
 50
25.78218179591245
 51
90.0
  0
LINE
  5
7DE1B343D9E12EC
330
7DE1B343D9E1327
100
AcDbEntity
  8
TEXT
100
AcDbLine
 10
2.427245383052051
 20
0.5866877450548991
 30
0.0
 11
2.416980622638487
 21
0.6079382846275934
 31
0.0
  0
LINE
  5
7DE1B343D9E12ED
330
7DE1B343D9E1327
100
AcDbEntity
  8
TEXT
100
AcDbLine
 10
2.344957393268668
 20
0.5866877450548991
 30
0.0
 11
2.427245383052051
 21
0.5866877450548991
 31
0.0
  0
LWPOLYLINE
  5
7DE1B343D9E12EE
330
7DE1B343D9E1327
100
AcDbEntity
  8
TEXT
100
AcDbPolyline
 90
        4
 70
     1
 43
0.0
 10
2.44017642433495
 20
0.5247303581693111
 10
2.351516105675091
 20
0.5247303581693111
 42
0.9999999999999998
 10
2.351516105675091
 20
0.4823318176654503
 10
2.44017642433495
 20
0.4823318176654503
 42
1.0
  0
LWPOLYLINE
  5
7DE1B343D9E12F4
330
7DE1B343D9E1327
100
AcDbEntity
  8
TEXT
100
AcDbPolyline
 90
        2
 70
     0
 43
0.0
 10
2.326281471773466
 20
0.4217663801852858
 10
2.460298889404842
 20
0.4217663801852858
 42
0.9999999999999998
  0
LINE
  5
7DE1B343D9E12F8
330
7DE1B343D9E1327
100
AcDbEntity
  8
TEXT
100
AcDbLine
 10
2.586635911390482
 20
0.6239627185170314
 30
0.0
 11
2.66328389268304
 21
0.6239627185170314
 31
0.0
  0
LINE
  5
7DE1B343D9E12F9
330
7DE1B343D9E1327
100
AcDbEntity
  8
TEXT
100
AcDbLine
 10
2.66328389268304
 20
0.6239627185170314
 30
0.0
 11
2.663283892683045
 21
0.4217663801852858
 31
0.0
  0
ARC
  5
7DE1B343D9E12FA
330
7DE1B343D9E1327
100
AcDbEntity
  8
TEXT
100
AcDbCircle
 10
2.58663591139048
 20
0.5990568432343686
 30
0.0
 40
0.0249058752826653
100
AcDbArc
 50
89.99971217465335
 51
179.9999999999985
  0
LINE
  5
7DE1B343D9E12FB
330
7DE1B343D9E1327
100
AcDbEntity
  8
TEXT
100
AcDbLine
 10
2.561730036107823
 20
0.4217663801852858
 30
0.0
 11
2.561730036107817
 21
0.5990568856167542
 31
0.0
  0
LWPOLYLINE
  5
7DE1B343D9E12FC
330
7DE1B343D9E1327
100
AcDbEntity
  8
TEXT
100
AcDbPolyline
 90
        2
 70
     0
 43
0.0
 10
2.503374822272487
 20
0.4217663801852858
 10
2.561730036107821
 20
0.4217663801852858
  0
LWPOLYLINE
  5
7DE1B343D9E1300
330
7DE1B343D9E1327
100
AcDbEntity
  8
TEXT
100
AcDbPolyline
 90
        2
 70
     0
 43
0.0
 10
2.503374822272487
 20
0.465257325135724
 10
2.503374822272487
 20
0.4217663801852858
  0
LINE
  5
7DE1B343D9E1304
330
7DE1B343D9E1327
100
AcDbEntity
  8
TEXT
100
AcDbLine
 10
2.880143982589336
 20
0.4217663801852858
 30
0.0
 11
2.784651759225726
 21
0.5783461702328232
 31
0.0
  0
LINE
  5
7DE1B343D9E1305
330
7DE1B343D9E1327
100
AcDbEntity
  8
TEXT
100
AcDbLine
 10
2.80356561021313
 20
0.4217663801852858
 30
0.0
 11
2.880143982589336
 21
0.4217663801852858
 31
0.0
  0
LINE
  5
7DE1B343D9E1306
330
7DE1B343D9E1327
100
AcDbEntity
  8
TEXT
100
AcDbLine
 10
2.727662077001665
 20
0.5533459486614661
 30
0.0
 11
2.80356561021313
 21
0.4217663801852858
 31
0.0
  0
LINE
  5
7DE1B343D9E1307
330
7DE1B343D9E1327
100
AcDbEntity
  8
TEXT
100
AcDbLine
 10
2.727662077001665
 20
0.4217663801852858
 30
0.0
 11
2.727662077001665
 21
0.5533459486614661
 31
0.0
  0
LINE
  5
7DE1B343D9E1308
330
7DE1B343D9E1327
100
AcDbEntity
  8
TEXT
100
AcDbLine
 10
2.727118883905818
 20
0.7537036189413975
 30
0.0
 11
2.658804005356545
 21
0.7537036189413975
 31
0.0
  0
ARC
  5
7DE1B343D9E1309
330
7DE1B343D9E1327
100
AcDbEntity
  8
TEXT
100
AcDbCircle
 10
2.418448266315339
 20
0.6466558460528944
 30
0.0
 40
0.0416329381542859
100
AcDbArc
 50
26.56974201007528
 51
87.20939649401342
  0
LINE
  5
7DE1B343D9E130A
330
7DE1B343D9E1327
100
AcDbEntity
  8
TEXT
100
AcDbLine
 10
2.56333205126695
 20
0.6882394131737968
 30
0.0
 11
2.499435144967449
 21
0.6882394131737968
 31
0.0
  0
LINE
  5
7DE1B343D9E130B
330
7DE1B343D9E1327
100
AcDbEntity
  8
TEXT
100
AcDbLine
 10
2.56333205126695
 20
0.6606917633129222
 30
0.0
 11
2.56333205126695
 21
0.6882394131737968
 31
0.0
  0
ARC
  5
7DE1B343D9E130C
330
7DE1B343D9E1327
100
AcDbEntity
  8
TEXT
100
AcDbCircle
 10
2.594524868330058
 20
0.656993685891532
 30
0.0
 40
0.0314112657011332
100
AcDbArc
 50
95.88484768694724
 51
173.2388340632136
  0
LINE
  5
7DE1B343D9E130D
330
7DE1B343D9E1327
100
AcDbEntity
  8
TEXT
100
AcDbLine
 10
2.65880400535654
 20
0.6882394131737968
 30
0.0
 11
2.591304287707023
 21
0.6882394131737968
 31
0.0
  0
LINE
  5
7DE1B343D9E130E
330
7DE1B343D9E1327
100
AcDbEntity
  8
TEXT
100
AcDbLine
 10
2.658804005356545
 20
0.7537036189413975
 30
0.0
 11
2.65880400535654
 21
0.6882394131737968
 31
0.0
  0
LINE
  5
7DE1B343D9E130F
330
7DE1B343D9E1327
100
AcDbEntity
  8
TEXT
100
AcDbLine
 10
2.849208875191431
 20
0.6882394131737968
 30
0.0
 11
2.774217042461804
 21
0.6882394131737968
 31
0.0
  0
ENDSEC
  0
SECTION
  2
OBJECTS
  0
DICTIONARY
  5
7DE1B343D9E131B
330
0
100
AcDbDictionary
  3
ACAD_GROUP
350
7DE1B343D9E131C
  3
ACAD_LAYOUT
350
7DE1B343D9E1341
  3
ACAD_MLINESTYLE
350
7DE1B343D9E131D
  3
ACAD_PLOTSETTINGS
350
7DE1B343D9E1342
  3
ACAD_PLOTSTYLENAME
350
7DE1B343D9E133F
  3
ACDBHEADERROUNDTRIPXREC
350
7DE1B343D9E134C
  3
ACDBVARIABLEDICTIONARY
350
7DE1B343D9E1349
  0
DICTIONARY
  5
7DE1B343D9E136E
330
7DE1B343D9E1327
100
AcDbDictionary
280
     1
  3
ACAD_LAYOUTSELFREF
360
7DE1B343D9E136F
  0
DICTIONARY
  5
7DE1B343D9E136C
330
7DE1B343D9E1324
100
AcDbDictionary
280
     1
  3
ACAD_LAYOUTSELFREF
360
7DE1B343D9E136D
  0
DICTIONARY
  5
7DE1B343D9E131C
102
{ACAD_REACTORS
330
7DE1B343D9E131B
102
}
330
7DE1B343D9E131B
100
AcDbDictionary
  0
DICTIONARY
  5
7DE1B343D9E1341
102
{ACAD_REACTORS
330
7DE1B343D9E131B
102
}
330
7DE1B343D9E131B
100
AcDbDictionary
  0
DICTIONARY
  5
7DE1B343D9E131D
102
{ACAD_REACTORS
330
7DE1B343D9E131B
102
}
330
7DE1B343D9E131B
100
AcDbDictionary
  3
STANDARD
350
7DE1B343D9E132A
  0
DICTIONARY
  5
7DE1B343D9E1342
102
{ACAD_REACTORS
330
7DE1B343D9E131B
102
}
330
7DE1B343D9E131B
100
AcDbDictionary
  0
ACDBDICTIONARYWDFLT
  5
7DE1B343D9E133F
102
{ACAD_REACTORS
330
7DE1B343D9E131B
102
}
330
7DE1B343D9E131B
100
AcDbDictionary
281
     1
  3
Normal
350
7DE1B343D9E1340
100
AcDbDictionaryWithDefault
340
7DE1B343D9E1340
  0
DICTIONARY
  5
7DE1B343D9E134C
102
{ACAD_REACTORS
330
7DE1B343D9E131B
102
}
330
7DE1B343D9E131B
100
AcDbDictionary
  3
CEPSNTYPE
350
7DE1B343D9E1356
  3
FINGERPRINTGUID
350
7DE1B343D9E1357
  3
HYPERLINKBASE
350
7DE1B343D9E134F
  3
INSUNITS
350
7DE1B343D9E1355
  3
LAYOUTDICT
350
7DE1B343D9E1351
  3
LWETCUNION
350
7DE1B343D9E1354
  3
PLOTSETDICT
350
7DE1B343D9E1352
  3
PLOTSTYLNAMDICT
350
7DE1B343D9E1353
  3
PSVPSCALE
350
7DE1B343D9E1359
  3
PUCSBASE
350
7DE1B343D9E135C
  3
PUCSORGBACK
350
7DE1B343D9E1362
  3
PUCSORGBOTTOM
350
7DE1B343D9E135E
  3
PUCSORGFRONT
350
7DE1B343D9E1361
  3
PUCSORGLEFT
350
7DE1B343D9E135F
  3
PUCSORGRIGHT
350
7DE1B343D9E1360
  3
PUCSORGTOP
350
7DE1B343D9E135D
  3
PUCSORTHOREF
350
7DE1B343D9E135A
  3
PUCSORTHOVIEW
350
7DE1B343D9E135B
  3
STYLESHEET
350
7DE1B343D9E1350
  3
TSTACKALIGN
350
7DE1B343D9E134D
  3
TSTACKSIZE
350
7DE1B343D9E134E
  3
UCSBASE
350
7DE1B343D9E1365
  3
UCSORGBACK
350
7DE1B343D9E136B
  3
UCSORGBOTTOM
350
7DE1B343D9E1367
  3
UCSORGFRONT
350
7DE1B343D9E136A
  3
UCSORGLEFT
350
7DE1B343D9E1368
  3
UCSORGRIGHT
350
7DE1B343D9E1369
  3
UCSORGTOP
350
7DE1B343D9E1366
  3
UCSORTHOREF
350
7DE1B343D9E1363
  3
UCSORTHOVIEW
350
7DE1B343D9E1364
  3
VERSIONGUID
350
7DE1B343D9E1358
  0
DICTIONARY
  5
7DE1B343D9E1349
102
{ACAD_REACTORS
330
7DE1B343D9E131B
102
}
330
7DE1B343D9E131B
100
AcDbDictionary
  3
DIMASSOC
350
7DE1B343D9E134A
  0
XRECORD
  5
7DE1B343D9E136F
102
{ACAD_REACTORS
330
7DE1B343D9E136E
102
}
330
7DE1B343D9E136E
100
AcDbXrecord
340
7DE1B343D9E1327
  0
XRECORD
  5
7DE1B343D9E136D
102
{ACAD_REACTORS
330
7DE1B343D9E136C
102
}
330
7DE1B343D9E136C
100
AcDbXrecord
340
7DE1B343D9E1324
  0
MLINESTYLE
  5
7DE1B343D9E132A
102
{ACAD_REACTORS
330
7DE1B343D9E131D
102
}
330
7DE1B343D9E131D
100
AcDbMlineStyle
  2
STANDARD
 70
     0
  3

 62
     0
 51
90.0
 52
90.0
 71
     2
 49
0.5
 62
   256
  6
BYLAYER
 49
-0.5
 62
   256
  6
BYLAYER
  0
ACDBPLACEHOLDER
  5
7DE1B343D9E1340
102
{ACAD_REACTORS
330
7DE1B343D9E133F
102
}
330
7DE1B343D9E133F
100
AcDbPlaceHolder
280
     0
  0
XRECORD
  5
7DE1B343D9E1356
102
{ACAD_REACTORS
330
7DE1B343D9E134C
102
}
330
7DE1B343D9E134C
100
AcDbXrecord
 90
        0
  0
XRECORD
  5
7DE1B343D9E1357
102
{ACAD_REACTORS
330
7DE1B343D9E134C
102
}
330
7DE1B343D9E134C
100
AcDbXrecord
  1
{62721550-8DB7-11D6-88E6-0090279574E7}
  0
XRECORD
  5
7DE1B343D9E134F
102
{ACAD_REACTORS
330
7DE1B343D9E134C
102
}
330
7DE1B343D9E134C
100
AcDbXrecord
  1

  0
XRECORD
  5
7DE1B343D9E1355
102
{ACAD_REACTORS
330
7DE1B343D9E134C
102
}
330
7DE1B343D9E134C
100
AcDbXrecord
 90
        0
  0
XRECORD
  5
7DE1B343D9E1351
102
{ACAD_REACTORS
330
7DE1B343D9E134C
102
}
330
7DE1B343D9E134C
100
AcDbXrecord
340
7DE1B343D9E1341
  0
XRECORD
  5
7DE1B343D9E1354
102
{ACAD_REACTORS
330
7DE1B343D9E134C
102
}
330
7DE1B343D9E134C
100
AcDbXrecord
 90
    14877
  0
XRECORD
  5
7DE1B343D9E1352
102
{ACAD_REACTORS
330
7DE1B343D9E134C
102
}
330
7DE1B343D9E134C
100
AcDbXrecord
340
7DE1B343D9E1342
  0
XRECORD
  5
7DE1B343D9E1353
102
{ACAD_REACTORS
330
7DE1B343D9E134C
102
}
330
7DE1B343D9E134C
100
AcDbXrecord
340
7DE1B343D9E133F
  0
XRECORD
  5
7DE1B343D9E1359
102
{ACAD_REACTORS
330
7DE1B343D9E134C
102
}
330
7DE1B343D9E134C
100
AcDbXrecord
 40
0.0
  0
XRECORD
  5
7DE1B343D9E135C
102
{ACAD_REACTORS
330
7DE1B343D9E134C
102
}
330
7DE1B343D9E134C
100
AcDbXrecord
340
0
  0
XRECORD
  5
7DE1B343D9E1362
102
{ACAD_REACTORS
330
7DE1B343D9E134C
102
}
330
7DE1B343D9E134C
100
AcDbXrecord
 10
0.0
 20
0.0
 30
0.0
  0
XRECORD
  5
7DE1B343D9E135E
102
{ACAD_REACTORS
330
7DE1B343D9E134C
102
}
330
7DE1B343D9E134C
100
AcDbXrecord
 10
0.0
 20
0.0
 30
0.0
  0
XRECORD
  5
7DE1B343D9E1361
102
{ACAD_REACTORS
330
7DE1B343D9E134C
102
}
330
7DE1B343D9E134C
100
AcDbXrecord
 10
0.0
 20
0.0
 30
0.0
  0
XRECORD
  5
7DE1B343D9E135F
102
{ACAD_REACTORS
330
7DE1B343D9E134C
102
}
330
7DE1B343D9E134C
100
AcDbXrecord
 10
0.0
 20
0.0
 30
0.0
  0
XRECORD
  5
7DE1B343D9E1360
102
{ACAD_REACTORS
330
7DE1B343D9E134C
102
}
330
7DE1B343D9E134C
100
AcDbXrecord
 10
0.0
 20
0.0
 30
0.0
  0
XRECORD
  5
7DE1B343D9E135D
102
{ACAD_REACTORS
330
7DE1B343D9E134C
102
}
330
7DE1B343D9E134C
100
AcDbXrecord
 10
0.0
 20
0.0
 30
0.0
  0
XRECORD
  5
7DE1B343D9E135A
102
{ACAD_REACTORS
330
7DE1B343D9E134C
102
}
330
7DE1B343D9E134C
100
AcDbXrecord
340
0
  0
XRECORD
  5
7DE1B343D9E135B
102
{ACAD_REACTORS
330
7DE1B343D9E134C
102
}
330
7DE1B343D9E134C
100
AcDbXrecord
 70
     0
  0
XRECORD
  5
7DE1B343D9E1350
102
{ACAD_REACTORS
330
7DE1B343D9E134C
102
}
330
7DE1B343D9E134C
100
AcDbXrecord
  1

  0
XRECORD
  5
7DE1B343D9E134D
102
{ACAD_REACTORS
330
7DE1B343D9E134C
102
}
330
7DE1B343D9E134C
100
AcDbXrecord
 90
        1
  0
XRECORD
  5
7DE1B343D9E134E
102
{ACAD_REACTORS
330
7DE1B343D9E134C
102
}
330
7DE1B343D9E134C
100
AcDbXrecord
 90
       70
  0
XRECORD
  5
7DE1B343D9E1365
102
{ACAD_REACTORS
330
7DE1B343D9E134C
102
}
330
7DE1B343D9E134C
100
AcDbXrecord
340
0
  0
XRECORD
  5
7DE1B343D9E136B
102
{ACAD_REACTORS
330
7DE1B343D9E134C
102
}
330
7DE1B343D9E134C
100
AcDbXrecord
 10
0.0
 20
0.0
 30
0.0
  0
XRECORD
  5
7DE1B343D9E1367
102
{ACAD_REACTORS
330
7DE1B343D9E134C
102
}
330
7DE1B343D9E134C
100
AcDbXrecord
 10
0.0
 20
0.0
 30
0.0
  0
XRECORD
  5
7DE1B343D9E136A
102
{ACAD_REACTORS
330
7DE1B343D9E134C
102
}
330
7DE1B343D9E134C
100
AcDbXrecord
 10
0.0
 20
0.0
 30
0.0
  0
XRECORD
  5
7DE1B343D9E1368
102
{ACAD_REACTORS
330
7DE1B343D9E134C
102
}
330
7DE1B343D9E134C
100
AcDbXrecord
 10
0.0
 20
0.0
 30
0.0
  0
XRECORD
  5
7DE1B343D9E1369
102
{ACAD_REACTORS
330
7DE1B343D9E134C
102
}
330
7DE1B343D9E134C
100
AcDbXrecord
 10
0.0
 20
0.0
 30
0.0
  0
XRECORD
  5
7DE1B343D9E1366
102
{ACAD_REACTORS
330
7DE1B343D9E134C
102
}
330
7DE1B343D9E134C
100
AcDbXrecord
 10
0.0
 20
0.0
 30
0.0
  0
XRECORD
  5
7DE1B343D9E1363
102
{ACAD_REACTORS
330
7DE1B343D9E134C
102
}
330
7DE1B343D9E134C
100
AcDbXrecord
340
0
  0
XRECORD
  5
7DE1B343D9E1364
102
{ACAD_REACTORS
330
7DE1B343D9E134C
102
}
330
7DE1B343D9E134C
100
AcDbXrecord
 70
     0
  0
XRECORD
  5
7DE1B343D9E1358
102
{ACAD_REACTORS
330
7DE1B343D9E134C
102
}
330
7DE1B343D9E134C
100
AcDbXrecord
  1
{62721552-8DB7-11D6-88E6-0090279574E7}
  0
DICTIONARYVAR
  5
7DE1B343D9E134A
102
{ACAD_REACTORS
330
7DE1B343D9E1349
102
}
330
7DE1B343D9E1349
100
DictionaryVariables
280
     0
  1
1
  0
ENDSEC
  0
EOF
