  0
SECTION
  2
HEADER
  9
$ACADVER
  1
AC1014
  9
$ACADMAINTVER
 70
     9
  9
$DWGCODEPAGE
  3
ANSI_1252
  9
$INSBASE
 10
0.0
 20
0.0
 30
0.0
  9
$EXTMIN
 10
1.910432021096204
 20
4.292839238352026
 30
0.0
  9
$EXTMAX
 10
5.39565134284334
 20
6.72967197026478
 30
0.0
  9
$LIMMIN
 10
0.0
 20
0.0
  9
$LIMMAX
 10
18.0
 20
12.0
  9
$ORTHOMODE
 70
     1
  9
$REGENMODE
 70
     1
  9
$FILLMODE
 70
     1
  9
$QTEXTMODE
 70
     0
  9
$MIRRTEXT
 70
     0
  9
$DRAGMODE
 70
     2
  9
$LTSCALE
 40
0.4
  9
$OSMODE
 70
    39
  9
$ATTMODE
 70
     1
  9
$TEXTSIZE
 40
0.125
  9
$TRACEWID
 40
0.05
  9
$TEXTSTYLE
  7
ROMANS
  9
$CLAYER
  8
0
  9
$CELTYPE
  6
BYLAYER
  9
$CECOLOR
 62
   256
  9
$CELTSCALE
 40
1.0
  9
$DELOBJ
 70
     1
  9
$DISPSILH
 70
     1
  9
$DIMSCALE
 40
1.0
  9
$DIMASZ
 40
0.125
  9
$DIMEXO
 40
0.125
  9
$DIMDLI
 40
0.375
  9
$DIMRND
 40
0.0
  9
$DIMDLE
 40
0.0
  9
$DIMEXE
 40
0.125
  9
$DIMTP
 40
0.0
  9
$DIMTM
 40
0.01
  9
$DIMTXT
 40
0.125
  9
$DIMCEN
 40
-0.125
  9
$DIMTSZ
 40
0.0
  9
$DIMTOL
 70
     0
  9
$DIMLIM
 70
     0
  9
$DIMTIH
 70
     1
  9
$DIMTOH
 70
     1
  9
$DIMSE1
 70
     0
  9
$DIMSE2
 70
     0
  9
$DIMTAD
 70
     0
  9
$DIMZIN
 70
     4
  9
$DIMBLK
  1

  9
$DIMASO
 70
     1
  9
$DIMSHO
 70
     1
  9
$DIMPOST
  1

  9
$DIMAPOST
  1

  9
$DIMALT
 70
     0
  9
$DIMALTD
 70
     2
  9
$DIMALTF
 40
25.4
  9
$DIMLFAC
 40
1.0
  9
$DIMTOFL
 70
     0
  9
$DIMTVP
 40
0.0
  9
$DIMTIX
 70
     0
  9
$DIMSOXD
 70
     0
  9
$DIMSAH
 70
     0
  9
$DIMBLK1
  1

  9
$DIMBLK2
  1

  9
$DIMSTYLE
  2
STANDARD
  9
$DIMCLRD
 70
     0
  9
$DIMCLRE
 70
     0
  9
$DIMCLRT
 70
     0
  9
$DIMTFAC
 40
1.0
  9
$DIMGAP
 40
0.09
  9
$DIMJUST
 70
     0
  9
$DIMSD1
 70
     0
  9
$DIMSD2
 70
     0
  9
$DIMTOLJ
 70
     1
  9
$DIMTZIN
 70
     4
  9
$DIMALTZ
 70
     0
  9
$DIMALTTZ
 70
     0
  9
$DIMFIT
 70
     3
  9
$DIMUPT
 70
     0
  9
$DIMUNIT
 70
     2
  9
$DIMDEC
 70
     3
  9
$DIMTDEC
 70
     3
  9
$DIMALTU
 70
     2
  9
$DIMALTTD
 70
     2
  9
$DIMTXSTY
  7
ROMANS
  9
$DIMAUNIT
 70
     0
  9
$LUNITS
 70
     2
  9
$LUPREC
 70
     3
  9
$SKETCHINC
 40
0.1
  9
$FILLETRAD
 40
0.03125
  9
$AUNITS
 70
     0
  9
$AUPREC
 70
     0
  9
$MENU
  1
ACAD
  9
$ELEVATION
 40
0.0
  9
$PELEVATION
 40
0.0
  9
$THICKNESS
 40
0.0
  9
$LIMCHECK
 70
     0
  9
$BLIPMODE
 70
     0
  9
$CHAMFERA
 40
0.0
  9
$CHAMFERB
 40
0.0
  9
$CHAMFERC
 40
0.0
  9
$CHAMFERD
 40
0.0
  9
$SKPOLY
 70
     0
  9
$TDCREATE
 40
2449010.343774999
  9
$TDUPDATE
 40
2452458.312239572
  9
$TDINDWG
 40
0.0565760301
  9
$TDUSRTIMER
 40
0.0565760301
  9
$USRTIMER
 70
     1
  9
$ANGBASE
 50
0.0
  9
$ANGDIR
 70
     0
  9
$PDMODE
 70
     0
  9
$PDSIZE
 40
0.0
  9
$PLINEWID
 40
0.0
  9
$COORDS
 70
     2
  9
$SPLFRAME
 70
     0
  9
$SPLINETYPE
 70
     6
  9
$SPLINESEGS
 70
     8
  9
$ATTDIA
 70
     0
  9
$ATTREQ
 70
     1
  9
$HANDLING
 70
 22529
  9
$HANDSEED
  5
7E6
  9
$SURFTAB1
 70
     6
  9
$SURFTAB2
 70
     6
  9
$SURFTYPE
 70
     6
  9
$SURFU
 70
     6
  9
$SURFV
 70
     6
  9
$UCSNAME
  2

  9
$UCSORG
 10
0.0
 20
0.0
 30
0.0
  9
$UCSXDIR
 10
1.0
 20
0.0
 30
0.0
  9
$UCSYDIR
 10
0.0
 20
1.0
 30
0.0
  9
$PUCSNAME
  2

  9
$PUCSORG
 10
0.0
 20
0.0
 30
0.0
  9
$PUCSXDIR
 10
1.0
 20
0.0
 30
0.0
  9
$PUCSYDIR
 10
0.0
 20
1.0
 30
0.0
  9
$USERI1
 70
     0
  9
$USERI2
 70
     0
  9
$USERI3
 70
     0
  9
$USERI4
 70
     0
  9
$USERI5
 70
     0
  9
$USERR1
 40
0.0
  9
$USERR2
 40
0.0
  9
$USERR3
 40
0.0
  9
$USERR4
 40
0.0
  9
$USERR5
 40
0.0
  9
$WORLDVIEW
 70
     1
  9
$SHADEDGE
 70
     3
  9
$SHADEDIF
 70
    70
  9
$TILEMODE
 70
     1
  9
$MAXACTVP
 70
    16
  9
$PINSBASE
 10
0.0
 20
0.0
 30
0.0
  9
$PLIMCHECK
 70
     0
  9
$PEXTMIN
 10
1.000000000000000E+20
 20
1.000000000000000E+20
 30
1.000000000000000E+20
  9
$PEXTMAX
 10
-1.000000000000000E+20
 20
-1.000000000000000E+20
 30
-1.000000000000000E+20
  9
$PLIMMIN
 10
0.0
 20
0.0
  9
$PLIMMAX
 10
12.0
 20
9.0
  9
$UNITMODE
 70
     0
  9
$VISRETAIN
 70
     0
  9
$PLINEGEN
 70
     1
  9
$PSLTSCALE
 70
     0
  9
$TREEDEPTH
 70
  3020
  9
$PICKSTYLE
 70
     1
  9
$CMLSTYLE
  2
STANDARD
  9
$CMLJUST
 70
     0
  9
$CMLSCALE
 40
1.0
  9
$PROXYGRAPHICS
 70
     1
  9
$MEASUREMENT
 70
     0
  0
ENDSEC
  0
SECTION
  2
CLASSES
  0
CLASS
  1
LWPOLYLINE
  2
AcDbPolyline
  3
AutoCAD 2000
 90
        0
280
     0
281
     1
  0
CLASS
  1
ACDBDICTIONARYWDFLT
  2
AcDbDictionaryWithDefault
  3
AutoCAD 2000
 90
        0
280
     0
281
     0
  0
CLASS
  1
ACDBPLACEHOLDER
  2
AcDbPlaceHolder
  3
AutoCAD 2000
 90
        0
280
     0
281
     0
  0
CLASS
  1
LAYOUT
  2
AcDbLayout
  3
AutoCAD 2000
 90
        0
280
     0
281
     0
  0
CLASS
  1
DICTIONARYVAR
  2
AcDbDictionaryVar
  3
AutoCAD 2000
 90
        0
280
     0
281
     0
  0
CLASS
  1
LONG_TRANSACTION
  2
AcDbLongTransaction
  3
AutoCAD 2000
 90
        0
280
     0
281
     0
  0
CLASS
  1
LWPOLYLINE
  2
AcDbPolyline
  3
AutoCAD 2000
 90
        0
280
     0
281
     1
  0
CLASS
  1
HATCH
  2
AcDbHatch
  3
AutoCAD 2000
 90
        0
280
     0
281
     1
  0
CLASS
  1
XRECORD
  2
AcDbXrecord
  3
AutoCAD 2000
 90
        0
280
     0
281
     0
  0
ENDSEC
  0
SECTION
  2
TABLES
  0
TABLE
  2
VPORT
  5
8
330
0
100
AcDbSymbolTable
 70
     2
  0
VPORT
  5
7C1
330
8
100
AcDbSymbolTableRecord
100
AcDbViewportTableRecord
  2
*ACTIVE
 70
     0
 10
0.0
 20
0.0
 11
1.0
 21
1.0
 12
6.975217334230976
 22
5.511260910147314
 13
0.0
 23
0.0
 14
0.015625
 24
0.015625
 15
0.0
 25
0.0
 16
0.0
 26
0.0
 36
1.0
 17
0.0
 27
0.0
 37
0.0
 40
2.459755466270946
 41
4.320930232558139
 42
50.0
 43
0.0
 44
0.0
 50
0.0
 51
0.0
 71
     0
 72
  2000
 73
     1
 74
     1
 75
     0
 76
     0
 77
     0
 78
     0
  0
ENDTAB
  0
TABLE
  2
LTYPE
  5
5
330
0
100
AcDbSymbolTable
 70
     1
  0
LTYPE
  5
12
330
5
100
AcDbSymbolTableRecord
100
AcDbLinetypeTableRecord
  2
BYBLOCK
 70
     0
  3

 72
    65
 73
     0
 40
0.0
  0
LTYPE
  5
13
330
5
100
AcDbSymbolTableRecord
100
AcDbLinetypeTableRecord
  2
BYLAYER
 70
     0
  3

 72
    65
 73
     0
 40
0.0
  0
LTYPE
  5
14
330
5
100
AcDbSymbolTableRecord
100
AcDbLinetypeTableRecord
  2
CONTINUOUS
 70
     0
  3
Solid line
 72
    65
 73
     0
 40
0.0
  0
ENDTAB
  0
TABLE
  2
LAYER
  5
2
330
0
100
AcDbSymbolTable
 70
     2
  0
LAYER
  5
F
330
2
100
AcDbSymbolTableRecord
100
AcDbLayerTableRecord
  2
0
 70
     0
 62
     7
  6
CONTINUOUS
  0
LAYER
  5
2A
330
2
100
AcDbSymbolTableRecord
100
AcDbLayerTableRecord
  2
TEXT
 70
     0
 62
     3
  6
CONTINUOUS
  0
ENDTAB
  0
TABLE
  2
STYLE
  5
3
330
0
100
AcDbSymbolTable
 70
     3
  0
STYLE
  5
10
330
3
100
AcDbSymbolTableRecord
100
AcDbTextStyleTableRecord
  2
STANDARD
 70
     0
 40
0.0
 41
1.0
 50
0.0
 71
     0
 42
0.125
  3
txt
  4

  0
STYLE
  5
25F
330
3
100
AcDbSymbolTableRecord
100
AcDbTextStyleTableRecord
  2
ROMANS
 70
     0
 40
0.0
 41
1.0
 50
0.0
 71
     0
 42
0.125
  3
romans.shx
  4

  0
STYLE
  5
6AF
330
3
100
AcDbSymbolTableRecord
100
AcDbTextStyleTableRecord
  2
ITALICC
 70
     0
 40
0.0
 41
1.0
 50
0.0
 71
     0
 42
0.125
  3
italicc
  4

  0
ENDTAB
  0
TABLE
  2
VIEW
  5
6
330
0
100
AcDbSymbolTable
 70
     0
  0
ENDTAB
  0
TABLE
  2
UCS
  5
7
330
0
100
AcDbSymbolTable
 70
     0
  0
ENDTAB
  0
TABLE
  2
APPID
  5
9
330
0
100
AcDbSymbolTable
 70
     1
  0
APPID
  5
11
330
9
100
AcDbSymbolTableRecord
100
AcDbRegAppTableRecord
  2
ACAD
 70
     0
  0
ENDTAB
  0
TABLE
  2
DIMSTYLE
  5
A
330
0
100
AcDbSymbolTable
 70
     1
  0
DIMSTYLE
105
254
330
A
100
AcDbSymbolTableRecord
100
AcDbDimStyleTableRecord
  2
STANDARD
 70
     0
  3

  4

  5

  6

  7

 40
1.0
 41
0.125
 42
0.125
 43
0.375
 44
0.125
 45
0.0
 46
0.0
 47
0.0
 48
0.01
140
0.125
141
-0.125
142
0.0
143
25.4
144
1.0
145
0.0
146
1.0
147
0.09
 71
     0
 72
     0
 73
     1
 74
     1
 75
     0
 76
     0
 77
     0
 78
     4
170
     0
171
     2
172
     0
173
     0
174
     0
175
     0
176
     0
177
     0
178
     0
270
     2
271
     3
272
     3
273
     2
274
     2
340
25F
275
     0
280
     0
281
     0
282
     0
283
     1
284
     4
285
     0
286
     0
287
     3
288
     0
  0
ENDTAB
  0
TABLE
  2
BLOCK_RECORD
  5
1
330
0
100
AcDbSymbolTable
 70
     0
  0
BLOCK_RECORD
  5
18
102
{ACAD_XDICTIONARY
360
7E4
102
}
330
1
100
AcDbSymbolTableRecord
100
AcDbBlockTableRecord
  2
*MODEL_SPACE
  0
BLOCK_RECORD
  5
15
102
{ACAD_XDICTIONARY
360
7E2
102
}
330
1
100
AcDbSymbolTableRecord
100
AcDbBlockTableRecord
  2
*PAPER_SPACE
  0
ENDTAB
  0
ENDSEC
  0
SECTION
  2
BLOCKS
  0
BLOCK
  5
30
330
18
100
AcDbEntity
  8
0
100
AcDbBlockBegin
  2
*MODEL_SPACE
 70
     0
 10
0.0
 20
0.0
 30
0.0
  3
*MODEL_SPACE
  1

  0
ENDBLK
  5
31
330
18
100
AcDbEntity
  8
0
100
AcDbBlockEnd
  0
BLOCK
  5
2E
330
15
100
AcDbEntity
 67
     1
  8
0
100
AcDbBlockBegin
  2
*PAPER_SPACE
 70
     0
 10
0.0
 20
0.0
 30
0.0
  3
*PAPER_SPACE
  1

  0
ENDBLK
  5
2F
330
15
100
AcDbEntity
 67
     1
  8
0
100
AcDbBlockEnd
  0
ENDSEC
  0
SECTION
  2
ENTITIES
  0
LWPOLYLINE
  5
5E0
330
18
100
AcDbEntity
  8
0
100
AcDbPolyline
 90
       36
 70
     1
 43
0.0
 10
3.200638317228602
 20
6.021320668018801
 42
0.2493280028431825
 10
3.226545741370948
 20
6.007545446252262
 10
3.290118679231618
 20
6.007545446252262
 42
0.4142135623730951
 10
3.321368679231618
 20
6.038795446252262
 10
3.321368679231618
 20
6.070545446252261
 10
3.258868679231618
 20
6.070545446252261
 10
3.258868679231618
 20
6.150545446252261
 10
3.321368679231618
 20
6.150545446252261
 10
3.321368679231618
 20
6.182295446252261
 42
0.4142135623730951
 10
3.290118679231618
 20
6.213545446252261
 10
3.158350624714909
 20
6.213545446252261
 42
-0.646602867453479
 10
3.134962860214116
 20
6.265521636728451
 42
-0.2146219586590788
 10
3.649493679231618
 20
6.497045446252261
 42
-0.2146219586590788
 10
4.164024498249119
 20
6.265521636728451
 42
-0.6466028674534758
 10
4.140636733748323
 20
6.213545446252261
 10
4.008868679231618
 20
6.213545446252261
 42
0.4142135623730951
 10
3.977618679231618
 20
6.182295446252261
 10
3.977618679231618
 20
6.150545446252261
 10
4.040118679231618
 20
6.150545446252261
 10
4.040118679231618
 20
6.070545446252261
 10
3.977618679231618
 20
6.070545446252261
 10
3.977618679231618
 20
6.038795446252262
 42
0.4142135623730951
 10
4.008868679231618
 20
6.007545446252262
 10
4.072441617092287
 20
6.007545446252262
 42
0.2493280028431827
 10
4.09834904123463
 20
6.021320668018801
 10
4.190388832756337
 20
6.157775270478931
 42
-0.552795597602442
 10
4.243286855835211
 20
6.156050732530862
 42
-0.3617965478359505
 10
4.097863244449008
 20
5.288372746481094
 42
0.2184662898860227
 10
4.086993679231618
 20
5.264683078309676
 42
0.6414077406992353
 10
4.138624114014227
 20
5.240993410138262
 42
0.6956284537400747
 10
3.649493679231618
 20
6.559545446252261
 42
0.6956284537400766
 10
3.160363244449008
 20
5.240993410138259
 42
0.6414077406992418
 10
3.211993679231618
 20
5.264683078309676
 42
0.2184662898860231
 10
3.201124114014227
 20
5.288372746481094
 42
-0.3617965478359505
 10
3.055700502628024
 20
6.156050732530862
 42
-0.552795597602442
 10
3.108598525706895
 20
6.157775270478931
  0
LINE
  5
734
330
18
100
AcDbEntity
  8
TEXT
100
AcDbLine
 10
3.761630071790747
 20
4.494915524660001
 30
0.0
 11
3.761630071790747
 21
4.63624505683914
 31
0.0
  0
LINE
  5
735
330
18
100
AcDbEntity
  8
TEXT
100
AcDbLine
 10
3.80872823034673
 20
4.570780851071539
 30
0.0
 11
3.761630071790747
 21
4.494915524660001
 31
0.0
  0
LINE
  5
736
330
18
100
AcDbEntity
  8
TEXT
100
AcDbLine
 10
3.819162947110655
 20
4.460887608130565
 30
0.0
 11
3.88372006307636
 21
4.570780851071539
 31
0.0
  0
TEXT
  5
737
330
18
100
AcDbEntity
  8
TEXT
100
AcDbText
 10
4.066718758573669
 20
4.490452053694816
 30
0.0
 40
0.0522247191011236
  1
6536 Main St. N.E. * P.O. Box 32008
 41
0.8388932496075355
 72
     5
 11
5.395651342843333
 21
4.490452053694816
 31
0.0
100
AcDbText
  0
ARC
  5
738
330
18
100
AcDbEntity
  8
TEXT
100
AcDbCircle
 10
3.621147099275409
 20
4.481598281132111
 30
0.0
 40
0.0249058752826653
100
AcDbArc
 50
89.99971217465335
 51
179.9999999999985
  0
LINE
  5
739
330
18
100
AcDbEntity
  8
TEXT
100
AcDbLine
 10
3.533946332852377
 20
4.465568872518112
 30
0.0
 11
3.490195561670475
 21
4.547819148514257
 31
0.0
  0
LINE
  5
73A
330
18
100
AcDbEntity
  8
TEXT
100
AcDbLine
 10
3.533946332852377
 20
4.570780851071539
 30
0.0
 11
3.533946332852377
 21
4.465568872518112
 31
0.0
  0
ARC
  5
73B
330
18
100
AcDbEntity
  8
TEXT
100
AcDbCircle
 10
3.425955495632857
 20
4.478144781414776
 30
0.0
 40
0.028359375
100
AcDbArc
 50
25.78218179591245
 51
90.0
  0
LINE
  5
73C
330
18
100
AcDbEntity
  8
TEXT
100
AcDbLine
 10
2.963961034449109
 20
4.386695656186027
 30
0.0
 11
2.963961034449109
 21
4.63879232881035
 31
0.0
  0
LINE
  5
73D
330
18
100
AcDbEntity
  8
TEXT
100
AcDbLine
 10
2.996272888586769
 20
4.570780851071539
 30
0.0
 11
2.996272888586769
 21
4.369916644339131
 31
0.0
  0
LINE
  5
73E
330
18
100
AcDbEntity
  8
TEXT
100
AcDbLine
 10
2.867030409089366
 20
4.570780851071539
 30
0.0
 11
2.808281846283502
 21
4.469908854958418
 31
0.0
  0
LINE
  5
73F
330
18
100
AcDbEntity
  8
TEXT
100
AcDbLine
 10
2.808281846283502
 20
4.469908854958418
 30
0.0
 11
2.749651525251564
 21
4.570780851071539
 31
0.0
  0
ARC
  5
740
330
18
100
AcDbEntity
  8
TEXT
100
AcDbCircle
 10
2.442078201365138
 20
4.488693391625037
 30
0.0
 40
0.0820874594465043
100
AcDbArc
 50
90.0
 51
270.0
  0
LWPOLYLINE
  5
741
330
18
100
AcDbEntity
  8
TEXT
100
AcDbPolyline
 90
        2
 70
     0
 43
0.0001332181640625
 10
2.033991868264173
 20
4.497510860837163
 10
2.024000505959483
 20
4.570780851071543
  0
LWPOLYLINE
  5
742
330
18
100
AcDbEntity
  8
TEXT
100
AcDbPolyline
 90
        2
 70
     0
 43
0.0001332181640625
 10
2.024000505959483
 20
4.544137218259042
 10
2.033991868264173
 20
4.484189044430916
  0
LWPOLYLINE
  5
743
330
18
100
AcDbEntity
  8
TEXT
100
AcDbPolyline
 90
        2
 70
     0
 43
0.0001332181640625
 10
2.063965955178234
 20
4.544137218259042
 10
2.053974592873546
 20
4.484189044430916
  0
LWPOLYLINE
  5
744
330
18
100
AcDbEntity
  8
TEXT
100
AcDbPolyline
 90
        2
 70
     0
 43
0.0001332181640625
 10
2.063965955178234
 20
4.570780851071543
 10
2.053974592873546
 20
4.497510860837163
  0
LWPOLYLINE
  5
745
330
18
100
AcDbEntity
  8
TEXT
100
AcDbPolyline
 90
        3
 70
     0
 43
0.0006660908203125
 10
2.17720139463136
 20
4.457545411618415
 10
2.17720139463136
 20
4.570780851071543
 10
2.063965955178234
 20
4.570780851071543
  0
LWPOLYLINE
  5
746
330
18
100
AcDbEntity
  8
TEXT
100
AcDbPolyline
 90
        3
 70
     0
 43
0.0006660908203125
 10
2.150557761818859
 20
4.457545411618415
 10
2.150557761818859
 20
4.544137218259042
 10
2.063965955178234
 20
4.544137218259042
  0
LWPOLYLINE
  5
747
330
18
100
AcDbEntity
  8
TEXT
100
AcDbPolyline
 90
        2
 70
     0
 43
0.0001332181640625
 10
2.150557761818859
 20
4.544137218259042
 10
2.090609587990735
 20
4.484189044430916
  0
LWPOLYLINE
  5
748
330
18
100
AcDbEntity
  8
TEXT
100
AcDbPolyline
 90
        2
 70
     0
 43
0.0001332181640625
 10
1.937408699318858
 20
4.544137218259042
 10
1.997356873146983
 20
4.484189044430916
  0
LWPOLYLINE
  5
749
330
18
100
AcDbEntity
  8
TEXT
100
AcDbPolyline
 90
        3
 70
     0
 43
0.0006660908203125
 10
2.024000505959483
 20
4.570780851071543
 10
1.91076506650636
 20
4.570780851071543
 10
1.91076506650636
 20
4.457545411618415
  0
LWPOLYLINE
  5
74A
330
18
100
AcDbEntity
  8
TEXT
100
AcDbPolyline
 90
        3
 70
     0
 43
0.0006660908203125
 10
2.024000505959483
 20
4.544137218259042
 10
1.937408699318858
 20
4.544137218259042
 10
1.937408699318858
 20
4.457545411618415
  0
LINE
  5
74B
330
18
100
AcDbEntity
  8
TEXT
100
AcDbLine
 10
2.512915667723687
 20
4.470699434804146
 30
0.0
 11
2.447315531479386
 21
4.470699434804146
 31
0.0
  0
LINE
  5
74C
330
18
100
AcDbEntity
  8
TEXT
100
AcDbLine
 10
2.442078201365138
 20
4.406605932178532
 30
0.0
 11
2.517856041629967
 21
4.406605932178532
 31
0.0
  0
LINE
  5
74D
330
18
100
AcDbEntity
  8
TEXT
100
AcDbLine
 10
2.359990741918634
 20
4.304307818083028
 30
0.0
 11
2.512915667723687
 21
4.304307818083028
 31
0.0
  0
LINE
  5
74E
330
18
100
AcDbEntity
  8
TEXT
100
AcDbLine
 10
2.517856041629967
 20
4.372664824416467
 30
0.0
 11
2.359990741918633
 21
4.372664824416467
 31
0.0
  0
LINE
  5
74F
330
18
100
AcDbEntity
  8
TEXT
100
AcDbLine
 10
2.447315531479386
 20
4.506504156414774
 30
0.0
 11
2.614221185508355
 21
4.506504156414774
 31
0.0
  0
LWPOLYLINE
  5
750
330
18
100
AcDbEntity
  8
TEXT
100
AcDbPolyline
 90
        2
 70
     0
 43
0.0006660908203125
 10
2.150557761818859
 20
4.457545411618415
 10
2.17720139463136
 20
4.457545411618415
  0
LWPOLYLINE
  5
751
330
18
100
AcDbEntity
  8
TEXT
100
AcDbPolyline
 90
        2
 70
     0
 43
0.0001332181640625
 10
2.103931404396984
 20
4.447554049313726
 10
2.17720139463136
 20
4.457545411618415
  0
LWPOLYLINE
  5
752
330
18
100
AcDbEntity
  8
TEXT
100
AcDbPolyline
 90
        2
 70
     0
 43
0.0006660908203125
 10
2.150557761818859
 20
4.417579962399667
 10
2.17720139463136
 20
4.417579962399667
  0
LWPOLYLINE
  5
753
330
18
100
AcDbEntity
  8
TEXT
100
AcDbPolyline
 90
        3
 70
     0
 43
0.0006660908203125
 10
2.063965955178234
 20
4.304344522946539
 10
2.17720139463136
 20
4.304344522946539
 10
2.17720139463136
 20
4.417579962399667
  0
LWPOLYLINE
  5
754
330
18
100
AcDbEntity
  8
TEXT
100
AcDbPolyline
 90
        2
 70
     0
 43
0.0001332181640625
 10
2.17720139463136
 20
4.417579962399667
 10
2.103931404396984
 20
4.427571324704352
  0
LWPOLYLINE
  5
755
330
18
100
AcDbEntity
  8
TEXT
100
AcDbPolyline
 90
        3
 70
     0
 43
0.0006660908203125
 10
1.91076506650636
 20
4.417579962399667
 10
1.91076506650636
 20
4.304344522946539
 10
2.024000505959483
 20
4.304344522946539
  0
LWPOLYLINE
  5
756
330
18
100
AcDbEntity
  8
TEXT
100
AcDbPolyline
 90
        3
 70
     0
 43
0.0006660908203125
 10
1.937408699318858
 20
4.417579962399667
 10
1.937408699318858
 20
4.33098815575904
 10
2.024000505959483
 20
4.33098815575904
  0
LWPOLYLINE
  5
757
330
18
100
AcDbEntity
  8
TEXT
100
AcDbPolyline
 90
        5
 70
     0
 43
0.0001332181640625
 10
2.033991868264173
 20
4.377614513180915
 10
2.033991868264173
 20
4.390936329587166
 10
1.997356873146985
 20
4.390936329587166
 10
1.997356873146985
 20
4.427571324704352
 10
1.984035056740735
 20
4.427571324704352
  0
LWPOLYLINE
  5
758
330
18
100
AcDbEntity
  8
TEXT
100
AcDbPolyline
 90
        5
 70
     0
 43
0.0001332181640625
 10
1.984035056740735
 20
4.447554049313726
 10
1.997356873146983
 20
4.447554049313726
 10
1.997356873146983
 20
4.484189044430916
 10
2.033991868264173
 20
4.484189044430916
 10
2.033991868264173
 20
4.497510860837163
  0
LWPOLYLINE
  5
759
330
18
100
AcDbEntity
  8
TEXT
100
AcDbPolyline
 90
        2
 70
     0
 43
0.0001332181640625
 10
1.937408699318858
 20
4.457545411618415
 10
1.997356873146983
 20
4.447554049313726
  0
LWPOLYLINE
  5
75A
330
18
100
AcDbEntity
  8
TEXT
100
AcDbPolyline
 90
        2
 70
     0
 43
0.0001332181640625
 10
1.91076506650636
 20
4.457545411618415
 10
1.984035056740735
 20
4.447554049313726
  0
LWPOLYLINE
  5
75B
330
18
100
AcDbEntity
  8
TEXT
100
AcDbPolyline
 90
        2
 70
     0
 43
0.0006660908203125
 10
1.937408699318858
 20
4.457545411618415
 10
1.91076506650636
 20
4.457545411618415
  0
LWPOLYLINE
  5
75C
330
18
100
AcDbEntity
  8
TEXT
100
AcDbPolyline
 90
        2
 70
     0
 43
0.0001332181640625
 10
1.937408699318858
 20
4.33098815575904
 10
1.997356873146985
 20
4.390936329587166
  0
LWPOLYLINE
  5
75D
330
18
100
AcDbEntity
  8
TEXT
100
AcDbPolyline
 90
        2
 70
     0
 43
0.0006660908203125
 10
1.937408699318858
 20
4.417579962399667
 10
1.91076506650636
 20
4.417579962399667
  0
LWPOLYLINE
  5
75E
330
18
100
AcDbEntity
  8
TEXT
100
AcDbPolyline
 90
        2
 70
     0
 43
0.0001332181640625
 10
1.984035056740735
 20
4.427571324704352
 10
1.91076506650636
 20
4.417579962399667
  0
LWPOLYLINE
  5
75F
330
18
100
AcDbEntity
  8
TEXT
100
AcDbPolyline
 90
        2
 70
     0
 43
0.0001332181640625
 10
1.937408699318858
 20
4.417579962399667
 10
1.997356873146985
 20
4.427571324704352
  0
LWPOLYLINE
  5
760
330
18
100
AcDbEntity
  8
TEXT
100
AcDbPolyline
 90
        5
 70
     0
 43
0.0001332181640625
 10
2.053974592873546
 20
4.497510860837163
 10
2.053974592873546
 20
4.484189044430916
 10
2.090609587990735
 20
4.484189044430916
 10
2.090609587990735
 20
4.447554049313726
 10
2.103931404396984
 20
4.447554049313726
  0
LWPOLYLINE
  5
761
330
18
100
AcDbEntity
  8
TEXT
100
AcDbPolyline
 90
        2
 70
     0
 43
0.0001332181640625
 10
2.150557761818859
 20
4.457545411618415
 10
2.090609587990735
 20
4.447554049313726
  0
LWPOLYLINE
  5
762
330
18
100
AcDbEntity
  8
TEXT
100
AcDbPolyline
 90
        2
 70
     0
 43
0.0006660908203125
 10
2.024000505959483
 20
4.33098815575904
 10
2.024000505959483
 20
4.304344522946539
  0
LWPOLYLINE
  5
763
330
18
100
AcDbEntity
  8
TEXT
100
AcDbPolyline
 90
        2
 70
     0
 43
0.0001332181640625
 10
2.024000505959483
 20
4.33098815575904
 10
2.033991868264173
 20
4.390936329587166
  0
LWPOLYLINE
  5
764
330
18
100
AcDbEntity
  8
TEXT
100
AcDbPolyline
 90
        2
 70
     0
 43
0.0001332181640625
 10
2.024000505959483
 20
4.304344522946539
 10
2.033991868264173
 20
4.377614513180915
  0
LWPOLYLINE
  5
765
330
18
100
AcDbEntity
  8
TEXT
100
AcDbPolyline
 90
        2
 70
     0
 43
0.0001332181640625
 10
2.063965955178234
 20
4.33098815575904
 10
2.053974592873546
 20
4.390936329587166
  0
LWPOLYLINE
  5
766
330
18
100
AcDbEntity
  8
TEXT
100
AcDbPolyline
 90
        2
 70
     0
 43
0.0001332181640625
 10
2.053974592873546
 20
4.377614513180915
 10
2.063965955178234
 20
4.304344522946539
  0
LWPOLYLINE
  5
767
330
18
100
AcDbEntity
  8
TEXT
100
AcDbPolyline
 90
        2
 70
     0
 43
0.0006660908203125
 10
2.063965955178234
 20
4.33098815575904
 10
2.063965955178234
 20
4.304344522946539
  0
LWPOLYLINE
  5
768
330
18
100
AcDbEntity
  8
TEXT
100
AcDbPolyline
 90
        2
 70
     0
 43
0.0001332181640625
 10
2.150557761818859
 20
4.33098815575904
 10
2.090609587990735
 20
4.390936329587166
  0
LWPOLYLINE
  5
769
330
18
100
AcDbEntity
  8
TEXT
100
AcDbPolyline
 90
        3
 70
     0
 43
0.0006660908203125
 10
2.063965955178234
 20
4.33098815575904
 10
2.150557761818859
 20
4.33098815575904
 10
2.150557761818859
 20
4.417579962399667
  0
LWPOLYLINE
  5
76A
330
18
100
AcDbEntity
  8
TEXT
100
AcDbPolyline
 90
        2
 70
     0
 43
0.0001332181640625
 10
2.150557761818859
 20
4.417579962399667
 10
2.090609587990735
 20
4.427571324704352
  0
LWPOLYLINE
  5
76B
330
18
100
AcDbEntity
  8
TEXT
100
AcDbPolyline
 90
        5
 70
     0
 43
0.0001332181640625
 10
2.103931404396984
 20
4.427571324704352
 10
2.090609587990735
 20
4.427571324704352
 10
2.090609587990735
 20
4.390936329587166
 10
2.053974592873546
 20
4.390936329587166
 10
2.053974592873546
 20
4.377614513180915
  0
ARC
  5
76C
330
18
100
AcDbEntity
  8
TEXT
100
AcDbCircle
 10
2.447315531479386
 20
4.488601795609461
 30
0.0
 40
0.017902360805315
100
AcDbArc
 50
90.0
 51
270.0
  0
LINE
  5
76D
330
18
100
AcDbEntity
  8
TEXT
100
AcDbLine
 10
2.359990741918633
 20
4.372664824416467
 30
0.0
 11
2.359990741918634
 21
4.304307818083028
 31
0.0
  0
TEXT
  5
76E
330
18
100
AcDbEntity
  8
TEXT
100
AcDbText
 10
4.066718758573669
 20
4.303935199762232
 30
0.0
 40
0.0522247191011236
  1
Phone  1-800-328-2495
 41
1.272321428571429
 72
     5
 11
5.395651342843333
 21
4.303935199762232
 31
0.0
100
AcDbText
  0
TEXT
  5
76F
330
18
100
AcDbEntity
  8
TEXT
100
AcDbText
 10
4.066718758573669
 20
4.397193626728524
 30
0.0
 40
0.0522247191011236
  1
Minneapolis, MN 55432-0008
 41
1.11444212721585
 72
     5
 11
5.395651342843333
 21
4.397193626728524
 31
0.0
100
AcDbText
  0
LINE
  5
770
330
18
100
AcDbEntity
  8
TEXT
100
AcDbLine
 10
3.621147099275411
 20
4.506504156414774
 30
0.0
 11
3.697795080567967
 21
4.506504156414774
 31
0.0
  0
LINE
  5
771
330
18
100
AcDbEntity
  8
TEXT
100
AcDbLine
 10
3.063103941644737
 20
4.506504156414774
 30
0.0
 11
3.112939221467886
 21
4.506504156414774
 31
0.0
  0
ARC
  5
772
330
18
100
AcDbEntity
  8
TEXT
100
AcDbCircle
 10
2.764638049374333
 20
4.343855540356724
 30
0.0
 40
0.0392772371940762
100
AcDbArc
 50
270.1604552698595
 51
330.0831797321295
  0
ARC
  5
773
330
18
100
AcDbEntity
  8
TEXT
100
AcDbCircle
 10
2.674337203482108
 20
4.364100209421078
 30
0.0
 40
0.0601160179737537
100
AcDbArc
 50
180.0000000000003
 51
264.0521544866073
  0
LINE
  5
774
330
18
100
AcDbEntity
  8
TEXT
100
AcDbLine
 10
2.614221185508355
 20
4.506504156414774
 30
0.0
 11
2.614221185508355
 21
4.364100209421078
 31
0.0
  0
ARC
  5
775
330
18
100
AcDbEntity
  8
TEXT
100
AcDbCircle
 10
2.517856041629967
 20
4.389635378297501
 30
0.0
 40
0.0169705538810321
100
AcDbArc
 50
270.0
 51
90.0
  0
ARC
  5
776
330
18
100
AcDbEntity
  8
TEXT
100
AcDbCircle
 10
2.512915667723687
 20
4.387503626443585
 30
0.0
 40
0.0831958083605586
100
AcDbArc
 50
270.0
 51
90.0
  0
LWPOLYLINE
  5
777
330
18
100
AcDbEntity
  8
TEXT
100
AcDbPolyline
 90
        6
 70
     1
 43
0.0
 10
2.710631596563612
 20
4.506504156414774
 10
2.680315002343403
 20
4.506504156414774
 10
2.680315002343403
 20
4.383393158359879
 42
0.407328721240804
 10
2.69185865350488
 20
4.371574243683493
 10
2.752480352549611
 20
4.371574243683493
 10
2.769945692956929
 20
4.404386472726972
  0
LINE
  5
778
330
18
100
AcDbEntity
  8
TEXT
100
AcDbLine
 10
2.668107792988461
 20
4.304307818083028
 30
0.0
 11
2.764748044063455
 21
4.30457845718131
 31
0.0
  0
LWPOLYLINE
  5
779
330
18
100
AcDbEntity
  8
TEXT
100
AcDbPolyline
 90
        2
 70
     0
 43
0.0
 10
2.895981315379991
 20
4.355859160297956
 42
0.3318488747599744
 10
2.965100607945304
 20
4.304307818083028
 42
-6.868794160588311
  0
LINE
  5
77A
330
18
100
AcDbEntity
  8
TEXT
100
AcDbLine
 10
2.895981315379991
 20
4.488616535123309
 30
0.0
 11
2.895981315379991
 21
4.355859160297953
 31
0.0
  0
LINE
  5
77B
330
18
100
AcDbEntity
  8
TEXT
100
AcDbLine
 10
2.798681609286546
 20
4.324266324188041
 30
0.0
 11
2.895981315379991
 21
4.488616535123309
 31
0.0
  0
ARC
  5
77C
330
18
100
AcDbEntity
  8
TEXT
100
AcDbCircle
 10
2.979279251702166
 20
4.385298450582556
 30
0.0
 40
0.0153818062434269
100
AcDbArc
 50
174.7883570302258
 51
270.0
  0
LINE
  5
77D
330
18
100
AcDbEntity
  8
TEXT
100
AcDbLine
 10
2.996272888586769
 20
4.369916644339131
 30
0.0
 11
2.979279251702166
 21
4.369916644339131
 31
0.0
  0
LINE
  5
77E
330
18
100
AcDbEntity
  8
TEXT
100
AcDbLine
 10
2.965100607945302
 20
4.304307818083028
 30
0.0
 11
3.063103941644737
 21
4.304307818083028
 31
0.0
  0
LINE
  5
77F
330
18
100
AcDbEntity
  8
TEXT
100
AcDbLine
 10
3.063103941644737
 20
4.304307818083028
 30
0.0
 11
3.063103941644737
 21
4.506504156414774
 31
0.0
  0
LINE
  5
780
330
18
100
AcDbEntity
  8
TEXT
100
AcDbLine
 10
3.425955495632859
 20
4.506504156414774
 30
0.0
 11
3.318749222245568
 21
4.506504156414774
 31
0.0
  0
LINE
  5
781
330
18
100
AcDbEntity
  8
TEXT
100
AcDbLine
 10
3.379468581153595
 20
4.469229182952641
 30
0.0
 11
3.46175657093698
 21
4.469229182952641
 31
0.0
  0
LWPOLYLINE
  5
782
330
18
100
AcDbEntity
  8
TEXT
100
AcDbPolyline
 90
        4
 70
     1
 43
0.0
 10
3.474687612219879
 20
4.407271796067053
 10
3.386027293560021
 20
4.407271796067053
 42
0.9999999999999998
 10
3.386027293560021
 20
4.364873255563193
 10
3.474687612219879
 20
4.364873255563193
 42
1.0
  0
LWPOLYLINE
  5
783
330
18
100
AcDbEntity
  8
TEXT
100
AcDbPolyline
 90
        2
 70
     0
 43
0.0
 10
3.360792659658395
 20
4.304307818083028
 10
3.494810077289772
 20
4.304307818083028
 42
0.9999999999999998
  0
LINE
  5
784
330
18
100
AcDbEntity
  8
TEXT
100
AcDbLine
 10
3.187551057415838
 20
4.506504156414774
 30
0.0
 11
3.24168465433679
 21
4.506504156414774
 31
0.0
  0
LINE
  5
785
330
18
100
AcDbEntity
  8
TEXT
100
AcDbLine
 10
3.120493010634
 20
4.304307818083028
 30
0.0
 11
3.187551057415838
 21
4.304307818083028
 31
0.0
  0
LINE
  5
786
330
18
100
AcDbEntity
  8
TEXT
100
AcDbLine
 10
3.187551057415838
 20
4.304307818083028
 30
0.0
 11
3.187551057415838
 21
4.506504156414774
 31
0.0
  0
LINE
  5
787
330
18
100
AcDbEntity
  8
TEXT
100
AcDbLine
 10
3.120493010634
 20
4.498950367248664
 30
0.0
 11
3.120493010634
 21
4.304307818083028
 31
0.0
  0
LWPOLYLINE
  5
788
330
18
100
AcDbEntity
  8
TEXT
100
AcDbPolyline
 90
        2
 70
     0
 43
0.0
 10
3.112939221467884
 20
4.506504156414774
 42
-0.4142135623731017
 10
3.120493010633998
 20
4.498950367248664
 42
-0.9999999999999998
  0
LINE
  5
789
330
18
100
AcDbEntity
  8
TEXT
100
AcDbLine
 10
3.318749222245568
 20
4.506504156414774
 30
0.0
 11
3.318749222245568
 21
4.431451750340567
 31
0.0
  0
ARC
  5
78A
330
18
100
AcDbEntity
  8
TEXT
100
AcDbCircle
 10
3.379468581153595
 20
4.401543601808523
 30
0.0
 40
0.0676855811441166
100
AcDbArc
 50
90.0
 51
153.7768192527749
  0
LWPOLYLINE
  5
78B
330
18
100
AcDbEntity
  8
TEXT
100
AcDbPolyline
 90
        2
 70
     0
 43
0.0
 10
3.317716726790759
 20
4.347798763033466
 42
0.2901071551932823
 10
3.360792659658395
 20
4.304307818083028
 42
5.328517124445801
  0
LWPOLYLINE
  5
78C
330
18
100
AcDbEntity
  8
TEXT
100
AcDbPolyline
 90
        2
 70
     0
 43
0.0
 10
3.241684654336788
 20
4.506504156414774
 42
-0.4142135623731017
 10
3.249238443502902
 20
4.498950367248664
 42
-0.9999999999999998
  0
LWPOLYLINE
  5
78D
330
18
100
AcDbEntity
  8
TEXT
100
AcDbPolyline
 90
        4
 70
     0
 43
0.0
 10
3.249238443502902
 20
4.498950367248664
 10
3.249238443502902
 20
4.304307818083028
 10
3.317716726790759
 20
4.304307818083028
 10
3.317716726790759
 20
4.347798763033466
 42
-1.714843617202739
  0
LWPOLYLINE
  5
78E
330
18
100
AcDbEntity
  8
TEXT
100
AcDbPolyline
 90
        2
 70
     0
 43
0.0
 10
3.537886010157416
 20
4.347798763033466
 42
-0.2901071551932486
 10
3.494810077289772
 20
4.304307818083028
 42
-5.328517124445184
  0
LWPOLYLINE
  5
78F
330
18
100
AcDbEntity
  8
TEXT
100
AcDbPolyline
 90
        2
 70
     0
 43
0.0
 10
3.537886010157416
 20
4.304307818083028
 10
3.59624122399275
 20
4.304307818083028
  0
LWPOLYLINE
  5
790
330
18
100
AcDbEntity
  8
TEXT
100
AcDbPolyline
 90
        2
 70
     0
 43
0.0
 10
3.537886010157416
 20
4.347798763033466
 10
3.537886010157416
 20
4.304307818083028
  0
LINE
  5
791
330
18
100
AcDbEntity
  8
TEXT
100
AcDbLine
 10
3.46175657093698
 20
4.469229182952641
 30
0.0
 11
3.451491810523414
 21
4.490479722525336
 31
0.0
  0
LINE
  5
792
330
18
100
AcDbEntity
  8
TEXT
100
AcDbLine
 10
3.596241223992752
 20
4.304307818083028
 30
0.0
 11
3.596241223992745
 21
4.481598323514496
 31
0.0
  0
LINE
  5
793
330
18
100
AcDbEntity
  8
TEXT
100
AcDbLine
 10
3.914655170474265
 20
4.304307818083028
 30
0.0
 11
3.819162947110655
 21
4.460887608130565
 31
0.0
  0
LINE
  5
794
330
18
100
AcDbEntity
  8
TEXT
100
AcDbLine
 10
3.838076798098057
 20
4.304307818083028
 30
0.0
 11
3.914655170474265
 21
4.304307818083028
 31
0.0
  0
LINE
  5
795
330
18
100
AcDbEntity
  8
TEXT
100
AcDbLine
 10
3.697795080567974
 20
4.304307818083028
 30
0.0
 11
3.762173264886595
 21
4.304307818083028
 31
0.0
  0
LINE
  5
796
330
18
100
AcDbEntity
  8
TEXT
100
AcDbLine
 10
3.697795080567967
 20
4.506504156414774
 30
0.0
 11
3.697795080567974
 21
4.304307818083028
 31
0.0
  0
LINE
  5
797
330
18
100
AcDbEntity
  8
TEXT
100
AcDbLine
 10
3.762173264886595
 20
4.435887386559208
 30
0.0
 11
3.838076798098057
 21
4.304307818083028
 31
0.0
  0
LINE
  5
798
330
18
100
AcDbEntity
  8
TEXT
100
AcDbLine
 10
3.762173264886595
 20
4.304307818083028
 30
0.0
 11
3.762173264886595
 21
4.435887386559208
 31
0.0
  0
LINE
  5
799
330
18
100
AcDbEntity
  8
TEXT
100
AcDbLine
 10
2.617809954263648
 20
4.570780851071539
 30
0.0
 11
2.442078201365138
 21
4.570780851071539
 31
0.0
  0
LWPOLYLINE
  5
79A
330
18
100
AcDbEntity
  8
TEXT
100
AcDbPolyline
 90
        2
 70
     0
 43
0.0006660908203125
 10
2.024000505959483
 20
4.544137218259042
 10
2.024000505959483
 20
4.570780851071543
  0
LWPOLYLINE
  5
79B
330
18
100
AcDbEntity
  8
TEXT
100
AcDbPolyline
 90
        2
 70
     0
 43
0.0006660908203125
 10
2.063965955178234
 20
4.544137218259042
 10
2.063965955178234
 20
4.570780851071543
  0
TEXT
  5
79C
330
18
100
AcDbEntity
  8
TEXT
100
AcDbText
 10
4.066718758573669
 20
4.583710480661109
 30
0.0
 40
0.0522247191011236
  1
Stylmark  Incorporated
 41
1.221428571428571
 72
     5
 11
5.395651342843333
 21
4.583710480661109
 31
0.0
100
AcDbText
  0
LINE
  5
79D
330
18
100
AcDbEntity
  8
TEXT
100
AcDbLine
 10
3.693315193241467
 20
4.570780851071539
 30
0.0
 11
3.625815475591952
 21
4.570780851071539
 31
0.0
  0
TEXT
  5
79E
330
18
100
AcDbEntity
  8
TEXT
100
AcDbText
 10
2.900437409847156
 20
4.750857842434608
 30
0.0
 40
0.125
  1
PART #110429
  7
ITALICC
 72
     1
 11
3.653413600323347
 21
4.750857842434608
 31
0.0
100
AcDbText
  0
LINE
  5
79F
330
18
100
AcDbEntity
  8
TEXT
100
AcDbLine
 10
3.130290944517906
 20
4.570780851071539
 30
0.0
 11
2.996272888586769
 21
4.570780851071539
 31
0.0
  0
LINE
  5
7A0
330
18
100
AcDbEntity
  8
TEXT
100
AcDbLine
 10
2.677852559107655
 20
4.605168768665677
 30
0.0
 11
2.617809954263648
 21
4.605168768665677
 31
0.0
  0
LINE
  5
7A1
330
18
100
AcDbEntity
  8
TEXT
100
AcDbLine
 10
2.617809954263648
 20
4.605168768665677
 30
0.0
 11
2.617809954263648
 21
4.570780851071539
 31
0.0
  0
LINE
  5
7A2
330
18
100
AcDbEntity
  8
TEXT
100
AcDbLine
 10
2.749651525251564
 20
4.570780851071539
 30
0.0
 11
2.677852559107655
 21
4.570780851071539
 31
0.0
  0
LINE
  5
7A3
330
18
100
AcDbEntity
  8
TEXT
100
AcDbLine
 10
2.677852559107655
 20
4.570780851071539
 30
0.0
 11
2.677852559107655
 21
4.605168768665677
 31
0.0
  0
LINE
  5
7A4
330
18
100
AcDbEntity
  8
TEXT
100
AcDbLine
 10
2.963961034449109
 20
4.63879232881035
 30
0.0
 11
2.897152321882742
 21
4.63879232881035
 31
0.0
  0
LINE
  5
7A5
330
18
100
AcDbEntity
  8
TEXT
100
AcDbLine
 10
2.897152321882742
 20
4.570780851071539
 30
0.0
 11
2.867030409089366
 21
4.570780851071539
 31
0.0
  0
LINE
  5
7A6
330
18
100
AcDbEntity
  8
TEXT
100
AcDbLine
 10
2.897152321882742
 20
4.63879232881035
 30
0.0
 11
2.897152321882742
 21
4.570780851071539
 31
0.0
  0
LINE
  5
7A7
330
18
100
AcDbEntity
  8
TEXT
100
AcDbLine
 10
3.454986393977335
 20
4.570780851071539
 30
0.0
 11
3.320154484760276
 21
4.570780851071539
 31
0.0
  0
LWPOLYLINE
  5
7A8
330
18
100
AcDbEntity
  8
TEXT
100
AcDbPolyline
 90
        3
 70
     0
 43
0.0
 10
3.284372794047111
 20
4.570780851071543
 10
3.166072635231067
 20
4.570780851071543
 10
3.166072635231067
 20
4.543613354310647
 42
-1.960274751411753
  0
LWPOLYLINE
  5
7A9
330
18
100
AcDbEntity
  8
TEXT
100
AcDbPolyline
 90
        2
 70
     0
 43
0.0
 10
3.130290944517906
 20
4.570780851071543
 42
-0.3328679258950098
 10
3.166072635231067
 20
4.543613354310647
 42
6.772930709997214
  0
LINE
  5
7AA
330
18
100
AcDbEntity
  8
TEXT
100
AcDbLine
 10
3.320154484760276
 20
4.570780851071539
 30
0.0
 11
3.320154484760276
 21
4.542458305301895
 31
0.0
  0
LWPOLYLINE
  5
7AB
330
18
100
AcDbEntity
  8
TEXT
100
AcDbPolyline
 90
        2
 70
     0
 43
0.0
 10
3.284372794047111
 20
4.570780851071543
 42
-0.3277054968067132
 10
3.320154484760276
 20
4.542458305301899
 42
6.667889725900311
  0
LINE
  5
7AC
330
18
100
AcDbEntity
  8
TEXT
100
AcDbLine
 10
3.597843239151877
 20
4.570780851071539
 30
0.0
 11
3.533946332852377
 21
4.570780851071539
 31
0.0
  0
ARC
  5
7AD
330
18
100
AcDbEntity
  8
TEXT
100
AcDbCircle
 10
3.452959454200268
 20
4.529197283950637
 30
0.0
 40
0.0416329381542859
100
AcDbArc
 50
26.56974201007528
 51
87.20939649401342
  0
LINE
  5
7AE
330
18
100
AcDbEntity
  8
TEXT
100
AcDbLine
 10
3.597843239151877
 20
4.543233201210664
 30
0.0
 11
3.597843239151877
 21
4.570780851071539
 31
0.0
  0
ARC
  5
7AF
330
18
100
AcDbEntity
  8
TEXT
100
AcDbCircle
 10
3.629036056214987
 20
4.539535123789274
 30
0.0
 40
0.0314112657011332
100
AcDbArc
 50
95.88484768694724
 51
173.2388340632136
  0
LINE
  5
7B0
330
18
100
AcDbEntity
  8
TEXT
100
AcDbLine
 10
3.88372006307636
 20
4.570780851071539
 30
0.0
 11
3.808728230346734
 21
4.570780851071539
 31
0.0
  0
LINE
  5
7B1
330
18
100
AcDbEntity
  8
TEXT
100
AcDbLine
 10
3.693315193241474
 20
4.63624505683914
 30
0.0
 11
3.693315193241467
 21
4.570780851071539
 31
0.0
  0
LINE
  5
7B2
330
18
100
AcDbEntity
  8
TEXT
100
AcDbLine
 10
3.761630071790747
 20
4.63624505683914
 30
0.0
 11
3.693315193241474
 21
4.63624505683914
 31
0.0
  0
ENDSEC
  0
SECTION
  2
OBJECTS
  0
DICTIONARY
  5
C
330
0
100
AcDbDictionary
  3
ACAD_GROUP
350
D
  3
ACAD_LAYOUT
350
7B7
  3
ACAD_MLINESTYLE
350
E
  3
ACAD_PLOTSETTINGS
350
7B8
  3
ACAD_PLOTSTYLENAME
350
7B5
  3
ACDBHEADERROUNDTRIPXREC
350
7C2
  3
ACDBVARIABLEDICTIONARY
350
7BF
  0
DICTIONARY
  5
7E4
330
18
100
AcDbDictionary
280
     1
  3
ACAD_LAYOUTSELFREF
360
7E5
  0
DICTIONARY
  5
7E2
330
15
100
AcDbDictionary
280
     1
  3
ACAD_LAYOUTSELFREF
360
7E3
  0
DICTIONARY
  5
D
102
{ACAD_REACTORS
330
C
102
}
330
C
100
AcDbDictionary
  3
*A1
350
41C
  3
*A2
350
5D5
  0
DICTIONARY
  5
7B7
102
{ACAD_REACTORS
330
C
102
}
330
C
100
AcDbDictionary
  0
DICTIONARY
  5
E
102
{ACAD_REACTORS
330
C
102
}
330
C
100
AcDbDictionary
  3
STANDARD
350
1B
  0
DICTIONARY
  5
7B8
102
{ACAD_REACTORS
330
C
102
}
330
C
100
AcDbDictionary
  0
ACDBDICTIONARYWDFLT
  5
7B5
102
{ACAD_REACTORS
330
C
102
}
330
C
100
AcDbDictionary
281
     1
  3
Normal
350
7B6
100
AcDbDictionaryWithDefault
340
7B6
  0
DICTIONARY
  5
7C2
102
{ACAD_REACTORS
330
C
102
}
330
C
100
AcDbDictionary
  3
CEPSNTYPE
350
7CC
  3
FINGERPRINTGUID
350
7CD
  3
HYPERLINKBASE
350
7C5
  3
INSUNITS
350
7CB
  3
LAYOUTDICT
350
7C7
  3
LWETCUNION
350
7CA
  3
PLOTSETDICT
350
7C8
  3
PLOTSTYLNAMDICT
350
7C9
  3
PSVPSCALE
350
7CF
  3
PUCSBASE
350
7D2
  3
PUCSORGBACK
350
7D8
  3
PUCSORGBOTTOM
350
7D4
  3
PUCSORGFRONT
350
7D7
  3
PUCSORGLEFT
350
7D5
  3
PUCSORGRIGHT
350
7D6
  3
PUCSORGTOP
350
7D3
  3
PUCSORTHOREF
350
7D0
  3
PUCSORTHOVIEW
350
7D1
  3
STYLESHEET
350
7C6
  3
TSTACKALIGN
350
7C3
  3
TSTACKSIZE
350
7C4
  3
UCSBASE
350
7DB
  3
UCSORGBACK
350
7E1
  3
UCSORGBOTTOM
350
7DD
  3
UCSORGFRONT
350
7E0
  3
UCSORGLEFT
350
7DE
  3
UCSORGRIGHT
350
7DF
  3
UCSORGTOP
350
7DC
  3
UCSORTHOREF
350
7D9
  3
UCSORTHOVIEW
350
7DA
  3
VERSIONGUID
350
7CE
  0
DICTIONARY
  5
7BF
102
{ACAD_REACTORS
330
C
102
}
330
C
100
AcDbDictionary
  3
DIMASSOC
350
7C0
  0
XRECORD
  5
7E5
102
{ACAD_REACTORS
330
7E4
102
}
330
7E4
100
AcDbXrecord
340
18
  0
XRECORD
  5
7E3
102
{ACAD_REACTORS
330
7E2
102
}
330
7E2
100
AcDbXrecord
340
15
  0
GROUP
  5
41C
102
{ACAD_REACTORS
330
D
102
}
330
D
100
AcDbGroup
300
BORDER FRAME 10-1-95
 70
     3
 71
     1
  0
GROUP
  5
5D5
102
{ACAD_REACTORS
330
D
102
}
330
D
100
AcDbGroup
300

 70
     1
 71
     1
  0
MLINESTYLE
  5
1B
102
{ACAD_REACTORS
330
E
102
}
330
E
100
AcDbMlineStyle
  2
STANDARD
 70
     0
  3

 62
     0
 51
90.0
 52
90.0
 71
     2
 49
0.5
 62
   256
  6
BYLAYER
 49
-0.5
 62
   256
  6
BYLAYER
  0
ACDBPLACEHOLDER
  5
7B6
102
{ACAD_REACTORS
330
7B5
102
}
330
7B5
100
AcDbPlaceHolder
280
     0
  0
XRECORD
  5
7CC
102
{ACAD_REACTORS
330
7C2
102
}
330
7C2
100
AcDbXrecord
 90
        0
  0
XRECORD
  5
7CD
102
{ACAD_REACTORS
330
7C2
102
}
330
7C2
100
AcDbXrecord
  1
{5DE42940-8DB7-11D6-88E6-0090279574E7}
  0
XRECORD
  5
7C5
102
{ACAD_REACTORS
330
7C2
102
}
330
7C2
100
AcDbXrecord
  1

  0
XRECORD
  5
7CB
102
{ACAD_REACTORS
330
7C2
102
}
330
7C2
100
AcDbXrecord
 90
        0
  0
XRECORD
  5
7C7
102
{ACAD_REACTORS
330
7C2
102
}
330
7C2
100
AcDbXrecord
340
7B7
  0
XRECORD
  5
7CA
102
{ACAD_REACTORS
330
7C2
102
}
330
7C2
100
AcDbXrecord
 90
    14877
  0
XRECORD
  5
7C8
102
{ACAD_REACTORS
330
7C2
102
}
330
7C2
100
AcDbXrecord
340
7B8
  0
XRECORD
  5
7C9
102
{ACAD_REACTORS
330
7C2
102
}
330
7C2
100
AcDbXrecord
340
7B5
  0
XRECORD
  5
7CF
102
{ACAD_REACTORS
330
7C2
102
}
330
7C2
100
AcDbXrecord
 40
0.0
  0
XRECORD
  5
7D2
102
{ACAD_REACTORS
330
7C2
102
}
330
7C2
100
AcDbXrecord
340
0
  0
XRECORD
  5
7D8
102
{ACAD_REACTORS
330
7C2
102
}
330
7C2
100
AcDbXrecord
 10
0.0
 20
0.0
 30
0.0
  0
XRECORD
  5
7D4
102
{ACAD_REACTORS
330
7C2
102
}
330
7C2
100
AcDbXrecord
 10
0.0
 20
0.0
 30
0.0
  0
XRECORD
  5
7D7
102
{ACAD_REACTORS
330
7C2
102
}
330
7C2
100
AcDbXrecord
 10
0.0
 20
0.0
 30
0.0
  0
XRECORD
  5
7D5
102
{ACAD_REACTORS
330
7C2
102
}
330
7C2
100
AcDbXrecord
 10
0.0
 20
0.0
 30
0.0
  0
XRECORD
  5
7D6
102
{ACAD_REACTORS
330
7C2
102
}
330
7C2
100
AcDbXrecord
 10
0.0
 20
0.0
 30
0.0
  0
XRECORD
  5
7D3
102
{ACAD_REACTORS
330
7C2
102
}
330
7C2
100
AcDbXrecord
 10
0.0
 20
0.0
 30
0.0
  0
XRECORD
  5
7D0
102
{ACAD_REACTORS
330
7C2
102
}
330
7C2
100
AcDbXrecord
340
0
  0
XRECORD
  5
7D1
102
{ACAD_REACTORS
330
7C2
102
}
330
7C2
100
AcDbXrecord
 70
     0
  0
XRECORD
  5
7C6
102
{ACAD_REACTORS
330
7C2
102
}
330
7C2
100
AcDbXrecord
  1

  0
XRECORD
  5
7C3
102
{ACAD_REACTORS
330
7C2
102
}
330
7C2
100
AcDbXrecord
 90
        1
  0
XRECORD
  5
7C4
102
{ACAD_REACTORS
330
7C2
102
}
330
7C2
100
AcDbXrecord
 90
       70
  0
XRECORD
  5
7DB
102
{ACAD_REACTORS
330
7C2
102
}
330
7C2
100
AcDbXrecord
340
0
  0
XRECORD
  5
7E1
102
{ACAD_REACTORS
330
7C2
102
}
330
7C2
100
AcDbXrecord
 10
0.0
 20
0.0
 30
0.0
  0
XRECORD
  5
7DD
102
{ACAD_REACTORS
330
7C2
102
}
330
7C2
100
AcDbXrecord
 10
0.0
 20
0.0
 30
0.0
  0
XRECORD
  5
7E0
102
{ACAD_REACTORS
330
7C2
102
}
330
7C2
100
AcDbXrecord
 10
0.0
 20
0.0
 30
0.0
  0
XRECORD
  5
7DE
102
{ACAD_REACTORS
330
7C2
102
}
330
7C2
100
AcDbXrecord
 10
0.0
 20
0.0
 30
0.0
  0
XRECORD
  5
7DF
102
{ACAD_REACTORS
330
7C2
102
}
330
7C2
100
AcDbXrecord
 10
0.0
 20
0.0
 30
0.0
  0
XRECORD
  5
7DC
102
{ACAD_REACTORS
330
7C2
102
}
330
7C2
100
AcDbXrecord
 10
0.0
 20
0.0
 30
0.0
  0
XRECORD
  5
7D9
102
{ACAD_REACTORS
330
7C2
102
}
330
7C2
100
AcDbXrecord
340
0
  0
XRECORD
  5
7DA
102
{ACAD_REACTORS
330
7C2
102
}
330
7C2
100
AcDbXrecord
 70
     0
  0
XRECORD
  5
7CE
102
{ACAD_REACTORS
330
7C2
102
}
330
7C2
100
AcDbXrecord
  1
{5DE42942-8DB7-11D6-88E6-0090279574E7}
  0
DICTIONARYVAR
  5
7C0
102
{ACAD_REACTORS
330
7BF
102
}
330
7BF
100
DictionaryVariables
280
     0
  1
1
  0
ENDSEC
  0
EOF
