  0
SECTION
  2
HEADER
  9
$ACADVER
  1
AC1014
  9
$ACADMAINTVER
 70
     9
  9
$DWGCODEPAGE
  3
ANSI_1252
  9
$INSBASE
 10
0.0
 20
0.0
 30
0.0
  9
$EXTMIN
 10
2.454715023179423
 20
2.74768323088237
 30
0.0
  9
$EXTMAX
 10
5.939934344926559
 20
4.861630058329044
 30
0.0
  9
$LIMMIN
 10
0.0
 20
0.0
  9
$LIMMAX
 10
18.0
 20
12.0
  9
$ORTHOMODE
 70
     1
  9
$REGENMODE
 70
     1
  9
$FILLMODE
 70
     1
  9
$QTEXTMODE
 70
     0
  9
$MIRRTEXT
 70
     0
  9
$DRAGMODE
 70
     2
  9
$LTSCALE
 40
1.0
  9
$OSMODE
 70
    39
  9
$ATTMODE
 70
     1
  9
$TEXTSIZE
 40
0.125
  9
$TRACEWID
 40
0.05
  9
$TEXTSTYLE
  7
ROMANS
  9
$CLAYER
  8
TEXT
  9
$CELTYPE
  6
BYLAYER
  9
$CECOLOR
 62
   256
  9
$CELTSCALE
 40
1.0
  9
$DELOBJ
 70
     1
  9
$DISPSILH
 70
     1
  9
$DIMSCALE
 40
1.0
  9
$DIMASZ
 40
0.125
  9
$DIMEXO
 40
0.125
  9
$DIMDLI
 40
0.375
  9
$DIMRND
 40
0.0
  9
$DIMDLE
 40
0.0
  9
$DIMEXE
 40
0.125
  9
$DIMTP
 40
0.0
  9
$DIMTM
 40
0.03
  9
$DIMTXT
 40
0.125
  9
$DIMCEN
 40
-0.125
  9
$DIMTSZ
 40
0.0
  9
$DIMTOL
 70
     0
  9
$DIMLIM
 70
     0
  9
$DIMTIH
 70
     1
  9
$DIMTOH
 70
     1
  9
$DIMSE1
 70
     0
  9
$DIMSE2
 70
     1
  9
$DIMTAD
 70
     0
  9
$DIMZIN
 70
     4
  9
$DIMBLK
  1

  9
$DIMASO
 70
     1
  9
$DIMSHO
 70
     1
  9
$DIMPOST
  1

  9
$DIMAPOST
  1

  9
$DIMALT
 70
     0
  9
$DIMALTD
 70
     2
  9
$DIMALTF
 40
25.4
  9
$DIMLFAC
 40
1.0
  9
$DIMTOFL
 70
     0
  9
$DIMTVP
 40
0.0
  9
$DIMTIX
 70
     0
  9
$DIMSOXD
 70
     0
  9
$DIMSAH
 70
     0
  9
$DIMBLK1
  1

  9
$DIMBLK2
  1

  9
$DIMSTYLE
  2
STANDARD
  9
$DIMCLRD
 70
     0
  9
$DIMCLRE
 70
     0
  9
$DIMCLRT
 70
     0
  9
$DIMTFAC
 40
1.0
  9
$DIMGAP
 40
0.09
  9
$DIMJUST
 70
     0
  9
$DIMSD1
 70
     0
  9
$DIMSD2
 70
     0
  9
$DIMTOLJ
 70
     1
  9
$DIMTZIN
 70
     0
  9
$DIMALTZ
 70
     0
  9
$DIMALTTZ
 70
     0
  9
$DIMFIT
 70
     3
  9
$DIMUPT
 70
     0
  9
$DIMUNIT
 70
     2
  9
$DIMDEC
 70
     3
  9
$DIMTDEC
 70
     4
  9
$DIMALTU
 70
     2
  9
$DIMALTTD
 70
     2
  9
$DIMTXSTY
  7
ROMANS
  9
$DIMAUNIT
 70
     0
  9
$LUNITS
 70
     2
  9
$LUPREC
 70
     3
  9
$SKETCHINC
 40
0.1
  9
$FILLETRAD
 40
0.02
  9
$AUNITS
 70
     0
  9
$AUPREC
 70
     0
  9
$MENU
  1
ACAD
  9
$ELEVATION
 40
0.0
  9
$PELEVATION
 40
0.0
  9
$THICKNESS
 40
0.0
  9
$LIMCHECK
 70
     0
  9
$BLIPMODE
 70
     0
  9
$CHAMFERA
 40
0.0
  9
$CHAMFERB
 40
0.0
  9
$CHAMFERC
 40
0.0
  9
$CHAMFERD
 40
0.0
  9
$SKPOLY
 70
     0
  9
$TDCREATE
 40
2448561.653889814
  9
$TDUPDATE
 40
2452458.312149977
  9
$TDINDWG
 40
0.2779487963
  9
$TDUSRTIMER
 40
0.2779487963
  9
$USRTIMER
 70
     1
  9
$ANGBASE
 50
0.0
  9
$ANGDIR
 70
     0
  9
$PDMODE
 70
     0
  9
$PDSIZE
 40
0.0
  9
$PLINEWID
 40
0.0
  9
$COORDS
 70
     2
  9
$SPLFRAME
 70
     0
  9
$SPLINETYPE
 70
     6
  9
$SPLINESEGS
 70
     8
  9
$ATTDIA
 70
     0
  9
$ATTREQ
 70
     1
  9
$HANDLING
 70
 22529
  9
$HANDSEED
  5
387
  9
$SURFTAB1
 70
     6
  9
$SURFTAB2
 70
     6
  9
$SURFTYPE
 70
     6
  9
$SURFU
 70
     6
  9
$SURFV
 70
     6
  9
$UCSNAME
  2

  9
$UCSORG
 10
0.0
 20
0.0
 30
0.0
  9
$UCSXDIR
 10
1.0
 20
0.0
 30
0.0
  9
$UCSYDIR
 10
0.0
 20
1.0
 30
0.0
  9
$PUCSNAME
  2

  9
$PUCSORG
 10
0.0
 20
0.0
 30
0.0
  9
$PUCSXDIR
 10
1.0
 20
0.0
 30
0.0
  9
$PUCSYDIR
 10
0.0
 20
1.0
 30
0.0
  9
$USERI1
 70
     0
  9
$USERI2
 70
     0
  9
$USERI3
 70
     0
  9
$USERI4
 70
     0
  9
$USERI5
 70
     0
  9
$USERR1
 40
0.0
  9
$USERR2
 40
0.0
  9
$USERR3
 40
0.0
  9
$USERR4
 40
0.0
  9
$USERR5
 40
0.0
  9
$WORLDVIEW
 70
     1
  9
$SHADEDGE
 70
     3
  9
$SHADEDIF
 70
    70
  9
$TILEMODE
 70
     1
  9
$MAXACTVP
 70
    16
  9
$PINSBASE
 10
0.0
 20
0.0
 30
0.0
  9
$PLIMCHECK
 70
     0
  9
$PEXTMIN
 10
1.000000000000000E+20
 20
1.000000000000000E+20
 30
1.000000000000000E+20
  9
$PEXTMAX
 10
-1.000000000000000E+20
 20
-1.000000000000000E+20
 30
-1.000000000000000E+20
  9
$PLIMMIN
 10
0.0
 20
0.0
  9
$PLIMMAX
 10
12.0
 20
9.0
  9
$UNITMODE
 70
     0
  9
$VISRETAIN
 70
     0
  9
$PLINEGEN
 70
     1
  9
$PSLTSCALE
 70
     0
  9
$TREEDEPTH
 70
  3020
  9
$PICKSTYLE
 70
     1
  9
$CMLSTYLE
  2
STANDARD
  9
$CMLJUST
 70
     0
  9
$CMLSCALE
 40
1.0
  9
$PROXYGRAPHICS
 70
     1
  9
$MEASUREMENT
 70
     0
  0
ENDSEC
  0
SECTION
  2
CLASSES
  0
CLASS
  1
LWPOLYLINE
  2
AcDbPolyline
  3
AutoCAD 2000
 90
        0
280
     0
281
     1
  0
CLASS
  1
ACDBDICTIONARYWDFLT
  2
AcDbDictionaryWithDefault
  3
AutoCAD 2000
 90
        0
280
     0
281
     0
  0
CLASS
  1
ACDBPLACEHOLDER
  2
AcDbPlaceHolder
  3
AutoCAD 2000
 90
        0
280
     0
281
     0
  0
CLASS
  1
LAYOUT
  2
AcDbLayout
  3
AutoCAD 2000
 90
        0
280
     0
281
     0
  0
CLASS
  1
DICTIONARYVAR
  2
AcDbDictionaryVar
  3
AutoCAD 2000
 90
        0
280
     0
281
     0
  0
CLASS
  1
LONG_TRANSACTION
  2
AcDbLongTransaction
  3
AutoCAD 2000
 90
        0
280
     0
281
     0
  0
CLASS
  1
LWPOLYLINE
  2
AcDbPolyline
  3
AutoCAD 2000
 90
        0
280
     0
281
     1
  0
CLASS
  1
HATCH
  2
AcDbHatch
  3
AutoCAD 2000
 90
        0
280
     0
281
     1
  0
CLASS
  1
XRECORD
  2
AcDbXrecord
  3
AutoCAD 2000
 90
        0
280
     0
281
     0
  0
ENDSEC
  0
SECTION
  2
TABLES
  0
TABLE
  2
VPORT
  5
8
330
0
100
AcDbSymbolTable
 70
     2
  0
VPORT
  5
362
330
8
100
AcDbSymbolTableRecord
100
AcDbViewportTableRecord
  2
*ACTIVE
 70
     0
 10
0.0
 20
0.0
 11
1.0
 21
1.0
 12
7.120488912443064
 22
3.804532992048519
 13
0.0
 23
0.0
 14
0.015625
 24
0.015625
 15
0.0
 25
0.0
 16
0.0
 26
0.0
 36
1.0
 17
0.0
 27
0.0
 37
0.0
 40
2.164529088556843
 41
4.320930232558139
 42
50.0
 43
0.0
 44
0.0
 50
0.0
 51
0.0
 71
     0
 72
  2000
 73
     1
 74
     1
 75
     0
 76
     0
 77
     0
 78
     0
  0
ENDTAB
  0
TABLE
  2
LTYPE
  5
5
330
0
100
AcDbSymbolTable
 70
     1
  0
LTYPE
  5
12
330
5
100
AcDbSymbolTableRecord
100
AcDbLinetypeTableRecord
  2
BYBLOCK
 70
     0
  3

 72
    65
 73
     0
 40
0.0
  0
LTYPE
  5
13
330
5
100
AcDbSymbolTableRecord
100
AcDbLinetypeTableRecord
  2
BYLAYER
 70
     0
  3

 72
    65
 73
     0
 40
0.0
  0
LTYPE
  5
14
330
5
100
AcDbSymbolTableRecord
100
AcDbLinetypeTableRecord
  2
CONTINUOUS
 70
     0
  3
Solid line
 72
    65
 73
     0
 40
0.0
  0
ENDTAB
  0
TABLE
  2
LAYER
  5
2
330
0
100
AcDbSymbolTable
 70
     2
  0
LAYER
  5
F
330
2
100
AcDbSymbolTableRecord
100
AcDbLayerTableRecord
  2
0
 70
     0
 62
     7
  6
CONTINUOUS
  0
LAYER
  5
30
330
2
100
AcDbSymbolTableRecord
100
AcDbLayerTableRecord
  2
TEXT
 70
     0
 62
     3
  6
CONTINUOUS
  0
ENDTAB
  0
TABLE
  2
STYLE
  5
3
330
0
100
AcDbSymbolTable
 70
     3
  0
STYLE
  5
10
330
3
100
AcDbSymbolTableRecord
100
AcDbTextStyleTableRecord
  2
STANDARD
 70
     0
 40
0.0
 41
1.0
 50
0.0
 71
     0
 42
0.125
  3
txt
  4

  0
STYLE
  5
24E
330
3
100
AcDbSymbolTableRecord
100
AcDbTextStyleTableRecord
  2
ITALICC
 70
     0
 40
0.0
 41
1.0
 50
0.0
 71
     0
 42
0.125
  3
italicc
  4

  0
STYLE
  5
35E
330
3
100
AcDbSymbolTableRecord
100
AcDbTextStyleTableRecord
  2
ROMANS
 70
     0
 40
0.0
 41
1.0
 50
0.0
 71
     0
 42
0.125
  3
romans.shx
  4

  0
ENDTAB
  0
TABLE
  2
VIEW
  5
6
330
0
100
AcDbSymbolTable
 70
     0
  0
ENDTAB
  0
TABLE
  2
UCS
  5
7
330
0
100
AcDbSymbolTable
 70
     0
  0
ENDTAB
  0
TABLE
  2
APPID
  5
9
330
0
100
AcDbSymbolTable
 70
     1
  0
APPID
  5
11
330
9
100
AcDbSymbolTableRecord
100
AcDbRegAppTableRecord
  2
ACAD
 70
     0
  0
ENDTAB
  0
TABLE
  2
DIMSTYLE
  5
A
330
0
100
AcDbSymbolTable
 70
     1
  0
DIMSTYLE
105
244
330
A
100
AcDbSymbolTableRecord
100
AcDbDimStyleTableRecord
  2
STANDARD
 70
     0
  3

  4

  5

  6

  7

 40
1.0
 41
0.18
 42
0.0625
 43
0.38
 44
0.18
 45
0.0
 46
0.0
 47
0.0
 48
0.0
140
0.18
141
0.09
142
0.0
143
25.4
144
1.0
145
0.0
146
1.0
147
0.09
 71
     0
 72
     0
 73
     1
 74
     1
 75
     0
 76
     0
 77
     0
 78
     0
170
     0
171
     2
172
     0
173
     0
174
     0
175
     0
176
     0
177
     0
178
     0
270
     2
271
     4
272
     4
273
     2
274
     2
340
10
275
     0
280
     0
281
     0
282
     0
283
     1
284
     0
285
     0
286
     0
287
     3
288
     0
  0
ENDTAB
  0
TABLE
  2
BLOCK_RECORD
  5
1
330
0
100
AcDbSymbolTable
 70
     0
  0
BLOCK_RECORD
  5
18
102
{ACAD_XDICTIONARY
360
385
102
}
330
1
100
AcDbSymbolTableRecord
100
AcDbBlockTableRecord
  2
*MODEL_SPACE
  0
BLOCK_RECORD
  5
15
102
{ACAD_XDICTIONARY
360
383
102
}
330
1
100
AcDbSymbolTableRecord
100
AcDbBlockTableRecord
  2
*PAPER_SPACE
  0
ENDTAB
  0
ENDSEC
  0
SECTION
  2
BLOCKS
  0
BLOCK
  5
36
330
18
100
AcDbEntity
  8
0
100
AcDbBlockBegin
  2
*MODEL_SPACE
 70
     0
 10
0.0
 20
0.0
 30
0.0
  3
*MODEL_SPACE
  1

  0
ENDBLK
  5
37
330
18
100
AcDbEntity
  8
0
100
AcDbBlockEnd
  0
BLOCK
  5
34
330
15
100
AcDbEntity
 67
     1
  8
0
100
AcDbBlockBegin
  2
*PAPER_SPACE
 70
     0
 10
0.0
 20
0.0
 30
0.0
  3
*PAPER_SPACE
  1

  0
ENDBLK
  5
35
330
15
100
AcDbEntity
 67
     1
  8
0
100
AcDbBlockEnd
  0
ENDSEC
  0
SECTION
  2
ENTITIES
  0
LWPOLYLINE
  5
1F9
330
18
100
AcDbEntity
  8
0
100
AcDbPolyline
 90
       24
 70
     1
 43
0.0
 10
3.095656242101272
 20
4.857487922705313
 10
3.180656242101272
 20
4.857487922705313
 42
-0.4142135623730951
 10
3.200656242101272
 20
4.837487922705314
 10
3.200656242101272
 20
3.752487922705314
 42
0.4142135623730951
 10
3.220656242101272
 20
3.732487922705314
 10
5.017656242101272
 20
3.732487922705314
 42
0.4142135623730951
 10
5.037656242101272
 20
3.752487922705314
 10
5.037656242101272
 20
4.837487922705314
 42
-0.4142135623730951
 10
5.057656242101272
 20
4.857487922705313
 10
5.142656242101272
 20
4.857487922705313
 42
-0.4142135623730951
 10
5.162656242101272
 20
4.837487922705314
 10
5.162656242101272
 20
3.752487922705314
 42
0.4142135623730945
 10
5.182656242101272
 20
3.732487922705314
 10
5.357156242101273
 20
3.732487922705314
 42
-0.4142135623730951
 10
5.377156242101272
 20
3.712487922705314
 10
5.377156242101272
 20
3.627487922705314
 42
-0.4142135623730951
 10
5.357156242101273
 20
3.607487922705314
 10
2.881156242101273
 20
3.607487922705314
 42
-0.4142135623730951
 10
2.861156242101273
 20
3.627487922705314
 10
2.861156242101272
 20
3.712487922705314
 42
-0.4142135623730951
 10
2.881156242101272
 20
3.732487922705314
 10
3.055656242101272
 20
3.732487922705314
 42
0.4142135623730951
 10
3.075656242101272
 20
3.752487922705314
 10
3.075656242101272
 20
4.837487922705314
 42
-0.4142135623730951
  0
LINE
  5
2D4
330
18
100
AcDbEntity
  8
TEXT
100
AcDbLine
 10
4.305913073873966
 20
2.949759517190345
 30
0.0
 11
4.305913073873966
 21
3.091089049369484
 31
0.0
  0
LINE
  5
2D5
330
18
100
AcDbEntity
  8
TEXT
100
AcDbLine
 10
4.353011232429949
 20
3.025624843601883
 30
0.0
 11
4.305913073873966
 21
2.949759517190345
 31
0.0
  0
LINE
  5
2D6
330
18
100
AcDbEntity
  8
TEXT
100
AcDbLine
 10
4.363445949193874
 20
2.91573160066091
 30
0.0
 11
4.428003065159579
 21
3.025624843601883
 31
0.0
  0
TEXT
  5
2D7
330
18
100
AcDbEntity
  8
TEXT
100
AcDbText
 10
4.611001760656888
 20
2.945296046225161
 30
0.0
 40
0.0522247191011236
  1
6536 Main St. N.E. * P.O. Box 32008
 41
0.8388932496075355
 72
     5
 11
5.939934344926552
 21
2.945296046225161
 31
0.0
100
AcDbText
  0
ARC
  5
2D8
330
18
100
AcDbEntity
  8
TEXT
100
AcDbCircle
 10
4.165430101358628
 20
2.936442273662455
 30
0.0
 40
0.0249058752826653
100
AcDbArc
 50
89.99971217465335
 51
179.9999999999985
  0
LINE
  5
2D9
330
18
100
AcDbEntity
  8
TEXT
100
AcDbLine
 10
4.078229334935596
 20
2.920412865048456
 30
0.0
 11
4.034478563753694
 21
3.002663141044601
 31
0.0
  0
LINE
  5
2DA
330
18
100
AcDbEntity
  8
TEXT
100
AcDbLine
 10
4.078229334935596
 20
3.025624843601883
 30
0.0
 11
4.078229334935596
 21
2.920412865048456
 31
0.0
  0
ARC
  5
2DB
330
18
100
AcDbEntity
  8
TEXT
100
AcDbCircle
 10
3.970238497716076
 20
2.932988773945121
 30
0.0
 40
0.028359375
100
AcDbArc
 50
25.78218179591245
 51
90.0
  0
LINE
  5
2DC
330
18
100
AcDbEntity
  8
TEXT
100
AcDbLine
 10
3.508244036532328
 20
2.841539648716372
 30
0.0
 11
3.508244036532328
 21
3.093636321340694
 31
0.0
  0
LINE
  5
2DD
330
18
100
AcDbEntity
  8
TEXT
100
AcDbLine
 10
3.540555890669988
 20
3.025624843601883
 30
0.0
 11
3.540555890669988
 21
2.824760636869475
 31
0.0
  0
LINE
  5
2DE
330
18
100
AcDbEntity
  8
TEXT
100
AcDbLine
 10
3.411313411172585
 20
3.025624843601883
 30
0.0
 11
3.352564848366721
 21
2.924752847488763
 31
0.0
  0
LINE
  5
2DF
330
18
100
AcDbEntity
  8
TEXT
100
AcDbLine
 10
3.352564848366721
 20
2.924752847488763
 30
0.0
 11
3.293934527334783
 21
3.025624843601883
 31
0.0
  0
ARC
  5
2E0
330
18
100
AcDbEntity
  8
TEXT
100
AcDbCircle
 10
2.986361203448357
 20
2.943537384155382
 30
0.0
 40
0.0820874594465043
100
AcDbArc
 50
90.0
 51
270.0
  0
LWPOLYLINE
  5
2E1
330
18
100
AcDbEntity
  8
TEXT
100
AcDbPolyline
 90
        2
 70
     0
 43
0.0001332181640625
 10
2.578274870347392
 20
2.952354853367507
 10
2.568283508042702
 20
3.025624843601887
  0
LWPOLYLINE
  5
2E2
330
18
100
AcDbEntity
  8
TEXT
100
AcDbPolyline
 90
        2
 70
     0
 43
0.0001332181640625
 10
2.568283508042702
 20
2.998981210789386
 10
2.578274870347392
 20
2.93903303696126
  0
LWPOLYLINE
  5
2E3
330
18
100
AcDbEntity
  8
TEXT
100
AcDbPolyline
 90
        2
 70
     0
 43
0.0001332181640625
 10
2.608248957261453
 20
2.998981210789386
 10
2.598257594956765
 20
2.93903303696126
  0
LWPOLYLINE
  5
2E4
330
18
100
AcDbEntity
  8
TEXT
100
AcDbPolyline
 90
        2
 70
     0
 43
0.0001332181640625
 10
2.608248957261453
 20
3.025624843601887
 10
2.598257594956765
 20
2.952354853367507
  0
LWPOLYLINE
  5
2E5
330
18
100
AcDbEntity
  8
TEXT
100
AcDbPolyline
 90
        3
 70
     0
 43
0.0006660908203125
 10
2.721484396714579
 20
2.912389404148759
 10
2.721484396714579
 20
3.025624843601887
 10
2.608248957261453
 20
3.025624843601887
  0
LWPOLYLINE
  5
2E6
330
18
100
AcDbEntity
  8
TEXT
100
AcDbPolyline
 90
        3
 70
     0
 43
0.0006660908203125
 10
2.694840763902078
 20
2.912389404148759
 10
2.694840763902078
 20
2.998981210789386
 10
2.608248957261453
 20
2.998981210789386
  0
LWPOLYLINE
  5
2E7
330
18
100
AcDbEntity
  8
TEXT
100
AcDbPolyline
 90
        2
 70
     0
 43
0.0001332181640625
 10
2.694840763902078
 20
2.998981210789386
 10
2.634892590073954
 20
2.93903303696126
  0
LWPOLYLINE
  5
2E8
330
18
100
AcDbEntity
  8
TEXT
100
AcDbPolyline
 90
        2
 70
     0
 43
0.0001332181640625
 10
2.481691701402077
 20
2.998981210789386
 10
2.541639875230202
 20
2.93903303696126
  0
LWPOLYLINE
  5
2E9
330
18
100
AcDbEntity
  8
TEXT
100
AcDbPolyline
 90
        3
 70
     0
 43
0.0006660908203125
 10
2.568283508042702
 20
3.025624843601887
 10
2.455048068589579
 20
3.025624843601887
 10
2.455048068589579
 20
2.912389404148759
  0
LWPOLYLINE
  5
2EA
330
18
100
AcDbEntity
  8
TEXT
100
AcDbPolyline
 90
        3
 70
     0
 43
0.0006660908203125
 10
2.568283508042702
 20
2.998981210789386
 10
2.481691701402077
 20
2.998981210789386
 10
2.481691701402077
 20
2.912389404148759
  0
LINE
  5
2EB
330
18
100
AcDbEntity
  8
TEXT
100
AcDbLine
 10
3.057198669806906
 20
2.92554342733449
 30
0.0
 11
2.991598533562605
 21
2.92554342733449
 31
0.0
  0
LINE
  5
2EC
330
18
100
AcDbEntity
  8
TEXT
100
AcDbLine
 10
2.986361203448357
 20
2.861449924708876
 30
0.0
 11
3.062139043713186
 21
2.861449924708876
 31
0.0
  0
LINE
  5
2ED
330
18
100
AcDbEntity
  8
TEXT
100
AcDbLine
 10
2.904273744001853
 20
2.759151810613373
 30
0.0
 11
3.057198669806906
 21
2.759151810613373
 31
0.0
  0
LINE
  5
2EE
330
18
100
AcDbEntity
  8
TEXT
100
AcDbLine
 10
3.062139043713186
 20
2.827508816946812
 30
0.0
 11
2.904273744001852
 21
2.827508816946812
 31
0.0
  0
LINE
  5
2EF
330
18
100
AcDbEntity
  8
TEXT
100
AcDbLine
 10
2.991598533562605
 20
2.961348148945118
 30
0.0
 11
3.158504187591574
 21
2.961348148945118
 31
0.0
  0
LWPOLYLINE
  5
2F0
330
18
100
AcDbEntity
  8
TEXT
100
AcDbPolyline
 90
        2
 70
     0
 43
0.0006660908203125
 10
2.694840763902078
 20
2.912389404148759
 10
2.721484396714579
 20
2.912389404148759
  0
LWPOLYLINE
  5
2F1
330
18
100
AcDbEntity
  8
TEXT
100
AcDbPolyline
 90
        2
 70
     0
 43
0.0001332181640625
 10
2.648214406480203
 20
2.902398041844071
 10
2.721484396714579
 20
2.912389404148759
  0
LWPOLYLINE
  5
2F2
330
18
100
AcDbEntity
  8
TEXT
100
AcDbPolyline
 90
        2
 70
     0
 43
0.0006660908203125
 10
2.694840763902078
 20
2.872423954930011
 10
2.721484396714579
 20
2.872423954930011
  0
LWPOLYLINE
  5
2F3
330
18
100
AcDbEntity
  8
TEXT
100
AcDbPolyline
 90
        3
 70
     0
 43
0.0006660908203125
 10
2.608248957261453
 20
2.759188515476884
 10
2.721484396714579
 20
2.759188515476884
 10
2.721484396714579
 20
2.872423954930011
  0
LWPOLYLINE
  5
2F4
330
18
100
AcDbEntity
  8
TEXT
100
AcDbPolyline
 90
        2
 70
     0
 43
0.0001332181640625
 10
2.721484396714579
 20
2.872423954930011
 10
2.648214406480203
 20
2.882415317234697
  0
LWPOLYLINE
  5
2F5
330
18
100
AcDbEntity
  8
TEXT
100
AcDbPolyline
 90
        3
 70
     0
 43
0.0006660908203125
 10
2.455048068589579
 20
2.872423954930011
 10
2.455048068589579
 20
2.759188515476884
 10
2.568283508042702
 20
2.759188515476884
  0
LWPOLYLINE
  5
2F6
330
18
100
AcDbEntity
  8
TEXT
100
AcDbPolyline
 90
        3
 70
     0
 43
0.0006660908203125
 10
2.481691701402077
 20
2.872423954930011
 10
2.481691701402077
 20
2.785832148289385
 10
2.568283508042702
 20
2.785832148289385
  0
LWPOLYLINE
  5
2F7
330
18
100
AcDbEntity
  8
TEXT
100
AcDbPolyline
 90
        5
 70
     0
 43
0.0001332181640625
 10
2.578274870347392
 20
2.83245850571126
 10
2.578274870347392
 20
2.84578032211751
 10
2.541639875230204
 20
2.84578032211751
 10
2.541639875230204
 20
2.882415317234697
 10
2.528318058823954
 20
2.882415317234697
  0
LWPOLYLINE
  5
2F8
330
18
100
AcDbEntity
  8
TEXT
100
AcDbPolyline
 90
        5
 70
     0
 43
0.0001332181640625
 10
2.528318058823954
 20
2.902398041844071
 10
2.541639875230202
 20
2.902398041844071
 10
2.541639875230202
 20
2.93903303696126
 10
2.578274870347392
 20
2.93903303696126
 10
2.578274870347392
 20
2.952354853367507
  0
LWPOLYLINE
  5
2F9
330
18
100
AcDbEntity
  8
TEXT
100
AcDbPolyline
 90
        2
 70
     0
 43
0.0001332181640625
 10
2.481691701402077
 20
2.912389404148759
 10
2.541639875230202
 20
2.902398041844071
  0
LWPOLYLINE
  5
2FA
330
18
100
AcDbEntity
  8
TEXT
100
AcDbPolyline
 90
        2
 70
     0
 43
0.0001332181640625
 10
2.455048068589579
 20
2.912389404148759
 10
2.528318058823954
 20
2.902398041844071
  0
LWPOLYLINE
  5
2FB
330
18
100
AcDbEntity
  8
TEXT
100
AcDbPolyline
 90
        2
 70
     0
 43
0.0006660908203125
 10
2.481691701402077
 20
2.912389404148759
 10
2.455048068589579
 20
2.912389404148759
  0
LWPOLYLINE
  5
2FC
330
18
100
AcDbEntity
  8
TEXT
100
AcDbPolyline
 90
        2
 70
     0
 43
0.0001332181640625
 10
2.481691701402077
 20
2.785832148289385
 10
2.541639875230204
 20
2.84578032211751
  0
LWPOLYLINE
  5
2FD
330
18
100
AcDbEntity
  8
TEXT
100
AcDbPolyline
 90
        2
 70
     0
 43
0.0006660908203125
 10
2.481691701402077
 20
2.872423954930011
 10
2.455048068589579
 20
2.872423954930011
  0
LWPOLYLINE
  5
2FE
330
18
100
AcDbEntity
  8
TEXT
100
AcDbPolyline
 90
        2
 70
     0
 43
0.0001332181640625
 10
2.528318058823954
 20
2.882415317234697
 10
2.455048068589579
 20
2.872423954930011
  0
LWPOLYLINE
  5
2FF
330
18
100
AcDbEntity
  8
TEXT
100
AcDbPolyline
 90
        2
 70
     0
 43
0.0001332181640625
 10
2.481691701402077
 20
2.872423954930011
 10
2.541639875230204
 20
2.882415317234697
  0
LWPOLYLINE
  5
300
330
18
100
AcDbEntity
  8
TEXT
100
AcDbPolyline
 90
        5
 70
     0
 43
0.0001332181640625
 10
2.598257594956765
 20
2.952354853367507
 10
2.598257594956765
 20
2.93903303696126
 10
2.634892590073954
 20
2.93903303696126
 10
2.634892590073954
 20
2.902398041844071
 10
2.648214406480203
 20
2.902398041844071
  0
LWPOLYLINE
  5
301
330
18
100
AcDbEntity
  8
TEXT
100
AcDbPolyline
 90
        2
 70
     0
 43
0.0001332181640625
 10
2.694840763902078
 20
2.912389404148759
 10
2.634892590073954
 20
2.902398041844071
  0
LWPOLYLINE
  5
302
330
18
100
AcDbEntity
  8
TEXT
100
AcDbPolyline
 90
        2
 70
     0
 43
0.0006660908203125
 10
2.568283508042702
 20
2.785832148289385
 10
2.568283508042702
 20
2.759188515476884
  0
LWPOLYLINE
  5
303
330
18
100
AcDbEntity
  8
TEXT
100
AcDbPolyline
 90
        2
 70
     0
 43
0.0001332181640625
 10
2.568283508042702
 20
2.785832148289385
 10
2.578274870347392
 20
2.84578032211751
  0
LWPOLYLINE
  5
304
330
18
100
AcDbEntity
  8
TEXT
100
AcDbPolyline
 90
        2
 70
     0
 43
0.0001332181640625
 10
2.568283508042702
 20
2.759188515476884
 10
2.578274870347392
 20
2.83245850571126
  0
LWPOLYLINE
  5
305
330
18
100
AcDbEntity
  8
TEXT
100
AcDbPolyline
 90
        2
 70
     0
 43
0.0001332181640625
 10
2.608248957261453
 20
2.785832148289385
 10
2.598257594956765
 20
2.84578032211751
  0
LWPOLYLINE
  5
306
330
18
100
AcDbEntity
  8
TEXT
100
AcDbPolyline
 90
        2
 70
     0
 43
0.0001332181640625
 10
2.598257594956765
 20
2.83245850571126
 10
2.608248957261453
 20
2.759188515476884
  0
LWPOLYLINE
  5
307
330
18
100
AcDbEntity
  8
TEXT
100
AcDbPolyline
 90
        2
 70
     0
 43
0.0006660908203125
 10
2.608248957261453
 20
2.785832148289385
 10
2.608248957261453
 20
2.759188515476884
  0
LWPOLYLINE
  5
308
330
18
100
AcDbEntity
  8
TEXT
100
AcDbPolyline
 90
        2
 70
     0
 43
0.0001332181640625
 10
2.694840763902078
 20
2.785832148289385
 10
2.634892590073954
 20
2.84578032211751
  0
LWPOLYLINE
  5
309
330
18
100
AcDbEntity
  8
TEXT
100
AcDbPolyline
 90
        3
 70
     0
 43
0.0006660908203125
 10
2.608248957261453
 20
2.785832148289385
 10
2.694840763902078
 20
2.785832148289385
 10
2.694840763902078
 20
2.872423954930011
  0
LWPOLYLINE
  5
30A
330
18
100
AcDbEntity
  8
TEXT
100
AcDbPolyline
 90
        2
 70
     0
 43
0.0001332181640625
 10
2.694840763902078
 20
2.872423954930011
 10
2.634892590073954
 20
2.882415317234697
  0
LWPOLYLINE
  5
30B
330
18
100
AcDbEntity
  8
TEXT
100
AcDbPolyline
 90
        5
 70
     0
 43
0.0001332181640625
 10
2.648214406480203
 20
2.882415317234697
 10
2.634892590073954
 20
2.882415317234697
 10
2.634892590073954
 20
2.84578032211751
 10
2.598257594956765
 20
2.84578032211751
 10
2.598257594956765
 20
2.83245850571126
  0
ARC
  5
30C
330
18
100
AcDbEntity
  8
TEXT
100
AcDbCircle
 10
2.991598533562605
 20
2.943445788139806
 30
0.0
 40
0.017902360805315
100
AcDbArc
 50
90.0
 51
270.0
  0
LINE
  5
30D
330
18
100
AcDbEntity
  8
TEXT
100
AcDbLine
 10
2.904273744001852
 20
2.827508816946812
 30
0.0
 11
2.904273744001853
 21
2.759151810613373
 31
0.0
  0
TEXT
  5
30E
330
18
100
AcDbEntity
  8
TEXT
100
AcDbText
 10
4.611001760656888
 20
2.758779192292577
 30
0.0
 40
0.0522247191011236
  1
Phone  1-800-328-2495
 41
1.272321428571429
 72
     5
 11
5.939934344926552
 21
2.758779192292577
 31
0.0
100
AcDbText
  0
TEXT
  5
30F
330
18
100
AcDbEntity
  8
TEXT
100
AcDbText
 10
4.611001760656888
 20
2.852037619258869
 30
0.0
 40
0.0522247191011236
  1
Minneapolis, MN 55432-0008
 41
1.11444212721585
 72
     5
 11
5.939934344926552
 21
2.852037619258869
 31
0.0
100
AcDbText
  0
LINE
  5
310
330
18
100
AcDbEntity
  8
TEXT
100
AcDbLine
 10
4.16543010135863
 20
2.961348148945118
 30
0.0
 11
4.242078082651186
 21
2.961348148945118
 31
0.0
  0
LINE
  5
311
330
18
100
AcDbEntity
  8
TEXT
100
AcDbLine
 10
3.607386943727956
 20
2.961348148945118
 30
0.0
 11
3.657222223551105
 21
2.961348148945118
 31
0.0
  0
ARC
  5
312
330
18
100
AcDbEntity
  8
TEXT
100
AcDbCircle
 10
3.308921051457552
 20
2.798699532887068
 30
0.0
 40
0.0392772371940762
100
AcDbArc
 50
270.1604552698595
 51
330.0831797321295
  0
ARC
  5
313
330
18
100
AcDbEntity
  8
TEXT
100
AcDbCircle
 10
3.218620205565327
 20
2.818944201951422
 30
0.0
 40
0.0601160179737537
100
AcDbArc
 50
180.0000000000003
 51
264.0521544866073
  0
LINE
  5
314
330
18
100
AcDbEntity
  8
TEXT
100
AcDbLine
 10
3.158504187591574
 20
2.961348148945118
 30
0.0
 11
3.158504187591574
 21
2.818944201951422
 31
0.0
  0
ARC
  5
315
330
18
100
AcDbEntity
  8
TEXT
100
AcDbCircle
 10
3.062139043713186
 20
2.844479370827846
 30
0.0
 40
0.0169705538810321
100
AcDbArc
 50
270.0
 51
90.0
  0
ARC
  5
316
330
18
100
AcDbEntity
  8
TEXT
100
AcDbCircle
 10
3.057198669806906
 20
2.84234761897393
 30
0.0
 40
0.0831958083605586
100
AcDbArc
 50
270.0
 51
90.0
  0
LWPOLYLINE
  5
317
330
18
100
AcDbEntity
  8
TEXT
100
AcDbPolyline
 90
        6
 70
     1
 43
0.0
 10
3.254914598646831
 20
2.961348148945118
 10
3.224598004426622
 20
2.961348148945118
 10
3.224598004426622
 20
2.838237150890224
 42
0.407328721240804
 10
3.236141655588099
 20
2.826418236213838
 10
3.29676335463283
 20
2.826418236213838
 10
3.314228695040148
 20
2.859230465257317
  0
LINE
  5
318
330
18
100
AcDbEntity
  8
TEXT
100
AcDbLine
 10
3.21239079507168
 20
2.759151810613373
 30
0.0
 11
3.309031046146674
 21
2.759422449711655
 31
0.0
  0
LWPOLYLINE
  5
319
330
18
100
AcDbEntity
  8
TEXT
100
AcDbPolyline
 90
        2
 70
     0
 43
0.0
 10
3.44026431746321
 20
2.810703152828301
 42
0.3318488747599744
 10
3.509383610028523
 20
2.759151810613373
 42
-6.868794160588311
  0
LINE
  5
31A
330
18
100
AcDbEntity
  8
TEXT
100
AcDbLine
 10
3.44026431746321
 20
2.943460527653654
 30
0.0
 11
3.44026431746321
 21
2.810703152828297
 31
0.0
  0
LINE
  5
31B
330
18
100
AcDbEntity
  8
TEXT
100
AcDbLine
 10
3.342964611369765
 20
2.779110316718385
 30
0.0
 11
3.44026431746321
 21
2.943460527653654
 31
0.0
  0
ARC
  5
31C
330
18
100
AcDbEntity
  8
TEXT
100
AcDbCircle
 10
3.523562253785385
 20
2.840142443112901
 30
0.0
 40
0.0153818062434269
100
AcDbArc
 50
174.7883570302258
 51
270.0
  0
LINE
  5
31D
330
18
100
AcDbEntity
  8
TEXT
100
AcDbLine
 10
3.540555890669988
 20
2.824760636869475
 30
0.0
 11
3.523562253785385
 21
2.824760636869475
 31
0.0
  0
LINE
  5
31E
330
18
100
AcDbEntity
  8
TEXT
100
AcDbLine
 10
3.509383610028521
 20
2.759151810613373
 30
0.0
 11
3.607386943727956
 21
2.759151810613373
 31
0.0
  0
LINE
  5
31F
330
18
100
AcDbEntity
  8
TEXT
100
AcDbLine
 10
3.607386943727956
 20
2.759151810613373
 30
0.0
 11
3.607386943727956
 21
2.961348148945118
 31
0.0
  0
LINE
  5
320
330
18
100
AcDbEntity
  8
TEXT
100
AcDbLine
 10
3.970238497716078
 20
2.961348148945118
 30
0.0
 11
3.863032224328787
 21
2.961348148945118
 31
0.0
  0
LINE
  5
321
330
18
100
AcDbEntity
  8
TEXT
100
AcDbLine
 10
3.923751583236814
 20
2.924073175482986
 30
0.0
 11
4.006039573020199
 21
2.924073175482986
 31
0.0
  0
LWPOLYLINE
  5
322
330
18
100
AcDbEntity
  8
TEXT
100
AcDbPolyline
 90
        4
 70
     1
 43
0.0
 10
4.018970614303098
 20
2.862115788597398
 10
3.93031029564324
 20
2.862115788597398
 42
0.9999999999999998
 10
3.93031029564324
 20
2.819717248093537
 10
4.018970614303098
 20
2.819717248093537
 42
1.0
  0
LWPOLYLINE
  5
323
330
18
100
AcDbEntity
  8
TEXT
100
AcDbPolyline
 90
        2
 70
     0
 43
0.0
 10
3.905075661741614
 20
2.759151810613373
 10
4.039093079372991
 20
2.759151810613373
 42
0.9999999999999998
  0
LINE
  5
324
330
18
100
AcDbEntity
  8
TEXT
100
AcDbLine
 10
3.731834059499057
 20
2.961348148945118
 30
0.0
 11
3.785967656420009
 21
2.961348148945118
 31
0.0
  0
LINE
  5
325
330
18
100
AcDbEntity
  8
TEXT
100
AcDbLine
 10
3.664776012717219
 20
2.759151810613373
 30
0.0
 11
3.731834059499057
 21
2.759151810613373
 31
0.0
  0
LINE
  5
326
330
18
100
AcDbEntity
  8
TEXT
100
AcDbLine
 10
3.731834059499057
 20
2.759151810613373
 30
0.0
 11
3.731834059499057
 21
2.961348148945118
 31
0.0
  0
LINE
  5
327
330
18
100
AcDbEntity
  8
TEXT
100
AcDbLine
 10
3.664776012717219
 20
2.953794359779008
 30
0.0
 11
3.664776012717219
 21
2.759151810613373
 31
0.0
  0
LWPOLYLINE
  5
328
330
18
100
AcDbEntity
  8
TEXT
100
AcDbPolyline
 90
        2
 70
     0
 43
0.0
 10
3.657222223551103
 20
2.961348148945118
 42
-0.4142135623731017
 10
3.664776012717217
 20
2.953794359779008
 42
-0.9999999999999998
  0
LINE
  5
329
330
18
100
AcDbEntity
  8
TEXT
100
AcDbLine
 10
3.863032224328787
 20
2.961348148945118
 30
0.0
 11
3.863032224328787
 21
2.886295742870911
 31
0.0
  0
ARC
  5
32A
330
18
100
AcDbEntity
  8
TEXT
100
AcDbCircle
 10
3.923751583236814
 20
2.856387594338867
 30
0.0
 40
0.0676855811441166
100
AcDbArc
 50
90.0
 51
153.7768192527749
  0
LWPOLYLINE
  5
32B
330
18
100
AcDbEntity
  8
TEXT
100
AcDbPolyline
 90
        2
 70
     0
 43
0.0
 10
3.861999728873978
 20
2.802642755563811
 42
0.2901071551932823
 10
3.905075661741614
 20
2.759151810613373
 42
5.328517124445801
  0
LWPOLYLINE
  5
32C
330
18
100
AcDbEntity
  8
TEXT
100
AcDbPolyline
 90
        2
 70
     0
 43
0.0
 10
3.785967656420007
 20
2.961348148945118
 42
-0.4142135623731017
 10
3.793521445586121
 20
2.953794359779008
 42
-0.9999999999999998
  0
LWPOLYLINE
  5
32D
330
18
100
AcDbEntity
  8
TEXT
100
AcDbPolyline
 90
        4
 70
     0
 43
0.0
 10
3.793521445586121
 20
2.953794359779008
 10
3.793521445586121
 20
2.759151810613373
 10
3.861999728873978
 20
2.759151810613373
 10
3.861999728873978
 20
2.802642755563811
 42
-1.714843617202739
  0
LWPOLYLINE
  5
32E
330
18
100
AcDbEntity
  8
TEXT
100
AcDbPolyline
 90
        2
 70
     0
 43
0.0
 10
4.082169012240635
 20
2.802642755563811
 42
-0.2901071551932486
 10
4.039093079372991
 20
2.759151810613373
 42
-5.328517124445184
  0
LWPOLYLINE
  5
32F
330
18
100
AcDbEntity
  8
TEXT
100
AcDbPolyline
 90
        2
 70
     0
 43
0.0
 10
4.082169012240635
 20
2.759151810613373
 10
4.140524226075969
 20
2.759151810613373
  0
LWPOLYLINE
  5
330
330
18
100
AcDbEntity
  8
TEXT
100
AcDbPolyline
 90
        2
 70
     0
 43
0.0
 10
4.082169012240635
 20
2.802642755563811
 10
4.082169012240635
 20
2.759151810613373
  0
LINE
  5
331
330
18
100
AcDbEntity
  8
TEXT
100
AcDbLine
 10
4.006039573020199
 20
2.924073175482986
 30
0.0
 11
3.995774812606633
 21
2.94532371505568
 31
0.0
  0
LINE
  5
332
330
18
100
AcDbEntity
  8
TEXT
100
AcDbLine
 10
4.140524226075971
 20
2.759151810613373
 30
0.0
 11
4.140524226075964
 21
2.936442316044841
 31
0.0
  0
LINE
  5
333
330
18
100
AcDbEntity
  8
TEXT
100
AcDbLine
 10
4.458938172557484
 20
2.759151810613373
 30
0.0
 11
4.363445949193874
 21
2.91573160066091
 31
0.0
  0
LINE
  5
334
330
18
100
AcDbEntity
  8
TEXT
100
AcDbLine
 10
4.382359800181276
 20
2.759151810613373
 30
0.0
 11
4.458938172557484
 21
2.759151810613373
 31
0.0
  0
LINE
  5
335
330
18
100
AcDbEntity
  8
TEXT
100
AcDbLine
 10
4.242078082651193
 20
2.759151810613373
 30
0.0
 11
4.306456266969814
 21
2.759151810613373
 31
0.0
  0
LINE
  5
336
330
18
100
AcDbEntity
  8
TEXT
100
AcDbLine
 10
4.242078082651186
 20
2.961348148945118
 30
0.0
 11
4.242078082651193
 21
2.759151810613373
 31
0.0
  0
LINE
  5
337
330
18
100
AcDbEntity
  8
TEXT
100
AcDbLine
 10
4.306456266969814
 20
2.890731379089553
 30
0.0
 11
4.382359800181276
 21
2.759151810613373
 31
0.0
  0
LINE
  5
338
330
18
100
AcDbEntity
  8
TEXT
100
AcDbLine
 10
4.306456266969814
 20
2.759151810613373
 30
0.0
 11
4.306456266969814
 21
2.890731379089553
 31
0.0
  0
LINE
  5
339
330
18
100
AcDbEntity
  8
TEXT
100
AcDbLine
 10
3.162092956346867
 20
3.025624843601883
 30
0.0
 11
2.986361203448357
 21
3.025624843601883
 31
0.0
  0
LWPOLYLINE
  5
33A
330
18
100
AcDbEntity
  8
TEXT
100
AcDbPolyline
 90
        2
 70
     0
 43
0.0006660908203125
 10
2.568283508042702
 20
2.998981210789386
 10
2.568283508042702
 20
3.025624843601887
  0
LWPOLYLINE
  5
33B
330
18
100
AcDbEntity
  8
TEXT
100
AcDbPolyline
 90
        2
 70
     0
 43
0.0006660908203125
 10
2.608248957261453
 20
2.998981210789386
 10
2.608248957261453
 20
3.025624843601887
  0
TEXT
  5
33C
330
18
100
AcDbEntity
  8
TEXT
100
AcDbText
 10
4.611001760656888
 20
3.038554473191453
 30
0.0
 40
0.0522247191011236
  1
Stylmark  Incorporated
 41
1.221428571428571
 72
     5
 11
5.939934344926552
 21
3.038554473191453
 31
0.0
100
AcDbText
  0
LINE
  5
33D
330
18
100
AcDbEntity
  8
TEXT
100
AcDbLine
 10
4.237598195324686
 20
3.025624843601883
 30
0.0
 11
4.170098477675171
 21
3.025624843601883
 31
0.0
  0
TEXT
  5
33E
330
18
100
AcDbEntity
  8
TEXT
100
AcDbText
 10
3.444720411930376
 20
3.205701834964952
 30
0.0
 40
0.125
  1
PART #110428
  7
ITALICC
 72
     1
 11
4.197696602406566
 21
3.205701834964952
 31
0.0
100
AcDbText
  0
LINE
  5
33F
330
18
100
AcDbEntity
  8
TEXT
100
AcDbLine
 10
3.674573946601125
 20
3.025624843601883
 30
0.0
 11
3.540555890669988
 21
3.025624843601883
 31
0.0
  0
LINE
  5
340
330
18
100
AcDbEntity
  8
TEXT
100
AcDbLine
 10
3.222135561190874
 20
3.060012761196022
 30
0.0
 11
3.162092956346867
 21
3.060012761196022
 31
0.0
  0
LINE
  5
341
330
18
100
AcDbEntity
  8
TEXT
100
AcDbLine
 10
3.162092956346867
 20
3.060012761196022
 30
0.0
 11
3.162092956346867
 21
3.025624843601883
 31
0.0
  0
LINE
  5
342
330
18
100
AcDbEntity
  8
TEXT
100
AcDbLine
 10
3.293934527334783
 20
3.025624843601883
 30
0.0
 11
3.222135561190874
 21
3.025624843601883
 31
0.0
  0
LINE
  5
343
330
18
100
AcDbEntity
  8
TEXT
100
AcDbLine
 10
3.222135561190874
 20
3.025624843601883
 30
0.0
 11
3.222135561190874
 21
3.060012761196022
 31
0.0
  0
LINE
  5
344
330
18
100
AcDbEntity
  8
TEXT
100
AcDbLine
 10
3.508244036532328
 20
3.093636321340694
 30
0.0
 11
3.441435323965961
 21
3.093636321340694
 31
0.0
  0
LINE
  5
345
330
18
100
AcDbEntity
  8
TEXT
100
AcDbLine
 10
3.441435323965961
 20
3.025624843601883
 30
0.0
 11
3.411313411172585
 21
3.025624843601883
 31
0.0
  0
LINE
  5
346
330
18
100
AcDbEntity
  8
TEXT
100
AcDbLine
 10
3.441435323965961
 20
3.093636321340694
 30
0.0
 11
3.441435323965961
 21
3.025624843601883
 31
0.0
  0
LINE
  5
347
330
18
100
AcDbEntity
  8
TEXT
100
AcDbLine
 10
3.999269396060554
 20
3.025624843601883
 30
0.0
 11
3.864437486843495
 21
3.025624843601883
 31
0.0
  0
LWPOLYLINE
  5
348
330
18
100
AcDbEntity
  8
TEXT
100
AcDbPolyline
 90
        3
 70
     0
 43
0.0
 10
3.82865579613033
 20
3.025624843601887
 10
3.710355637314286
 20
3.025624843601887
 10
3.710355637314286
 20
2.998457346840991
 42
-1.960274751411753
  0
LWPOLYLINE
  5
349
330
18
100
AcDbEntity
  8
TEXT
100
AcDbPolyline
 90
        2
 70
     0
 43
0.0
 10
3.674573946601125
 20
3.025624843601887
 42
-0.3328679258950098
 10
3.710355637314286
 20
2.998457346840991
 42
6.772930709997214
  0
LINE
  5
34A
330
18
100
AcDbEntity
  8
TEXT
100
AcDbLine
 10
3.864437486843495
 20
3.025624843601883
 30
0.0
 11
3.864437486843495
 21
2.99730229783224
 31
0.0
  0
LWPOLYLINE
  5
34B
330
18
100
AcDbEntity
  8
TEXT
100
AcDbPolyline
 90
        2
 70
     0
 43
0.0
 10
3.82865579613033
 20
3.025624843601887
 42
-0.3277054968067132
 10
3.864437486843495
 20
2.997302297832243
 42
6.667889725900311
  0
LINE
  5
34C
330
18
100
AcDbEntity
  8
TEXT
100
AcDbLine
 10
4.142126241235096
 20
3.025624843601883
 30
0.0
 11
4.078229334935596
 21
3.025624843601883
 31
0.0
  0
ARC
  5
34D
330
18
100
AcDbEntity
  8
TEXT
100
AcDbCircle
 10
3.997242456283487
 20
2.984041276480981
 30
0.0
 40
0.0416329381542859
100
AcDbArc
 50
26.56974201007528
 51
87.20939649401342
  0
LINE
  5
34E
330
18
100
AcDbEntity
  8
TEXT
100
AcDbLine
 10
4.142126241235096
 20
2.998077193741009
 30
0.0
 11
4.142126241235096
 21
3.025624843601883
 31
0.0
  0
ARC
  5
34F
330
18
100
AcDbEntity
  8
TEXT
100
AcDbCircle
 10
4.173319058298206
 20
2.994379116319619
 30
0.0
 40
0.0314112657011332
100
AcDbArc
 50
95.88484768694724
 51
173.2388340632136
  0
LINE
  5
350
330
18
100
AcDbEntity
  8
TEXT
100
AcDbLine
 10
4.428003065159579
 20
3.025624843601883
 30
0.0
 11
4.353011232429953
 21
3.025624843601883
 31
0.0
  0
LINE
  5
351
330
18
100
AcDbEntity
  8
TEXT
100
AcDbLine
 10
4.237598195324693
 20
3.091089049369484
 30
0.0
 11
4.237598195324686
 21
3.025624843601883
 31
0.0
  0
LINE
  5
352
330
18
100
AcDbEntity
  8
TEXT
100
AcDbLine
 10
4.305913073873966
 20
3.091089049369484
 30
0.0
 11
4.237598195324693
 21
3.091089049369484
 31
0.0
  0
ENDSEC
  0
SECTION
  2
OBJECTS
  0
DICTIONARY
  5
C
330
0
100
AcDbDictionary
  3
ACAD_GROUP
350
D
  3
ACAD_LAYOUT
350
357
  3
ACAD_MLINESTYLE
350
E
  3
ACAD_PLOTSETTINGS
350
358
  3
ACAD_PLOTSTYLENAME
350
355
  3
ACDBHEADERROUNDTRIPXREC
350
363
  3
ACDBVARIABLEDICTIONARY
350
360
  0
DICTIONARY
  5
385
330
18
100
AcDbDictionary
280
     1
  3
ACAD_LAYOUTSELFREF
360
386
  0
DICTIONARY
  5
383
330
15
100
AcDbDictionary
280
     1
  3
ACAD_LAYOUTSELFREF
360
384
  0
DICTIONARY
  5
D
102
{ACAD_REACTORS
330
C
102
}
330
C
100
AcDbDictionary
  0
DICTIONARY
  5
357
102
{ACAD_REACTORS
330
C
102
}
330
C
100
AcDbDictionary
  0
DICTIONARY
  5
E
102
{ACAD_REACTORS
330
C
102
}
330
C
100
AcDbDictionary
  3
STANDARD
350
1B
  0
DICTIONARY
  5
358
102
{ACAD_REACTORS
330
C
102
}
330
C
100
AcDbDictionary
  0
ACDBDICTIONARYWDFLT
  5
355
102
{ACAD_REACTORS
330
C
102
}
330
C
100
AcDbDictionary
281
     1
  3
Normal
350
356
100
AcDbDictionaryWithDefault
340
356
  0
DICTIONARY
  5
363
102
{ACAD_REACTORS
330
C
102
}
330
C
100
AcDbDictionary
  3
CEPSNTYPE
350
36D
  3
FINGERPRINTGUID
350
36E
  3
HYPERLINKBASE
350
366
  3
INSUNITS
350
36C
  3
LAYOUTDICT
350
368
  3
LWETCUNION
350
36B
  3
PLOTSETDICT
350
369
  3
PLOTSTYLNAMDICT
350
36A
  3
PSVPSCALE
350
370
  3
PUCSBASE
350
373
  3
PUCSORGBACK
350
379
  3
PUCSORGBOTTOM
350
375
  3
PUCSORGFRONT
350
378
  3
PUCSORGLEFT
350
376
  3
PUCSORGRIGHT
350
377
  3
PUCSORGTOP
350
374
  3
PUCSORTHOREF
350
371
  3
PUCSORTHOVIEW
350
372
  3
STYLESHEET
350
367
  3
TSTACKALIGN
350
364
  3
TSTACKSIZE
350
365
  3
UCSBASE
350
37C
  3
UCSORGBACK
350
382
  3
UCSORGBOTTOM
350
37E
  3
UCSORGFRONT
350
381
  3
UCSORGLEFT
350
37F
  3
UCSORGRIGHT
350
380
  3
UCSORGTOP
350
37D
  3
UCSORTHOREF
350
37A
  3
UCSORTHOVIEW
350
37B
  3
VERSIONGUID
350
36F
  0
DICTIONARY
  5
360
102
{ACAD_REACTORS
330
C
102
}
330
C
100
AcDbDictionary
  3
DIMASSOC
350
361
  0
XRECORD
  5
386
102
{ACAD_REACTORS
330
385
102
}
330
385
100
AcDbXrecord
340
18
  0
XRECORD
  5
384
102
{ACAD_REACTORS
330
383
102
}
330
383
100
AcDbXrecord
340
15
  0
MLINESTYLE
  5
1B
102
{ACAD_REACTORS
330
E
102
}
330
E
100
AcDbMlineStyle
  2
STANDARD
 70
     0
  3

 62
     0
 51
90.0
 52
90.0
 71
     2
 49
0.5
 62
   256
  6
BYLAYER
 49
-0.5
 62
   256
  6
BYLAYER
  0
ACDBPLACEHOLDER
  5
356
102
{ACAD_REACTORS
330
355
102
}
330
355
100
AcDbPlaceHolder
280
     0
  0
XRECORD
  5
36D
102
{ACAD_REACTORS
330
363
102
}
330
363
100
AcDbXrecord
 90
        0
  0
XRECORD
  5
36E
102
{ACAD_REACTORS
330
363
102
}
330
363
100
AcDbXrecord
  1
{593F5160-8DB7-11D6-88E6-0090279574E7}
  0
XRECORD
  5
366
102
{ACAD_REACTORS
330
363
102
}
330
363
100
AcDbXrecord
  1

  0
XRECORD
  5
36C
102
{ACAD_REACTORS
330
363
102
}
330
363
100
AcDbXrecord
 90
        0
  0
XRECORD
  5
368
102
{ACAD_REACTORS
330
363
102
}
330
363
100
AcDbXrecord
340
357
  0
XRECORD
  5
36B
102
{ACAD_REACTORS
330
363
102
}
330
363
100
AcDbXrecord
 90
    14877
  0
XRECORD
  5
369
102
{ACAD_REACTORS
330
363
102
}
330
363
100
AcDbXrecord
340
358
  0
XRECORD
  5
36A
102
{ACAD_REACTORS
330
363
102
}
330
363
100
AcDbXrecord
340
355
  0
XRECORD
  5
370
102
{ACAD_REACTORS
330
363
102
}
330
363
100
AcDbXrecord
 40
0.0
  0
XRECORD
  5
373
102
{ACAD_REACTORS
330
363
102
}
330
363
100
AcDbXrecord
340
0
  0
XRECORD
  5
379
102
{ACAD_REACTORS
330
363
102
}
330
363
100
AcDbXrecord
 10
0.0
 20
0.0
 30
0.0
  0
XRECORD
  5
375
102
{ACAD_REACTORS
330
363
102
}
330
363
100
AcDbXrecord
 10
0.0
 20
0.0
 30
0.0
  0
XRECORD
  5
378
102
{ACAD_REACTORS
330
363
102
}
330
363
100
AcDbXrecord
 10
0.0
 20
0.0
 30
0.0
  0
XRECORD
  5
376
102
{ACAD_REACTORS
330
363
102
}
330
363
100
AcDbXrecord
 10
0.0
 20
0.0
 30
0.0
  0
XRECORD
  5
377
102
{ACAD_REACTORS
330
363
102
}
330
363
100
AcDbXrecord
 10
0.0
 20
0.0
 30
0.0
  0
XRECORD
  5
374
102
{ACAD_REACTORS
330
363
102
}
330
363
100
AcDbXrecord
 10
0.0
 20
0.0
 30
0.0
  0
XRECORD
  5
371
102
{ACAD_REACTORS
330
363
102
}
330
363
100
AcDbXrecord
340
0
  0
XRECORD
  5
372
102
{ACAD_REACTORS
330
363
102
}
330
363
100
AcDbXrecord
 70
     0
  0
XRECORD
  5
367
102
{ACAD_REACTORS
330
363
102
}
330
363
100
AcDbXrecord
  1

  0
XRECORD
  5
364
102
{ACAD_REACTORS
330
363
102
}
330
363
100
AcDbXrecord
 90
        1
  0
XRECORD
  5
365
102
{ACAD_REACTORS
330
363
102
}
330
363
100
AcDbXrecord
 90
       70
  0
XRECORD
  5
37C
102
{ACAD_REACTORS
330
363
102
}
330
363
100
AcDbXrecord
340
0
  0
XRECORD
  5
382
102
{ACAD_REACTORS
330
363
102
}
330
363
100
AcDbXrecord
 10
0.0
 20
0.0
 30
0.0
  0
XRECORD
  5
37E
102
{ACAD_REACTORS
330
363
102
}
330
363
100
AcDbXrecord
 10
0.0
 20
0.0
 30
0.0
  0
XRECORD
  5
381
102
{ACAD_REACTORS
330
363
102
}
330
363
100
AcDbXrecord
 10
0.0
 20
0.0
 30
0.0
  0
XRECORD
  5
37F
102
{ACAD_REACTORS
330
363
102
}
330
363
100
AcDbXrecord
 10
0.0
 20
0.0
 30
0.0
  0
XRECORD
  5
380
102
{ACAD_REACTORS
330
363
102
}
330
363
100
AcDbXrecord
 10
0.0
 20
0.0
 30
0.0
  0
XRECORD
  5
37D
102
{ACAD_REACTORS
330
363
102
}
330
363
100
AcDbXrecord
 10
0.0
 20
0.0
 30
0.0
  0
XRECORD
  5
37A
102
{ACAD_REACTORS
330
363
102
}
330
363
100
AcDbXrecord
340
0
  0
XRECORD
  5
37B
102
{ACAD_REACTORS
330
363
102
}
330
363
100
AcDbXrecord
 70
     0
  0
XRECORD
  5
36F
102
{ACAD_REACTORS
330
363
102
}
330
363
100
AcDbXrecord
  1
{593F5162-8DB7-11D6-88E6-0090279574E7}
  0
DICTIONARYVAR
  5
361
102
{ACAD_REACTORS
330
360
102
}
330
360
100
DictionaryVariables
280
     0
  1
1
  0
ENDSEC
  0
EOF
