  0
SECTION
  2
HEADER
  9
$ACADVER
  1
AC1014
  9
$ACADMAINTVER
 70
     9
  9
$DWGCODEPAGE
  3
ANSI_1252
  9
$INSBASE
 10
4.738969246812451
 20
5.168096535332426
 30
0.0
  9
$EXTMIN
 10
2.928993485958858
 20
3.633287713890466
 30
0.0
  9
$EXTMAX
 10
6.414212807705993
 20
6.161470351786249
 30
0.0
  9
$LIMMIN
 10
0.0
 20
0.0
  9
$LIMMAX
 10
18.0
 20
12.0
  9
$ORTHOMODE
 70
     1
  9
$REGENMODE
 70
     1
  9
$FILLMODE
 70
     1
  9
$QTEXTMODE
 70
     0
  9
$MIRRTEXT
 70
     0
  9
$DRAGMODE
 70
     2
  9
$LTSCALE
 40
1.0
  9
$OSMODE
 70
    39
  9
$ATTMODE
 70
     1
  9
$TEXTSIZE
 40
0.125
  9
$TRACEWID
 40
0.05
  9
$TEXTSTYLE
  7
ROMANS
  9
$CLAYER
  8
0
  9
$CELTYPE
  6
BYLAYER
  9
$CECOLOR
 62
   256
  9
$CELTSCALE
 40
1.0
  9
$DELOBJ
 70
     1
  9
$DISPSILH
 70
     1
  9
$DIMSCALE
 40
1.0
  9
$DIMASZ
 40
0.125
  9
$DIMEXO
 40
0.125
  9
$DIMDLI
 40
0.375
  9
$DIMRND
 40
0.0
  9
$DIMDLE
 40
0.0
  9
$DIMEXE
 40
0.125
  9
$DIMTP
 40
0.0
  9
$DIMTM
 40
0.0
  9
$DIMTXT
 40
0.125
  9
$DIMCEN
 40
-0.125
  9
$DIMTSZ
 40
0.0
  9
$DIMTOL
 70
     0
  9
$DIMLIM
 70
     0
  9
$DIMTIH
 70
     1
  9
$DIMTOH
 70
     1
  9
$DIMSE1
 70
     0
  9
$DIMSE2
 70
     0
  9
$DIMTAD
 70
     0
  9
$DIMZIN
 70
     4
  9
$DIMBLK
  1

  9
$DIMASO
 70
     1
  9
$DIMSHO
 70
     1
  9
$DIMPOST
  1

  9
$DIMAPOST
  1

  9
$DIMALT
 70
     0
  9
$DIMALTD
 70
     2
  9
$DIMALTF
 40
25.4
  9
$DIMLFAC
 40
1.0
  9
$DIMTOFL
 70
     0
  9
$DIMTVP
 40
0.0
  9
$DIMTIX
 70
     1
  9
$DIMSOXD
 70
     0
  9
$DIMSAH
 70
     0
  9
$DIMBLK1
  1

  9
$DIMBLK2
  1

  9
$DIMSTYLE
  2
STANDARD
  9
$DIMCLRD
 70
     0
  9
$DIMCLRE
 70
     0
  9
$DIMCLRT
 70
     0
  9
$DIMTFAC
 40
1.0
  9
$DIMGAP
 40
0.09
  9
$DIMJUST
 70
     0
  9
$DIMSD1
 70
     0
  9
$DIMSD2
 70
     0
  9
$DIMTOLJ
 70
     1
  9
$DIMTZIN
 70
     4
  9
$DIMALTZ
 70
     0
  9
$DIMALTTZ
 70
     0
  9
$DIMFIT
 70
     3
  9
$DIMUPT
 70
     0
  9
$DIMUNIT
 70
     2
  9
$DIMDEC
 70
     3
  9
$DIMTDEC
 70
     3
  9
$DIMALTU
 70
     2
  9
$DIMALTTD
 70
     2
  9
$DIMTXSTY
  7
ROMANS
  9
$DIMAUNIT
 70
     0
  9
$LUNITS
 70
     2
  9
$LUPREC
 70
     3
  9
$SKETCHINC
 40
0.1
  9
$FILLETRAD
 40
0.03125
  9
$AUNITS
 70
     0
  9
$AUPREC
 70
     0
  9
$MENU
  1
ACAD
  9
$ELEVATION
 40
0.0
  9
$PELEVATION
 40
0.0
  9
$THICKNESS
 40
0.0
  9
$LIMCHECK
 70
     0
  9
$BLIPMODE
 70
     0
  9
$CHAMFERA
 40
0.0
  9
$CHAMFERB
 40
0.0
  9
$CHAMFERC
 40
0.0
  9
$CHAMFERD
 40
0.0
  9
$SKPOLY
 70
     0
  9
$TDCREATE
 40
2448994.653536342
  9
$TDUPDATE
 40
2452458.311972986
  9
$TDINDWG
 40
0.0008727662
  9
$TDUSRTIMER
 40
0.0008727662
  9
$USRTIMER
 70
     1
  9
$ANGBASE
 50
0.0
  9
$ANGDIR
 70
     0
  9
$PDMODE
 70
     0
  9
$PDSIZE
 40
0.0
  9
$PLINEWID
 40
0.0
  9
$COORDS
 70
     2
  9
$SPLFRAME
 70
     0
  9
$SPLINETYPE
 70
     6
  9
$SPLINESEGS
 70
     8
  9
$ATTDIA
 70
     0
  9
$ATTREQ
 70
     1
  9
$HANDLING
 70
 22529
  9
$HANDSEED
  5
7DE1B343D9E1C82
  9
$SURFTAB1
 70
     6
  9
$SURFTAB2
 70
     6
  9
$SURFTYPE
 70
     6
  9
$SURFU
 70
     6
  9
$SURFV
 70
     6
  9
$UCSNAME
  2

  9
$UCSORG
 10
0.0
 20
0.0
 30
0.0
  9
$UCSXDIR
 10
1.0
 20
0.0
 30
0.0
  9
$UCSYDIR
 10
0.0
 20
1.0
 30
0.0
  9
$PUCSNAME
  2

  9
$PUCSORG
 10
0.0
 20
0.0
 30
0.0
  9
$PUCSXDIR
 10
1.0
 20
0.0
 30
0.0
  9
$PUCSYDIR
 10
0.0
 20
1.0
 30
0.0
  9
$USERI1
 70
     0
  9
$USERI2
 70
     0
  9
$USERI3
 70
     0
  9
$USERI4
 70
     0
  9
$USERI5
 70
     0
  9
$USERR1
 40
0.0
  9
$USERR2
 40
0.0
  9
$USERR3
 40
0.0
  9
$USERR4
 40
0.0
  9
$USERR5
 40
0.0
  9
$WORLDVIEW
 70
     1
  9
$SHADEDGE
 70
     3
  9
$SHADEDIF
 70
    70
  9
$TILEMODE
 70
     1
  9
$MAXACTVP
 70
    16
  9
$PINSBASE
 10
5.710365001464368
 20
50.00000000000001
 30
7.669195229256651
  9
$PLIMCHECK
 70
     0
  9
$PEXTMIN
 10
1.000000000000000E+20
 20
1.000000000000000E+20
 30
1.000000000000000E+20
  9
$PEXTMAX
 10
-1.000000000000000E+20
 20
-1.000000000000000E+20
 30
-1.000000000000000E+20
  9
$PLIMMIN
 10
0.0
 20
0.0
  9
$PLIMMAX
 10
12.0
 20
9.0
  9
$UNITMODE
 70
     0
  9
$VISRETAIN
 70
     0
  9
$PLINEGEN
 70
     1
  9
$PSLTSCALE
 70
     0
  9
$TREEDEPTH
 70
  3020
  9
$PICKSTYLE
 70
     1
  9
$CMLSTYLE
  2
STANDARD
  9
$CMLJUST
 70
     0
  9
$CMLSCALE
 40
1.0
  9
$PROXYGRAPHICS
 70
     1
  9
$MEASUREMENT
 70
     0
  0
ENDSEC
  0
SECTION
  2
CLASSES
  0
CLASS
  1
LWPOLYLINE
  2
AcDbPolyline
  3
AutoCAD 2000
 90
        0
280
     0
281
     1
  0
CLASS
  1
ACDBDICTIONARYWDFLT
  2
AcDbDictionaryWithDefault
  3
AutoCAD 2000
 90
        0
280
     0
281
     0
  0
CLASS
  1
ACDBPLACEHOLDER
  2
AcDbPlaceHolder
  3
AutoCAD 2000
 90
        0
280
     0
281
     0
  0
CLASS
  1
LAYOUT
  2
AcDbLayout
  3
AutoCAD 2000
 90
        0
280
     0
281
     0
  0
CLASS
  1
DICTIONARYVAR
  2
AcDbDictionaryVar
  3
AutoCAD 2000
 90
        0
280
     0
281
     0
  0
CLASS
  1
LONG_TRANSACTION
  2
AcDbLongTransaction
  3
AutoCAD 2000
 90
        0
280
     0
281
     0
  0
CLASS
  1
LWPOLYLINE
  2
AcDbPolyline
  3
AutoCAD 2000
 90
        0
280
     0
281
     1
  0
CLASS
  1
HATCH
  2
AcDbHatch
  3
AutoCAD 2000
 90
        0
280
     0
281
     1
  0
CLASS
  1
XRECORD
  2
AcDbXrecord
  3
AutoCAD 2000
 90
        0
280
     0
281
     0
  0
ENDSEC
  0
SECTION
  2
TABLES
  0
TABLE
  2
VPORT
  5
7DE1B343D9E1C0A
330
0
100
AcDbSymbolTable
 70
     2
  0
VPORT
  5
7DE1B343D9E1C5D
330
7DE1B343D9E1C0A
100
AcDbSymbolTableRecord
100
AcDbViewportTableRecord
  2
*ACTIVE
 70
     0
 10
0.0
 20
0.0
 11
1.0
 21
1.0
 12
8.395689430264935
 22
4.897247341109029
 13
0.0
 23
0.0
 14
0.015625
 24
0.015625
 15
0.0
 25
0.0
 16
0.0
 26
0.0
 36
1.0
 17
0.0
 27
0.0
 37
0.0
 40
2.855759878512706
 41
4.320930232558139
 42
50.0
 43
0.0
 44
0.0
 50
0.0
 51
0.0
 71
     0
 72
  2000
 73
     1
 74
     0
 75
     0
 76
     0
 77
     0
 78
     0
  0
ENDTAB
  0
TABLE
  2
LTYPE
  5
7DE1B343D9E1C07
330
0
100
AcDbSymbolTable
 70
     1
  0
LTYPE
  5
7DE1B343D9E1C14
330
7DE1B343D9E1C07
100
AcDbSymbolTableRecord
100
AcDbLinetypeTableRecord
  2
BYBLOCK
 70
     0
  3

 72
    65
 73
     0
 40
0.0
  0
LTYPE
  5
7DE1B343D9E1C15
330
7DE1B343D9E1C07
100
AcDbSymbolTableRecord
100
AcDbLinetypeTableRecord
  2
BYLAYER
 70
     0
  3

 72
    65
 73
     0
 40
0.0
  0
LTYPE
  5
7DE1B343D9E1C16
330
7DE1B343D9E1C07
100
AcDbSymbolTableRecord
100
AcDbLinetypeTableRecord
  2
CONTINUOUS
 70
     0
  3
Solid line
 72
    65
 73
     0
 40
0.0
  0
ENDTAB
  0
TABLE
  2
LAYER
  5
7DE1B343D9E1C04
330
0
100
AcDbSymbolTable
 70
     3
  0
LAYER
  5
7DE1B343D9E1C11
330
7DE1B343D9E1C04
100
AcDbSymbolTableRecord
100
AcDbLayerTableRecord
  2
0
 70
     0
 62
     7
  6
CONTINUOUS
  0
LAYER
  5
7DE1B343D9E1C21
330
7DE1B343D9E1C04
100
AcDbSymbolTableRecord
100
AcDbLayerTableRecord
  2
TEXT
 70
     0
 62
     3
  6
CONTINUOUS
  0
LAYER
  5
7DE1B343D9E1C35
330
7DE1B343D9E1C04
100
AcDbSymbolTableRecord
100
AcDbLayerTableRecord
  2
ASHADE
 70
     4
 62
     7
  6
CONTINUOUS
  0
ENDTAB
  0
TABLE
  2
STYLE
  5
7DE1B343D9E1C05
330
0
100
AcDbSymbolTable
 70
     4
  0
STYLE
  5
7DE1B343D9E1C12
330
7DE1B343D9E1C05
100
AcDbSymbolTableRecord
100
AcDbTextStyleTableRecord
  2
STANDARD
 70
     0
 40
0.0
 41
1.0
 50
0.0
 71
     0
 42
0.3125
  3
txt
  4

  0
STYLE
  5
7DE1B343D9E1C1E
330
7DE1B343D9E1C05
100
AcDbSymbolTableRecord
100
AcDbTextStyleTableRecord
  2
ITALICC
 70
     0
 40
0.0
 41
1.0
 50
0.0
 71
     0
 42
0.125
  3
italicc
  4

  0
STYLE
  5
7DE1B343D9E1C32
330
7DE1B343D9E1C05
100
AcDbSymbolTableRecord
100
AcDbTextStyleTableRecord
  2
ASHADE
 70
     0
 40
0.2
 41
1.0
 50
0.0
 71
     0
 42
0.3125
  3
simplex
  4

  0
STYLE
  5
7DE1B343D9E1C4D
330
7DE1B343D9E1C05
100
AcDbSymbolTableRecord
100
AcDbTextStyleTableRecord
  2
ROMANS
 70
     0
 40
0.0
 41
1.0
 50
0.0
 71
     0
 42
0.125
  3
romans.shx
  4

  0
ENDTAB
  0
TABLE
  2
VIEW
  5
7DE1B343D9E1C08
330
0
100
AcDbSymbolTable
 70
     0
  0
ENDTAB
  0
TABLE
  2
UCS
  5
7DE1B343D9E1C09
330
0
100
AcDbSymbolTable
 70
     0
  0
ENDTAB
  0
TABLE
  2
APPID
  5
7DE1B343D9E1C0B
330
0
100
AcDbSymbolTable
 70
     6
  0
APPID
  5
7DE1B343D9E1C13
330
7DE1B343D9E1C0B
100
AcDbSymbolTableRecord
100
AcDbRegAppTableRecord
  2
ACAD
 70
     0
  0
APPID
  5
7DE1B343D9E1C33
330
7DE1B343D9E1C0B
100
AcDbSymbolTableRecord
100
AcDbRegAppTableRecord
  2
AVE_RENDER
 70
     0
  0
APPID
  5
7DE1B343D9E1C34
330
7DE1B343D9E1C0B
100
AcDbSymbolTableRecord
100
AcDbRegAppTableRecord
  2
AVE_ENTITY_MATERIAL
 70
     0
  0
APPID
  5
7DE1B343D9E1C41
330
7DE1B343D9E1C0B
100
AcDbSymbolTableRecord
100
AcDbRegAppTableRecord
  2
AVE_FINISH
 70
     0
  0
APPID
  5
7DE1B343D9E1C42
330
7DE1B343D9E1C0B
100
AcDbSymbolTableRecord
100
AcDbRegAppTableRecord
  2
AVE_MATERIAL
 70
     0
  0
APPID
  5
7DE1B343D9E1C43
330
7DE1B343D9E1C0B
100
AcDbSymbolTableRecord
100
AcDbRegAppTableRecord
  2
AVE_GLOBAL
 70
     0
  0
ENDTAB
  0
TABLE
  2
DIMSTYLE
  5
7DE1B343D9E1C0C
330
0
100
AcDbSymbolTable
 70
     1
  0
DIMSTYLE
105
7DE1B343D9E1C26
330
7DE1B343D9E1C0C
100
AcDbSymbolTableRecord
100
AcDbDimStyleTableRecord
  2
STANDARD
 70
     0
  3

  4

  5

  6

  7

 40
1.0
 41
0.125
 42
0.125
 43
0.375
 44
0.125
 45
0.0
 46
0.0
 47
0.0
 48
0.0
140
0.125
141
-0.125
142
0.0
143
25.4
144
1.0
145
0.0
146
1.0
147
0.09
 71
     0
 72
     0
 73
     1
 74
     1
 75
     0
 76
     0
 77
     0
 78
     4
170
     0
171
     2
172
     0
173
     0
174
     1
175
     0
176
     0
177
     0
178
     0
270
     2
271
     3
272
     3
273
     2
274
     2
340
7DE1B343D9E1C4D
275
     0
280
     0
281
     0
282
     0
283
     1
284
     4
285
     0
286
     0
287
     3
288
     0
  0
ENDTAB
  0
TABLE
  2
BLOCK_RECORD
  5
7DE1B343D9E1C03
330
0
100
AcDbSymbolTable
 70
     2
  0
BLOCK_RECORD
  5
7DE1B343D9E1C1A
102
{ACAD_XDICTIONARY
360
7DE1B343D9E1C80
102
}
330
7DE1B343D9E1C03
100
AcDbSymbolTableRecord
100
AcDbBlockTableRecord
  2
*MODEL_SPACE
  0
BLOCK_RECORD
  5
7DE1B343D9E1C17
102
{ACAD_XDICTIONARY
360
7DE1B343D9E1C7E
102
}
330
7DE1B343D9E1C03
100
AcDbSymbolTableRecord
100
AcDbBlockTableRecord
  2
*PAPER_SPACE
  0
BLOCK_RECORD
  5
7DE1B343D9E1C36
330
7DE1B343D9E1C03
100
AcDbSymbolTableRecord
100
AcDbBlockTableRecord
  2
AVE_RENDER
  0
BLOCK_RECORD
  5
7DE1B343D9E1C44
330
7DE1B343D9E1C03
100
AcDbSymbolTableRecord
100
AcDbBlockTableRecord
  2
AVE_GLOBAL
  0
ENDTAB
  0
ENDSEC
  0
SECTION
  2
BLOCKS
  0
BLOCK
  5
7DE1B343D9E1C24
330
7DE1B343D9E1C1A
100
AcDbEntity
  8
0
100
AcDbBlockBegin
  2
*MODEL_SPACE
 70
     0
 10
0.0
 20
0.0
 30
0.0
  3
*MODEL_SPACE
  1

  0
ENDBLK
  5
7DE1B343D9E1C25
330
7DE1B343D9E1C1A
100
AcDbEntity
  8
0
100
AcDbBlockEnd
  0
BLOCK
  5
7DE1B343D9E1C22
330
7DE1B343D9E1C17
100
AcDbEntity
 67
     1
  8
0
100
AcDbBlockBegin
  2
*PAPER_SPACE
 70
     0
 10
0.0
 20
0.0
 30
0.0
  3
*PAPER_SPACE
  1

  0
ENDBLK
  5
7DE1B343D9E1C23
330
7DE1B343D9E1C17
100
AcDbEntity
 67
     1
  8
0
100
AcDbBlockEnd
  0
BLOCK
  5
7DE1B343D9E1C37
330
7DE1B343D9E1C36
100
AcDbEntity
  8
0
100
AcDbBlockBegin
  2
AVE_RENDER
 70
     0
 10
0.0
 20
0.0
 30
0.0
  3
AVE_RENDER
  1
AVE_RENDER
  0
ENDBLK
  5
7DE1B343D9E1C38
330
7DE1B343D9E1C36
100
AcDbEntity
  8
0
100
AcDbBlockEnd
  0
BLOCK
  5
7DE1B343D9E1C45
330
7DE1B343D9E1C44
100
AcDbEntity
  8
0
100
AcDbBlockBegin
  2
AVE_GLOBAL
 70
     0
 10
0.0
 20
0.0
 30
0.0
  3
AVE_GLOBAL
  1
AVE_GLOBAL
  0
ENDBLK
  5
7DE1B343D9E1C46
330
7DE1B343D9E1C44
100
AcDbEntity
  8
0
100
AcDbBlockEnd
  0
ENDSEC
  0
SECTION
  2
ENTITIES
  0
LWPOLYLINE
  5
7DE1B343D9E0846
330
7DE1B343D9E1C1A
100
AcDbEntity
  8
0
100
AcDbPolyline
 90
       37
 70
     1
 43
0.0
 10
3.63207343887524
 20
4.873748264874169
 10
3.63207343887524
 20
4.436248264874169
 42
0.4142135623730951
 10
3.66332343887524
 20
4.404998264874169
 10
5.10082343887524
 20
4.404998264874169
 42
0.4142135623730951
 10
5.13207343887524
 20
4.436248264874169
 10
5.13207343887524
 20
4.654998264874169
 10
5.35082343887524
 20
4.654998264874169
 42
0.4142135623730951
 10
5.38207343887524
 20
4.686248264874169
 10
5.38207343887524
 20
5.029998264874172
 42
1.0
 10
5.38207343887524
 20
5.779998264874167
 10
5.38207343887524
 20
6.123748264874169
 42
0.4142135623730951
 10
5.35082343887524
 20
6.154998264874169
 10
4.91332343887524
 20
6.154998264874169
 42
1.0
 10
4.91332343887524
 20
6.092498264874169
 10
4.94457343887524
 20
6.092498264874169
 10
4.94457343887524
 20
6.0521386616312
 42
0.2679491924311512
 10
4.960198438875242
 20
6.02507536776294
 10
5.00707343887524
 20
5.998012073894674
 10
5.00707343887524
 20
6.092498264874169
 10
5.31957343887524
 20
6.092498264874169
 10
5.31957343887524
 20
5.759875004038611
 42
0.4401793542197311
 10
5.35356466694542
 20
5.728745465515412
 42
-1.091928428198458
 10
5.353564666945418
 20
5.081251064232815
 42
0.4401793542197242
 10
5.31957343887524
 20
5.050121525709618
 10
5.31957343887524
 20
4.717498264874169
 10
5.00707343887524
 20
4.717498264874169
 10
5.00707343887524
 20
4.999484455853664
 10
4.96019843887524
 20
4.972421161985403
 42
0.267949192431142
 10
4.94457343887524
 20
4.945357868117138
 10
4.94457343887524
 20
4.686248264874169
 42
0.4142135623730951
 10
4.97582343887524
 20
4.654998264874169
 10
5.06957343887524
 20
4.654998264874169
 10
5.06957343887524
 20
4.467498264874169
 10
3.69457343887524
 20
4.467498264874169
 10
3.69457343887524
 20
4.779998264874169
 10
3.69457343887524
 20
4.842498264874169
 10
3.69457343887524
 20
4.873748264874169
 42
1.0
  0
TEXT
  5
7DE1B343D9E1AC5
330
7DE1B343D9E1C1A
100
AcDbEntity
  8
TEXT
100
AcDbText
 10
3.916022684233621
 20
4.091306317973048
 30
0.0
 40
0.125
  1
PART #110425
  7
ITALICC
 72
     1
 11
4.671975065186002
 21
4.091306317973048
 31
0.0
100
AcDbText
  0
TEXT
  5
7DE1B343D9E1AC6
330
7DE1B343D9E1C1A
100
AcDbEntity
  8
TEXT
100
AcDbText
 10
5.085280223436322
 20
3.644383675300673
 30
0.0
 40
0.0522247191011236
  1
Phone  1-800-328-2495
 41
1.272321428571429
 72
     5
 11
6.414212807705986
 21
3.644383675300673
 31
0.0
100
AcDbText
  0
TEXT
  5
7DE1B343D9E1AC7
330
7DE1B343D9E1C1A
100
AcDbEntity
  8
TEXT
100
AcDbText
 10
5.085280223436322
 20
3.924158956199549
 30
0.0
 40
0.0522247191011236
  1
Stylmark  Incorporated
 41
1.221428571428573
 72
     5
 11
6.414212807705986
 21
3.924158956199549
 31
0.0
100
AcDbText
  0
TEXT
  5
7DE1B343D9E1AC8
330
7DE1B343D9E1C1A
100
AcDbEntity
  8
TEXT
100
AcDbText
 10
5.085280223436322
 20
3.830900529233257
 30
0.0
 40
0.0522247191011236
  1
6536 Main St. N.E. * P.O. Box 32008
 41
0.8388932496075366
 72
     5
 11
6.414212807705986
 21
3.830900529233257
 31
0.0
100
AcDbText
  0
TEXT
  5
7DE1B343D9E1AC9
330
7DE1B343D9E1C1A
100
AcDbEntity
  8
TEXT
100
AcDbText
 10
5.085280223436322
 20
3.737642102266965
 30
0.0
 40
0.0522247191011236
  1
Minneapolis, MN 55432-0008
 41
1.11444212721585
 72
     5
 11
6.414212807705986
 21
3.737642102266965
 31
0.0
100
AcDbText
  0
LWPOLYLINE
  5
7DE1B343D9E1ACA
330
7DE1B343D9E1C1A
100
AcDbEntity
  8
TEXT
100
AcDbPolyline
 90
        3
 70
     0
 43
0.0006660908203125
 10
2.929326531369015
 20
3.758028437938107
 10
2.929326531369015
 20
3.64479299848498
 10
3.042561970822137
 20
3.64479299848498
  0
LWPOLYLINE
  5
7DE1B343D9E1ACF
330
7DE1B343D9E1C1A
100
AcDbEntity
  8
TEXT
100
AcDbPolyline
 90
        3
 70
     0
 43
0.0006660908203125
 10
2.955970164181512
 20
3.758028437938107
 10
2.955970164181512
 20
3.671436631297481
 10
3.042561970822137
 20
3.671436631297481
  0
LWPOLYLINE
  5
7DE1B343D9E1AD4
330
7DE1B343D9E1C1A
100
AcDbEntity
  8
TEXT
100
AcDbPolyline
 90
        2
 70
     0
 43
0.0001332181640625
 10
3.002596521603389
 20
3.768019800242793
 10
2.929326531369015
 20
3.758028437938107
  0
LWPOLYLINE
  5
7DE1B343D9E1AD8
330
7DE1B343D9E1C1A
100
AcDbEntity
  8
TEXT
100
AcDbPolyline
 90
        2
 70
     0
 43
0.0001332181640625
 10
2.955970164181512
 20
3.758028437938107
 10
3.015918338009639
 20
3.768019800242793
  0
LWPOLYLINE
  5
7DE1B343D9E1ADC
330
7DE1B343D9E1C1A
100
AcDbEntity
  8
TEXT
100
AcDbPolyline
 90
        2
 70
     0
 43
0.0001332181640625
 10
2.955970164181512
 20
3.671436631297481
 10
3.015918338009639
 20
3.731384805125606
  0
LWPOLYLINE
  5
7DE1B343D9E1AE0
330
7DE1B343D9E1C1A
100
AcDbEntity
  8
TEXT
100
AcDbPolyline
 90
        3
 70
     0
 43
0.0006660908203125
 10
3.042561970822137
 20
3.911229326609983
 10
2.929326531369015
 20
3.911229326609983
 10
2.929326531369015
 20
3.797993887156855
  0
LWPOLYLINE
  5
7DE1B343D9E1AE5
330
7DE1B343D9E1C1A
100
AcDbEntity
  8
TEXT
100
AcDbPolyline
 90
        3
 70
     0
 43
0.0006660908203125
 10
3.042561970822137
 20
3.884585693797482
 10
2.955970164181512
 20
3.884585693797482
 10
2.955970164181512
 20
3.797993887156855
  0
LWPOLYLINE
  5
7DE1B343D9E1AEA
330
7DE1B343D9E1C1A
100
AcDbEntity
  8
TEXT
100
AcDbPolyline
 90
        2
 70
     0
 43
0.0001332181640625
 10
2.955970164181512
 20
3.884585693797482
 10
3.015918338009638
 20
3.824637519969357
  0
LWPOLYLINE
  5
7DE1B343D9E1AEE
330
7DE1B343D9E1C1A
100
AcDbEntity
  8
TEXT
100
AcDbPolyline
 90
        2
 70
     0
 43
0.0001332181640625
 10
2.955970164181512
 20
3.797993887156855
 10
3.015918338009638
 20
3.788002524852167
  0
LWPOLYLINE
  5
7DE1B343D9E1AF2
330
7DE1B343D9E1C1A
100
AcDbEntity
  8
TEXT
100
AcDbPolyline
 90
        2
 70
     0
 43
0.0001332181640625
 10
2.929326531369015
 20
3.797993887156855
 10
3.002596521603389
 20
3.788002524852167
  0
LWPOLYLINE
  5
7DE1B343D9E1AF6
330
7DE1B343D9E1C1A
100
AcDbEntity
  8
TEXT
100
AcDbPolyline
 90
        2
 70
     0
 43
0.0006660908203125
 10
2.955970164181512
 20
3.758028437938107
 10
2.929326531369015
 20
3.758028437938107
  0
LWPOLYLINE
  5
7DE1B343D9E1AFA
330
7DE1B343D9E1C1A
100
AcDbEntity
  8
TEXT
100
AcDbPolyline
 90
        2
 70
     0
 43
0.0006660908203125
 10
2.955970164181512
 20
3.797993887156855
 10
2.929326531369015
 20
3.797993887156855
  0
LINE
  5
7DE1B343D9E1AFE
330
7DE1B343D9E1C1A
100
AcDbEntity
  8
TEXT
100
AcDbLine
 10
4.444516960495512
 20
3.846952631953214
 30
0.0
 11
4.337310687108223
 21
3.846952631953214
 31
0.0
  0
LINE
  5
7DE1B343D9E1AFF
330
7DE1B343D9E1C1A
100
AcDbEntity
  8
TEXT
100
AcDbLine
 10
4.473547858839991
 20
3.91122932660998
 30
0.0
 11
4.338715949622931
 21
3.91122932660998
 31
0.0
  0
ARC
  5
7DE1B343D9E1B00
330
7DE1B343D9E1C1A
100
AcDbEntity
  8
TEXT
100
AcDbCircle
 10
4.398030046016248
 20
3.741992077346963
 30
0.0
 40
0.0676855811441166
100
AcDbArc
 50
90.0
 51
153.7768192527749
  0
LWPOLYLINE
  5
7DE1B343D9E1B01
330
7DE1B343D9E1C1A
100
AcDbEntity
  8
TEXT
100
AcDbPolyline
 90
        2
 70
     0
 43
0.0
 10
4.336278191653413
 20
3.688247238571907
 42
0.2901071551932823
 10
4.379354124521048
 20
3.644756293621469
 42
5.328517124445801
  0
ARC
  5
7DE1B343D9E1B05
330
7DE1B343D9E1C1A
100
AcDbEntity
  8
TEXT
100
AcDbCircle
 10
3.692898668344763
 20
3.704548684959518
 30
0.0
 40
0.0601160179737537
100
AcDbArc
 50
180.0000000000003
 51
264.0521544866073
  0
LINE
  5
7DE1B343D9E1B06
330
7DE1B343D9E1C1A
100
AcDbEntity
  8
TEXT
100
AcDbLine
 10
3.69641402397031
 20
3.945617244204118
 30
0.0
 11
3.636371419126303
 21
3.945617244204118
 31
0.0
  0
ARC
  5
7DE1B343D9E1B07
330
7DE1B343D9E1C1A
100
AcDbEntity
  8
TEXT
100
AcDbCircle
 10
3.460639666227792
 20
3.829141867163478
 30
0.0
 40
0.0820874594465043
100
AcDbArc
 50
90.0
 51
270.0
  0
LWPOLYLINE
  5
7DE1B343D9E1B08
330
7DE1B343D9E1C1A
100
AcDbEntity
  8
TEXT
100
AcDbPolyline
 90
        2
 70
     0
 43
0.0001332181640625
 10
3.052553333126827
 20
3.837959336375604
 10
3.042561970822137
 20
3.911229326609983
  0
LWPOLYLINE
  5
7DE1B343D9E1B0C
330
7DE1B343D9E1C1A
100
AcDbEntity
  8
TEXT
100
AcDbPolyline
 90
        2
 70
     0
 43
0.0001332181640625
 10
3.042561970822137
 20
3.884585693797482
 10
3.052553333126827
 20
3.824637519969357
  0
LWPOLYLINE
  5
7DE1B343D9E1B10
330
7DE1B343D9E1C1A
100
AcDbEntity
  8
TEXT
100
AcDbPolyline
 90
        3
 70
     0
 43
0.0006660908203125
 10
3.195762859494014
 20
3.797993887156855
 10
3.195762859494014
 20
3.911229326609983
 10
3.082527420040888
 20
3.911229326609983
  0
LWPOLYLINE
  5
7DE1B343D9E1B15
330
7DE1B343D9E1C1A
100
AcDbEntity
  8
TEXT
100
AcDbPolyline
 90
        3
 70
     0
 43
0.0006660908203125
 10
3.169119226681513
 20
3.797993887156855
 10
3.169119226681513
 20
3.884585693797482
 10
3.082527420040888
 20
3.884585693797482
  0
LWPOLYLINE
  5
7DE1B343D9E1B1A
330
7DE1B343D9E1C1A
100
AcDbEntity
  8
TEXT
100
AcDbPolyline
 90
        2
 70
     0
 43
0.0001332181640625
 10
3.169119226681513
 20
3.884585693797482
 10
3.10917105285339
 20
3.824637519969357
  0
LWPOLYLINE
  5
7DE1B343D9E1B1E
330
7DE1B343D9E1C1A
100
AcDbEntity
  8
TEXT
100
AcDbPolyline
 90
        2
 70
     0
 43
0.0001332181640625
 10
3.082527420040888
 20
3.884585693797482
 10
3.0725360577362
 20
3.824637519969357
  0
LWPOLYLINE
  5
7DE1B343D9E1B22
330
7DE1B343D9E1C1A
100
AcDbEntity
  8
TEXT
100
AcDbPolyline
 90
        2
 70
     0
 43
0.0001332181640625
 10
3.082527420040888
 20
3.911229326609983
 10
3.0725360577362
 20
3.837959336375604
  0
LWPOLYLINE
  5
7DE1B343D9E1B26
330
7DE1B343D9E1C1A
100
AcDbEntity
  8
TEXT
100
AcDbPolyline
 90
        2
 70
     0
 43
0.0001332181640625
 10
3.122492869259638
 20
3.788002524852167
 10
3.195762859494014
 20
3.797993887156855
  0
LWPOLYLINE
  5
7DE1B343D9E1B2A
330
7DE1B343D9E1C1A
100
AcDbEntity
  8
TEXT
100
AcDbPolyline
 90
        2
 70
     0
 43
0.0001332181640625
 10
3.169119226681513
 20
3.797993887156855
 10
3.10917105285339
 20
3.788002524852167
  0
LWPOLYLINE
  5
7DE1B343D9E1B2E
330
7DE1B343D9E1C1A
100
AcDbEntity
  8
TEXT
100
AcDbPolyline
 90
        2
 70
     0
 43
0.0001332181640625
 10
3.195762859494014
 20
3.758028437938107
 10
3.122492869259638
 20
3.768019800242793
  0
LWPOLYLINE
  5
7DE1B343D9E1B32
330
7DE1B343D9E1C1A
100
AcDbEntity
  8
TEXT
100
AcDbPolyline
 90
        2
 70
     0
 43
0.0001332181640625
 10
3.169119226681513
 20
3.758028437938107
 10
3.10917105285339
 20
3.768019800242793
  0
LWPOLYLINE
  5
7DE1B343D9E1B36
330
7DE1B343D9E1C1A
100
AcDbEntity
  8
TEXT
100
AcDbPolyline
 90
        2
 70
     0
 43
0.0001332181640625
 10
3.169119226681513
 20
3.671436631297481
 10
3.10917105285339
 20
3.731384805125606
  0
LWPOLYLINE
  5
7DE1B343D9E1B3A
330
7DE1B343D9E1C1A
100
AcDbEntity
  8
TEXT
100
AcDbPolyline
 90
        3
 70
     0
 43
0.0006660908203125
 10
3.082527420040888
 20
3.671436631297481
 10
3.169119226681513
 20
3.671436631297481
 10
3.169119226681513
 20
3.758028437938107
  0
LWPOLYLINE
  5
7DE1B343D9E1B3F
330
7DE1B343D9E1C1A
100
AcDbEntity
  8
TEXT
100
AcDbPolyline
 90
        3
 70
     0
 43
0.0006660908203125
 10
3.082527420040888
 20
3.64479299848498
 10
3.195762859494014
 20
3.64479299848498
 10
3.195762859494014
 20
3.758028437938107
  0
LWPOLYLINE
  5
7DE1B343D9E1B44
330
7DE1B343D9E1C1A
100
AcDbEntity
  8
TEXT
100
AcDbPolyline
 90
        5
 70
     0
 43
0.0001332181640625
 10
3.052553333126827
 20
3.718062988719356
 10
3.052553333126827
 20
3.731384805125606
 10
3.015918338009639
 20
3.731384805125606
 10
3.015918338009639
 20
3.768019800242793
 10
3.002596521603389
 20
3.768019800242793
  0
LWPOLYLINE
  5
7DE1B343D9E1B4B
330
7DE1B343D9E1C1A
100
AcDbEntity
  8
TEXT
100
AcDbPolyline
 90
        2
 70
     0
 43
0.0006660908203125
 10
3.042561970822137
 20
3.671436631297481
 10
3.042561970822137
 20
3.64479299848498
  0
LWPOLYLINE
  5
7DE1B343D9E1B4F
330
7DE1B343D9E1C1A
100
AcDbEntity
  8
TEXT
100
AcDbPolyline
 90
        2
 70
     0
 43
0.0001332181640625
 10
3.042561970822137
 20
3.671436631297481
 10
3.052553333126827
 20
3.731384805125606
  0
LWPOLYLINE
  5
7DE1B343D9E1B53
330
7DE1B343D9E1C1A
100
AcDbEntity
  8
TEXT
100
AcDbPolyline
 90
        2
 70
     0
 43
0.0001332181640625
 10
3.042561970822137
 20
3.64479299848498
 10
3.052553333126827
 20
3.718062988719356
  0
LWPOLYLINE
  5
7DE1B343D9E1B57
330
7DE1B343D9E1C1A
100
AcDbEntity
  8
TEXT
100
AcDbPolyline
 90
        5
 70
     0
 43
0.0001332181640625
 10
3.002596521603389
 20
3.788002524852167
 10
3.015918338009638
 20
3.788002524852167
 10
3.015918338009638
 20
3.824637519969357
 10
3.052553333126827
 20
3.824637519969357
 10
3.052553333126827
 20
3.837959336375604
  0
LWPOLYLINE
  5
7DE1B343D9E1B5E
330
7DE1B343D9E1C1A
100
AcDbEntity
  8
TEXT
100
AcDbPolyline
 90
        5
 70
     0
 43
0.0001332181640625
 10
3.0725360577362
 20
3.837959336375604
 10
3.0725360577362
 20
3.824637519969357
 10
3.10917105285339
 20
3.824637519969357
 10
3.10917105285339
 20
3.788002524852167
 10
3.122492869259638
 20
3.788002524852167
  0
LWPOLYLINE
  5
7DE1B343D9E1B65
330
7DE1B343D9E1C1A
100
AcDbEntity
  8
TEXT
100
AcDbPolyline
 90
        2
 70
     0
 43
0.0001332181640625
 10
3.082527420040888
 20
3.671436631297481
 10
3.0725360577362
 20
3.731384805125606
  0
LWPOLYLINE
  5
7DE1B343D9E1B69
330
7DE1B343D9E1C1A
100
AcDbEntity
  8
TEXT
100
AcDbPolyline
 90
        2
 70
     0
 43
0.0001332181640625
 10
3.0725360577362
 20
3.718062988719356
 10
3.082527420040888
 20
3.64479299848498
  0
LWPOLYLINE
  5
7DE1B343D9E1B6D
330
7DE1B343D9E1C1A
100
AcDbEntity
  8
TEXT
100
AcDbPolyline
 90
        2
 70
     0
 43
0.0006660908203125
 10
3.082527420040888
 20
3.671436631297481
 10
3.082527420040888
 20
3.64479299848498
  0
LWPOLYLINE
  5
7DE1B343D9E1B71
330
7DE1B343D9E1C1A
100
AcDbEntity
  8
TEXT
100
AcDbPolyline
 90
        5
 70
     0
 43
0.0001332181640625
 10
3.122492869259638
 20
3.768019800242793
 10
3.10917105285339
 20
3.768019800242793
 10
3.10917105285339
 20
3.731384805125606
 10
3.0725360577362
 20
3.731384805125606
 10
3.0725360577362
 20
3.718062988719356
  0
LWPOLYLINE
  5
7DE1B343D9E1B78
330
7DE1B343D9E1C1A
100
AcDbEntity
  8
TEXT
100
AcDbPolyline
 90
        2
 70
     0
 43
0.0006660908203125
 10
3.169119226681513
 20
3.797993887156855
 10
3.195762859494014
 20
3.797993887156855
  0
LWPOLYLINE
  5
7DE1B343D9E1B7C
330
7DE1B343D9E1C1A
100
AcDbEntity
  8
TEXT
100
AcDbPolyline
 90
        2
 70
     0
 43
0.0006660908203125
 10
3.169119226681513
 20
3.758028437938107
 10
3.195762859494014
 20
3.758028437938107
  0
LINE
  5
7DE1B343D9E1B80
330
7DE1B343D9E1C1A
100
AcDbEntity
  8
TEXT
100
AcDbLine
 10
3.465876996342039
 20
3.846952631953214
 30
0.0
 11
3.632782650371011
 21
3.846952631953214
 31
0.0
  0
LINE
  5
7DE1B343D9E1B81
330
7DE1B343D9E1C1A
100
AcDbEntity
  8
TEXT
100
AcDbLine
 10
3.53147713258634
 20
3.811147910342586
 30
0.0
 11
3.465876996342039
 21
3.811147910342586
 31
0.0
  0
LINE
  5
7DE1B343D9E1B82
330
7DE1B343D9E1C1A
100
AcDbEntity
  8
TEXT
100
AcDbLine
 10
3.378552206781288
 20
3.644756293621469
 30
0.0
 11
3.53147713258634
 21
3.644756293621469
 31
0.0
  0
LINE
  5
7DE1B343D9E1B83
330
7DE1B343D9E1C1A
100
AcDbEntity
  8
TEXT
100
AcDbLine
 10
3.53641750649262
 20
3.713113299954908
 30
0.0
 11
3.378552206781286
 21
3.713113299954908
 31
0.0
  0
LINE
  5
7DE1B343D9E1B84
330
7DE1B343D9E1C1A
100
AcDbEntity
  8
TEXT
100
AcDbLine
 10
3.460639666227791
 20
3.747054407716972
 30
0.0
 11
3.53641750649262
 21
3.747054407716972
 31
0.0
  0
ARC
  5
7DE1B343D9E1B85
330
7DE1B343D9E1C1A
100
AcDbEntity
  8
TEXT
100
AcDbCircle
 10
3.46587699634204
 20
3.829050271147902
 30
0.0
 40
0.017902360805315
100
AcDbArc
 50
90.0
 51
270.0
  0
LINE
  5
7DE1B343D9E1B86
330
7DE1B343D9E1C1A
100
AcDbEntity
  8
TEXT
100
AcDbLine
 10
3.378552206781286
 20
3.713113299954908
 30
0.0
 11
3.378552206781288
 21
3.644756293621469
 31
0.0
  0
LINE
  5
7DE1B343D9E1B87
330
7DE1B343D9E1C1A
100
AcDbEntity
  8
TEXT
100
AcDbLine
 10
3.632782650371011
 20
3.846952631953214
 30
0.0
 11
3.632782650371011
 21
3.704548684959518
 31
0.0
  0
ARC
  5
7DE1B343D9E1B88
330
7DE1B343D9E1C1A
100
AcDbEntity
  8
TEXT
100
AcDbCircle
 10
3.531477132586341
 20
3.727952101982026
 30
0.0
 40
0.0831958083605586
100
AcDbArc
 50
270.0
 51
90.0
  0
ARC
  5
7DE1B343D9E1B89
330
7DE1B343D9E1C1A
100
AcDbEntity
  8
TEXT
100
AcDbCircle
 10
3.536417506492621
 20
3.730083853835942
 30
0.0
 40
0.0169705538810321
100
AcDbArc
 50
270.0
 51
90.0
  0
LWPOLYLINE
  5
7DE1B343D9E1B8A
330
7DE1B343D9E1C1A
100
AcDbEntity
  8
TEXT
100
AcDbPolyline
 90
        2
 70
     0
 43
0.0006660908203125
 10
3.042561970822137
 20
3.884585693797482
 10
3.042561970822137
 20
3.911229326609983
  0
LWPOLYLINE
  5
7DE1B343D9E1B8E
330
7DE1B343D9E1C1A
100
AcDbEntity
  8
TEXT
100
AcDbPolyline
 90
        2
 70
     0
 43
0.0006660908203125
 10
3.082527420040888
 20
3.884585693797482
 10
3.082527420040888
 20
3.911229326609983
  0
LINE
  5
7DE1B343D9E1B92
330
7DE1B343D9E1C1A
100
AcDbEntity
  8
TEXT
100
AcDbLine
 10
3.636371419126303
 20
3.91122932660998
 30
0.0
 11
3.460639666227791
 21
3.91122932660998
 31
0.0
  0
LINE
  5
7DE1B343D9E1B93
330
7DE1B343D9E1C1A
100
AcDbEntity
  8
TEXT
100
AcDbLine
 10
3.636371419126303
 20
3.945617244204118
 30
0.0
 11
3.636371419126303
 21
3.91122932660998
 31
0.0
  0
LINE
  5
7DE1B343D9E1B94
330
7DE1B343D9E1C1A
100
AcDbEntity
  8
TEXT
100
AcDbLine
 10
3.826843311146156
 20
3.810357330496859
 30
0.0
 11
3.768212990114218
 21
3.91122932660998
 31
0.0
  0
LINE
  5
7DE1B343D9E1B95
330
7DE1B343D9E1C1A
100
AcDbEntity
  8
TEXT
100
AcDbLine
 10
3.885591873952021
 20
3.91122932660998
 30
0.0
 11
3.826843311146156
 21
3.810357330496859
 31
0.0
  0
LINE
  5
7DE1B343D9E1B96
330
7DE1B343D9E1C1A
100
AcDbEntity
  8
TEXT
100
AcDbLine
 10
3.982522499311762
 20
3.727144131724468
 30
0.0
 11
3.982522499311762
 21
3.97924080434879
 31
0.0
  0
LINE
  5
7DE1B343D9E1B97
330
7DE1B343D9E1C1A
100
AcDbEntity
  8
TEXT
100
AcDbLine
 10
4.014834353449423
 20
3.91122932660998
 30
0.0
 11
4.014834353449423
 21
3.710365119877571
 31
0.0
  0
LINE
  5
7DE1B343D9E1B98
330
7DE1B343D9E1C1A
100
AcDbEntity
  8
TEXT
100
AcDbLine
 10
4.014834353449423
 20
3.710365119877571
 30
0.0
 11
3.997840716564821
 21
3.710365119877571
 31
0.0
  0
LINE
  5
7DE1B343D9E1B99
330
7DE1B343D9E1C1A
100
AcDbEntity
  8
TEXT
100
AcDbLine
 10
3.983662072807957
 20
3.644756293621469
 30
0.0
 11
4.081665406507392
 21
3.644756293621469
 31
0.0
  0
LINE
  5
7DE1B343D9E1B9A
330
7DE1B343D9E1C1A
100
AcDbEntity
  8
TEXT
100
AcDbLine
 10
3.817243074149201
 20
3.664714799726481
 30
0.0
 11
3.914542780242646
 21
3.82906501066175
 31
0.0
  0
ARC
  5
7DE1B343D9E1B9B
330
7DE1B343D9E1C1A
100
AcDbEntity
  8
TEXT
100
AcDbCircle
 10
3.783199514236987
 20
3.684304015895164
 30
0.0
 40
0.0392772371940762
100
AcDbArc
 50
270.1604552698595
 51
330.0831797321295
  0
LINE
  5
7DE1B343D9E1B9C
330
7DE1B343D9E1C1A
100
AcDbEntity
  8
TEXT
100
AcDbLine
 10
3.686669257851116
 20
3.644756293621469
 30
0.0
 11
3.783309508926111
 21
3.645026932719751
 31
0.0
  0
LWPOLYLINE
  5
7DE1B343D9E1B9D
330
7DE1B343D9E1C1A
100
AcDbEntity
  8
TEXT
100
AcDbPolyline
 90
        6
 70
     1
 43
0.0
 10
3.729193061426266
 20
3.846952631953214
 10
3.698876467206058
 20
3.846952631953214
 10
3.698876467206058
 20
3.72384163389832
 42
0.407328721240804
 10
3.710420118367534
 20
3.712022719221934
 10
3.771041817412265
 20
3.712022719221934
 10
3.788507157819583
 20
3.744834948265413
  0
LINE
  5
7DE1B343D9E1BA5
330
7DE1B343D9E1C1A
100
AcDbEntity
  8
TEXT
100
AcDbLine
 10
3.914542780242646
 20
3.82906501066175
 30
0.0
 11
3.914542780242646
 21
3.696307635836393
 31
0.0
  0
ARC
  5
7DE1B343D9E1BA6
330
7DE1B343D9E1C1A
100
AcDbEntity
  8
TEXT
100
AcDbCircle
 10
3.997840716564819
 20
3.725746926120997
 30
0.0
 40
0.0153818062434269
100
AcDbArc
 50
174.7883570302258
 51
270.0
  0
LWPOLYLINE
  5
7DE1B343D9E1BA7
330
7DE1B343D9E1C1A
100
AcDbEntity
  8
TEXT
100
AcDbPolyline
 90
        2
 70
     0
 43
0.0
 10
3.914542780242644
 20
3.696307635836397
 42
0.3318488747599744
 10
3.983662072807957
 20
3.644756293621469
 42
-6.868794160588311
  0
LINE
  5
7DE1B343D9E1BAB
330
7DE1B343D9E1C1A
100
AcDbEntity
  8
TEXT
100
AcDbLine
 10
4.139054475496653
 20
3.644756293621469
 30
0.0
 11
4.206112522278493
 21
3.644756293621469
 31
0.0
  0
LINE
  5
7DE1B343D9E1BAC
330
7DE1B343D9E1C1A
100
AcDbEntity
  8
TEXT
100
AcDbLine
 10
4.139054475496653
 20
3.839398842787104
 30
0.0
 11
4.139054475496653
 21
3.644756293621469
 31
0.0
  0
LINE
  5
7DE1B343D9E1BAD
330
7DE1B343D9E1C1A
100
AcDbEntity
  8
TEXT
100
AcDbLine
 10
4.081665406507392
 20
3.846952631953214
 30
0.0
 11
4.131500686330539
 21
3.846952631953214
 31
0.0
  0
LINE
  5
7DE1B343D9E1BAE
330
7DE1B343D9E1C1A
100
AcDbEntity
  8
TEXT
100
AcDbLine
 10
4.081665406507392
 20
3.644756293621469
 30
0.0
 11
4.081665406507392
 21
3.846952631953214
 31
0.0
  0
LWPOLYLINE
  5
7DE1B343D9E1BAF
330
7DE1B343D9E1C1A
100
AcDbEntity
  8
TEXT
100
AcDbPolyline
 90
        2
 70
     0
 43
0.0
 10
4.131500686330538
 20
3.846952631953214
 42
-0.4142135623731017
 10
4.139054475496651
 20
3.839398842787104
 42
-0.9999999999999998
  0
LINE
  5
7DE1B343D9E1BB3
330
7DE1B343D9E1C1A
100
AcDbEntity
  8
TEXT
100
AcDbLine
 10
4.337310687108223
 20
3.846952631953214
 30
0.0
 11
4.337310687108223
 21
3.771900225879007
 31
0.0
  0
LINE
  5
7DE1B343D9E1BB4
330
7DE1B343D9E1C1A
100
AcDbEntity
  8
TEXT
100
AcDbLine
 10
4.206112522278493
 20
3.846952631953214
 30
0.0
 11
4.260246119199443
 21
3.846952631953214
 31
0.0
  0
LINE
  5
7DE1B343D9E1BB5
330
7DE1B343D9E1C1A
100
AcDbEntity
  8
TEXT
100
AcDbLine
 10
4.206112522278493
 20
3.644756293621469
 30
0.0
 11
4.206112522278493
 21
3.846952631953214
 31
0.0
  0
LWPOLYLINE
  5
7DE1B343D9E1BB6
330
7DE1B343D9E1C1A
100
AcDbEntity
  8
TEXT
100
AcDbPolyline
 90
        2
 70
     0
 43
0.0
 10
4.260246119199441
 20
3.846952631953214
 42
-0.4142135623731017
 10
4.267799908365555
 20
3.839398842787104
 42
-0.9999999999999998
  0
LWPOLYLINE
  5
7DE1B343D9E1BBA
330
7DE1B343D9E1C1A
100
AcDbEntity
  8
TEXT
100
AcDbPolyline
 90
        4
 70
     0
 43
0.0
 10
4.267799908365555
 20
3.839398842787104
 10
4.267799908365555
 20
3.644756293621469
 10
4.336278191653413
 20
3.644756293621469
 10
4.336278191653413
 20
3.688247238571907
 42
-1.714843617202739
  0
LINE
  5
7DE1B343D9E1BC0
330
7DE1B343D9E1C1A
100
AcDbEntity
  8
TEXT
100
AcDbLine
 10
3.69641402397031
 20
3.91122932660998
 30
0.0
 11
3.69641402397031
 21
3.945617244204118
 31
0.0
  0
LINE
  5
7DE1B343D9E1BC1
330
7DE1B343D9E1C1A
100
AcDbEntity
  8
TEXT
100
AcDbLine
 10
3.768212990114218
 20
3.91122932660998
 30
0.0
 11
3.69641402397031
 21
3.91122932660998
 31
0.0
  0
LINE
  5
7DE1B343D9E1BC2
330
7DE1B343D9E1C1A
100
AcDbEntity
  8
TEXT
100
AcDbLine
 10
3.915713786745397
 20
3.91122932660998
 30
0.0
 11
3.885591873952021
 21
3.91122932660998
 31
0.0
  0
LINE
  5
7DE1B343D9E1BC3
330
7DE1B343D9E1C1A
100
AcDbEntity
  8
TEXT
100
AcDbLine
 10
3.915713786745397
 20
3.97924080434879
 30
0.0
 11
3.915713786745397
 21
3.91122932660998
 31
0.0
  0
LINE
  5
7DE1B343D9E1BC4
330
7DE1B343D9E1C1A
100
AcDbEntity
  8
TEXT
100
AcDbLine
 10
3.982522499311762
 20
3.97924080434879
 30
0.0
 11
3.915713786745397
 21
3.97924080434879
 31
0.0
  0
LWPOLYLINE
  5
7DE1B343D9E1BC5
330
7DE1B343D9E1C1A
100
AcDbEntity
  8
TEXT
100
AcDbPolyline
 90
        3
 70
     0
 43
0.0
 10
4.302934258909765
 20
3.911229326609983
 10
4.18463410009372
 20
3.911229326609983
 10
4.18463410009372
 20
3.884061829849087
 42
-1.960274751411753
  0
LINE
  5
7DE1B343D9E1BCA
330
7DE1B343D9E1C1A
100
AcDbEntity
  8
TEXT
100
AcDbLine
 10
4.148852409380559
 20
3.91122932660998
 30
0.0
 11
4.014834353449423
 21
3.91122932660998
 31
0.0
  0
LWPOLYLINE
  5
7DE1B343D9E1BCB
330
7DE1B343D9E1C1A
100
AcDbEntity
  8
TEXT
100
AcDbPolyline
 90
        2
 70
     0
 43
0.0
 10
4.148852409380559
 20
3.911229326609983
 42
-0.3328679258950098
 10
4.18463410009372
 20
3.884061829849087
 42
6.772930709997214
  0
LINE
  5
7DE1B343D9E1BCF
330
7DE1B343D9E1C1A
100
AcDbEntity
  8
TEXT
100
AcDbLine
 10
4.338715949622931
 20
3.91122932660998
 30
0.0
 11
4.338715949622931
 21
3.882906780840336
 31
0.0
  0
LWPOLYLINE
  5
7DE1B343D9E1BD0
330
7DE1B343D9E1C1A
100
AcDbEntity
  8
TEXT
100
AcDbPolyline
 90
        2
 70
     0
 43
0.0
 10
4.302934258909765
 20
3.911229326609983
 42
-0.3277054968067132
 10
4.33871594962293
 20
3.882906780840339
 42
6.667889725900311
  0
LINE
  5
7DE1B343D9E1BD4
330
7DE1B343D9E1C1A
100
AcDbEntity
  8
TEXT
100
AcDbLine
 10
4.552507797715032
 20
3.806017348056552
 30
0.0
 11
4.50875702653313
 21
3.888267624052697
 31
0.0
  0
LINE
  5
7DE1B343D9E1BD5
330
7DE1B343D9E1C1A
100
AcDbEntity
  8
TEXT
100
AcDbLine
 10
4.552507797715032
 20
3.91122932660998
 30
0.0
 11
4.552507797715032
 21
3.806017348056552
 31
0.0
  0
LINE
  5
7DE1B343D9E1BD6
330
7DE1B343D9E1C1A
100
AcDbEntity
  8
TEXT
100
AcDbLine
 10
4.780191536653401
 20
3.835364000198442
 30
0.0
 11
4.780191536653401
 21
3.97669353237758
 31
0.0
  0
LINE
  5
7DE1B343D9E1BD7
330
7DE1B343D9E1C1A
100
AcDbEntity
  8
TEXT
100
AcDbLine
 10
4.827289695209385
 20
3.91122932660998
 30
0.0
 11
4.780191536653401
 21
3.835364000198442
 31
0.0
  0
LINE
  5
7DE1B343D9E1BD8
330
7DE1B343D9E1C1A
100
AcDbEntity
  8
TEXT
100
AcDbLine
 10
4.837724411973308
 20
3.801336083669006
 30
0.0
 11
4.902281527939013
 21
3.91122932660998
 31
0.0
  0
LINE
  5
7DE1B343D9E1BD9
330
7DE1B343D9E1C1A
100
AcDbEntity
  8
TEXT
100
AcDbLine
 10
4.716356545430627
 20
3.644756293621469
 30
0.0
 11
4.780734729749248
 21
3.644756293621469
 31
0.0
  0
LWPOLYLINE
  5
7DE1B343D9E1BDA
330
7DE1B343D9E1C1A
100
AcDbEntity
  8
TEXT
100
AcDbPolyline
 90
        2
 70
     0
 43
0.0
 10
4.556447475020069
 20
3.688247238571907
 42
-0.2901071551932486
 10
4.513371542152425
 20
3.644756293621469
 42
-5.328517124445184
  0
ARC
  5
7DE1B343D9E1BDE
330
7DE1B343D9E1C1A
100
AcDbEntity
  8
TEXT
100
AcDbCircle
 10
4.44451696049551
 20
3.818593256953217
 30
0.0
 40
0.028359375
100
AcDbArc
 50
25.78218179591245
 51
90.0
  0
LINE
  5
7DE1B343D9E1BDF
330
7DE1B343D9E1C1A
100
AcDbEntity
  8
TEXT
100
AcDbLine
 10
4.480318035799633
 20
3.809677658491082
 30
0.0
 11
4.470053275386069
 21
3.830928198063776
 31
0.0
  0
LINE
  5
7DE1B343D9E1BE0
330
7DE1B343D9E1C1A
100
AcDbEntity
  8
TEXT
100
AcDbLine
 10
4.39803004601625
 20
3.809677658491082
 30
0.0
 11
4.480318035799633
 21
3.809677658491082
 31
0.0
  0
LWPOLYLINE
  5
7DE1B343D9E1BE1
330
7DE1B343D9E1C1A
100
AcDbEntity
  8
TEXT
100
AcDbPolyline
 90
        4
 70
     1
 43
0.0
 10
4.493249077082532
 20
3.747720271605494
 10
4.404588758422674
 20
3.747720271605494
 42
0.9999999999999998
 10
4.404588758422674
 20
3.705321731101633
 10
4.493249077082532
 20
3.705321731101633
 42
1.0
  0
LWPOLYLINE
  5
7DE1B343D9E1BE7
330
7DE1B343D9E1C1A
100
AcDbEntity
  8
TEXT
100
AcDbPolyline
 90
        2
 70
     0
 43
0.0
 10
4.379354124521048
 20
3.644756293621469
 10
4.513371542152425
 20
3.644756293621469
 42
0.9999999999999998
  0
LINE
  5
7DE1B343D9E1BEB
330
7DE1B343D9E1C1A
100
AcDbEntity
  8
TEXT
100
AcDbLine
 10
4.639708564138064
 20
3.846952631953214
 30
0.0
 11
4.716356545430622
 21
3.846952631953214
 31
0.0
  0
LINE
  5
7DE1B343D9E1BEC
330
7DE1B343D9E1C1A
100
AcDbEntity
  8
TEXT
100
AcDbLine
 10
4.716356545430622
 20
3.846952631953214
 30
0.0
 11
4.716356545430627
 21
3.644756293621469
 31
0.0
  0
ARC
  5
7DE1B343D9E1BED
330
7DE1B343D9E1C1A
100
AcDbEntity
  8
TEXT
100
AcDbCircle
 10
4.639708564138063
 20
3.822046756670551
 30
0.0
 40
0.0249058752826653
100
AcDbArc
 50
89.99971217465335
 51
179.9999999999985
  0
LINE
  5
7DE1B343D9E1BEE
330
7DE1B343D9E1C1A
100
AcDbEntity
  8
TEXT
100
AcDbLine
 10
4.614802688855405
 20
3.644756293621469
 30
0.0
 11
4.6148026888554
 21
3.822046799052937
 31
0.0
  0
LWPOLYLINE
  5
7DE1B343D9E1BEF
330
7DE1B343D9E1C1A
100
AcDbEntity
  8
TEXT
100
AcDbPolyline
 90
        2
 70
     0
 43
0.0
 10
4.556447475020069
 20
3.644756293621469
 10
4.614802688855403
 20
3.644756293621469
  0
LWPOLYLINE
  5
7DE1B343D9E1BF3
330
7DE1B343D9E1C1A
100
AcDbEntity
  8
TEXT
100
AcDbPolyline
 90
        2
 70
     0
 43
0.0
 10
4.556447475020069
 20
3.688247238571907
 10
4.556447475020069
 20
3.644756293621469
  0
LINE
  5
7DE1B343D9E1BF7
330
7DE1B343D9E1C1A
100
AcDbEntity
  8
TEXT
100
AcDbLine
 10
4.933216635336918
 20
3.644756293621469
 30
0.0
 11
4.837724411973308
 21
3.801336083669006
 31
0.0
  0
LINE
  5
7DE1B343D9E1BF8
330
7DE1B343D9E1C1A
100
AcDbEntity
  8
TEXT
100
AcDbLine
 10
4.856638262960712
 20
3.644756293621469
 30
0.0
 11
4.933216635336918
 21
3.644756293621469
 31
0.0
  0
LINE
  5
7DE1B343D9E1BF9
330
7DE1B343D9E1C1A
100
AcDbEntity
  8
TEXT
100
AcDbLine
 10
4.780734729749248
 20
3.776335862097649
 30
0.0
 11
4.856638262960712
 21
3.644756293621469
 31
0.0
  0
LINE
  5
7DE1B343D9E1BFA
330
7DE1B343D9E1C1A
100
AcDbEntity
  8
TEXT
100
AcDbLine
 10
4.780734729749248
 20
3.644756293621469
 30
0.0
 11
4.780734729749248
 21
3.776335862097649
 31
0.0
  0
LINE
  5
7DE1B343D9E1BFB
330
7DE1B343D9E1C1A
100
AcDbEntity
  8
TEXT
100
AcDbLine
 10
4.780191536653401
 20
3.97669353237758
 30
0.0
 11
4.711876658104127
 21
3.97669353237758
 31
0.0
  0
ARC
  5
7DE1B343D9E1BFC
330
7DE1B343D9E1C1A
100
AcDbEntity
  8
TEXT
100
AcDbCircle
 10
4.471520919062921
 20
3.869645759489077
 30
0.0
 40
0.0416329381542859
100
AcDbArc
 50
26.56974201007528
 51
87.20939649401342
  0
LINE
  5
7DE1B343D9E1BFD
330
7DE1B343D9E1C1A
100
AcDbEntity
  8
TEXT
100
AcDbLine
 10
4.616404704014533
 20
3.91122932660998
 30
0.0
 11
4.552507797715032
 21
3.91122932660998
 31
0.0
  0
LINE
  5
7DE1B343D9E1BFE
330
7DE1B343D9E1C1A
100
AcDbEntity
  8
TEXT
100
AcDbLine
 10
4.616404704014533
 20
3.883681676749105
 30
0.0
 11
4.616404704014533
 21
3.91122932660998
 31
0.0
  0
ARC
  5
7DE1B343D9E1BFF
330
7DE1B343D9E1C1A
100
AcDbEntity
  8
TEXT
100
AcDbCircle
 10
4.64759752107764
 20
3.879983599327715
 30
0.0
 40
0.0314112657011332
100
AcDbArc
 50
95.88484768694724
 51
173.2388340632136
  0
LINE
  5
7DE1B343D9E1C00
330
7DE1B343D9E1C1A
100
AcDbEntity
  8
TEXT
100
AcDbLine
 10
4.711876658104122
 20
3.91122932660998
 30
0.0
 11
4.644376940454606
 21
3.91122932660998
 31
0.0
  0
LINE
  5
7DE1B343D9E1C01
330
7DE1B343D9E1C1A
100
AcDbEntity
  8
TEXT
100
AcDbLine
 10
4.711876658104127
 20
3.97669353237758
 30
0.0
 11
4.711876658104122
 21
3.91122932660998
 31
0.0
  0
LINE
  5
7DE1B343D9E1C02
330
7DE1B343D9E1C1A
100
AcDbEntity
  8
TEXT
100
AcDbLine
 10
4.902281527939013
 20
3.91122932660998
 30
0.0
 11
4.827289695209387
 21
3.91122932660998
 31
0.0
  0
INSERT
  5
7DE1B343D9E1C39
330
7DE1B343D9E1C1A
100
AcDbEntity
  8
ASHADE
 62
     1
100
AcDbBlockReference
  2
AVE_RENDER
 10
0.0
 20
0.0
 30
0.0
1001
AVE_RENDER
1002
{
1070
     6
1000
Pref
1070
    30
1070
    20
1070
     1
1070
     0
1000

1070
    10
1070
     1
1070
    30
1040
1.0
1070
     1
1040
0.3
1040
0.7
1040
0.0
1040
10.0
1010
-1.0
1020
-1.0
1030
-1.0
1040
0.3
1070
    49
1070
     0
1070
     0
1010
1.0
1020
1.0
1030
1.0
1040
45.0
1070
     1
1070
     0
1000
WCS
1040
0.0
1002
}
  0
INSERT
  5
7DE1B343D9E1C3A
330
7DE1B343D9E1C1A
100
AcDbEntity
  8
ASHADE
 62
     3
100
AcDbBlockReference
  2
AVE_RENDER
 10
0.0
 20
0.0
 30
0.0
1001
AVE_RENDER
1002
{
1070
     0
1000
Full Opt
1070
     0
1070
     1
1070
     1
1070
     1
1070
     0
1070
     0
1070
     0
1070
     1
1070
     1
1040
0.0001
1040
0.0001
1002
}
  0
INSERT
  5
7DE1B343D9E1C3B
330
7DE1B343D9E1C1A
100
AcDbEntity
  8
ASHADE
 62
     4
100
AcDbBlockReference
  2
AVE_RENDER
 10
0.0
 20
0.0
 30
0.0
1001
AVE_RENDER
1002
{
1070
     0
1000
Quick Opt
1070
     0
1070
     1
1070
     1
1070
     1
1070
     0
1070
     0
1070
     1
1002
}
  0
INSERT
  5
7DE1B343D9E1C3C
330
7DE1B343D9E1C1A
100
AcDbEntity
  8
ASHADE
 62
     5
100
AcDbBlockReference
  2
AVE_RENDER
 10
0.0
 20
0.0
 30
0.0
1001
AVE_RENDER
1002
{
1070
     1
1000
Scanl Opt
1070
     2
1070
     0
1070
     2
1040
2.0
1040
4.0
1070
     0
1070
     1
1070
     0
1040
0.03
1002
}
  0
INSERT
  5
7DE1B343D9E1C3D
330
7DE1B343D9E1C1A
100
AcDbEntity
  8
ASHADE
 62
     6
100
AcDbBlockReference
  2
AVE_RENDER
 10
0.0
 20
0.0
 30
0.0
1001
AVE_RENDER
1002
{
1070
     2
1000
Raytr Opt
1070
     2
1070
     0
1070
     2
1040
2.0
1040
4.0
1070
     0
1070
     1
1070
     1
1040
0.03
1070
     3
1040
0.03
1002
}
  0
INSERT
  5
7DE1B343D9E1C3E
330
7DE1B343D9E1C1A
100
AcDbEntity
  8
ASHADE
 62
     7
100
AcDbBlockReference
  2
AVE_RENDER
 10
0.0
 20
0.0
 30
0.0
1001
AVE_RENDER
1002
{
1070
     0
1000
RFile Opt
1070
     5
1070
   640
1070
   480
1070
 10000
1070
     3
1070
    32
1070
    24
1070
     0
1070
     0
1070
     0
1070
     1
1070
     0
1070
     0
1070
     0
1002
}
  0
INSERT
  5
7DE1B343D9E1C3F
330
7DE1B343D9E1C1A
100
AcDbEntity
  8
ASHADE
 62
     8
100
AcDbBlockReference
  2
AVE_RENDER
 10
0.0
 20
0.0
 30
0.0
1001
AVE_RENDER
1002
{
1070
     0
1000
Fog Opt
1070
     0
1070
     0
1040
0.0
1040
1.0
1040
0.0
1040
1.0
1010
0.5
1020
0.5
1030
0.5
1002
}
  0
INSERT
  5
7DE1B343D9E1C40
330
7DE1B343D9E1C1A
100
AcDbEntity
  8
ASHADE
 62
     9
100
AcDbBlockReference
  2
AVE_RENDER
 10
0.0
 20
0.0
 30
0.0
1001
AVE_RENDER
1002
{
1070
     0
1000
BG Opt
1070
     0
1070
     1
1010
0.0
1020
0.0
1030
0.0
1010
1.0
1020
0.0
1030
0.0
1010
0.0
1020
1.0
1030
0.0
1010
0.0
1020
0.0
1030
1.0
1040
0.5
1040
0.33
1040
0.0
1000

1070
     1
1000

1070
     1
1070
     1
1040
1.0
1040
1.0
1040
0.0
1040
0.0
1070
     0
1002
}
  0
INSERT
  5
7DE1B343D9E1C47
330
7DE1B343D9E1C1A
100
AcDbEntity
  8
ASHADE
 62
     1
100
AcDbBlockReference
  2
AVE_GLOBAL
 10
0.0
 20
0.0
 30
0.0
1001
AVE_MATERIAL
1002
{
1000
*GLOBAL*
1000
1
1000
Global finish.
1002
{
1002
}
1002
{
1070
    63
1002
{
1002
{
1010
-1.0
1020
-1.0
1030
-1.0
1002
}
1040
0.1000000014901161
1000

1040
0.0
1002
{
1002
}
1040
0.0
1002
{
1002
}
1040
0.0
1002
}
1002
{
1002
{
1010
-1.0
1020
-1.0
1030
-1.0
1002
}
1040
0.6999999880790711
1000

1040
0.0
1002
{
1002
}
1040
0.0
1002
{
1002
}
1040
0.0
1002
}
1002
{
1002
{
1010
-1.0
1020
-1.0
1030
-1.0
1002
}
1040
0.2000000029802322
1000

1040
0.0
1002
{
1002
}
1040
0.0
1002
{
1002
}
1040
0.0
1002
}
1002
{
1070
     0
1002
{
1070
     1
1002
{
1040
1.0
1040
1.0
1000

1040
0.0
1002
{
1002
}
1040
0.0
1002
{
1002
}
1040
0.0
1002
}
1002
}
1040
1.0
1040
0.0
1040
0.0
1002
}
1002
{
1040
1.0
1040
1.0
1000

1040
0.0
1002
{
1002
}
1040
0.0
1002
{
1002
}
1040
0.0
1002
}
1002
{
1040
0.5
1040
1.0
1000

1040
0.0
1002
{
1002
}
1040
0.0
1002
{
1002
}
1040
0.0
1002
}
1002
{
1070
     0
1040
0.0
1002
{
1002
}
1040
1.0
1002
{
1002
}
1040
0.0
1002
}
1002
{
1040
0.0
1002
{
1002
{
1010
0.0
1020
0.0
1030
0.0
1002
}
1040
1.0
1000

1040
0.0
1002
{
1002
}
1040
0.0
1002
{
1002
}
1040
0.0
1002
}
1002
}
1002
{
1002
{
1070
     1
1002
{
1040
0.0
1040
1.0
1000

1040
0.0
1002
{
1002
}
1040
0.0
1002
{
1002
}
1040
0.0
1002
}
1002
}
1040
0.0
1002
{
1002
}
1010
1.0
1020
0.0
1030
0.0
1010
0.0
1020
1.0
1030
0.0
1010
0.0
1020
0.0
1030
1.0
1070
     0
1002
}
1002
{
1002
{
1040
1.0
1040
1.0
1002
{
1070
     1
1002
{
1040
1.0
1040
1.0
1000

1040
0.0
1002
{
1002
}
1040
0.0
1002
{
1002
}
1040
0.0
1002
}
1002
}
1002
}
1070
     0
1040
0.0
1002
{
1002
}
1002
}
1002
{
1002
}
1002
}
1002
{
1071
        3
1070
     3
1070
     0
1002
{
1070
     2
1070
     0
1070
     0
1040
0.0
1002
}
1070
     0
1070
     2
1002
{
1002
}
1002
}
1002
{
1040
8030.0
1040
190.3000030517578
1040
0.3050000071525574
1040
228.0
1040
545.0
1040
14.0
1040
17.39999961853027
1040
0.4560000002384186
1002
}
1002
}
  0
ENDSEC
  0
SECTION
  2
OBJECTS
  0
DICTIONARY
  5
7DE1B343D9E1C0E
330
0
100
AcDbDictionary
  3
ACAD_GROUP
350
7DE1B343D9E1C0F
  3
ACAD_LAYOUT
350
7DE1B343D9E1C53
  3
ACAD_MLINESTYLE
350
7DE1B343D9E1C10
  3
ACAD_PLOTSETTINGS
350
7DE1B343D9E1C54
  3
ACAD_PLOTSTYLENAME
350
7DE1B343D9E1C51
  3
ACDBHEADERROUNDTRIPXREC
350
7DE1B343D9E1C5E
  3
ACDBVARIABLEDICTIONARY
350
7DE1B343D9E1C5B
  0
DICTIONARY
  5
7DE1B343D9E1C80
330
7DE1B343D9E1C1A
100
AcDbDictionary
280
     1
  3
ACAD_LAYOUTSELFREF
360
7DE1B343D9E1C81
  0
DICTIONARY
  5
7DE1B343D9E1C7E
330
7DE1B343D9E1C17
100
AcDbDictionary
280
     1
  3
ACAD_LAYOUTSELFREF
360
7DE1B343D9E1C7F
  0
DICTIONARY
  5
7DE1B343D9E1C0F
102
{ACAD_REACTORS
330
7DE1B343D9E1C0E
102
}
330
7DE1B343D9E1C0E
100
AcDbDictionary
  0
DICTIONARY
  5
7DE1B343D9E1C53
102
{ACAD_REACTORS
330
7DE1B343D9E1C0E
102
}
330
7DE1B343D9E1C0E
100
AcDbDictionary
  0
DICTIONARY
  5
7DE1B343D9E1C10
102
{ACAD_REACTORS
330
7DE1B343D9E1C0E
102
}
330
7DE1B343D9E1C0E
100
AcDbDictionary
  3
STANDARD
350
7DE1B343D9E1C1D
  0
DICTIONARY
  5
7DE1B343D9E1C54
102
{ACAD_REACTORS
330
7DE1B343D9E1C0E
102
}
330
7DE1B343D9E1C0E
100
AcDbDictionary
  0
ACDBDICTIONARYWDFLT
  5
7DE1B343D9E1C51
102
{ACAD_REACTORS
330
7DE1B343D9E1C0E
102
}
330
7DE1B343D9E1C0E
100
AcDbDictionary
281
     1
  3
Normal
350
7DE1B343D9E1C52
100
AcDbDictionaryWithDefault
340
7DE1B343D9E1C52
  0
DICTIONARY
  5
7DE1B343D9E1C5E
102
{ACAD_REACTORS
330
7DE1B343D9E1C0E
102
}
330
7DE1B343D9E1C0E
100
AcDbDictionary
  3
CEPSNTYPE
350
7DE1B343D9E1C68
  3
FINGERPRINTGUID
350
7DE1B343D9E1C69
  3
HYPERLINKBASE
350
7DE1B343D9E1C61
  3
INSUNITS
350
7DE1B343D9E1C67
  3
LAYOUTDICT
350
7DE1B343D9E1C63
  3
LWETCUNION
350
7DE1B343D9E1C66
  3
PLOTSETDICT
350
7DE1B343D9E1C64
  3
PLOTSTYLNAMDICT
350
7DE1B343D9E1C65
  3
PSVPSCALE
350
7DE1B343D9E1C6B
  3
PUCSBASE
350
7DE1B343D9E1C6E
  3
PUCSORGBACK
350
7DE1B343D9E1C74
  3
PUCSORGBOTTOM
350
7DE1B343D9E1C70
  3
PUCSORGFRONT
350
7DE1B343D9E1C73
  3
PUCSORGLEFT
350
7DE1B343D9E1C71
  3
PUCSORGRIGHT
350
7DE1B343D9E1C72
  3
PUCSORGTOP
350
7DE1B343D9E1C6F
  3
PUCSORTHOREF
350
7DE1B343D9E1C6C
  3
PUCSORTHOVIEW
350
7DE1B343D9E1C6D
  3
STYLESHEET
350
7DE1B343D9E1C62
  3
TSTACKALIGN
350
7DE1B343D9E1C5F
  3
TSTACKSIZE
350
7DE1B343D9E1C60
  3
UCSBASE
350
7DE1B343D9E1C77
  3
UCSORGBACK
350
7DE1B343D9E1C7D
  3
UCSORGBOTTOM
350
7DE1B343D9E1C79
  3
UCSORGFRONT
350
7DE1B343D9E1C7C
  3
UCSORGLEFT
350
7DE1B343D9E1C7A
  3
UCSORGRIGHT
350
7DE1B343D9E1C7B
  3
UCSORGTOP
350
7DE1B343D9E1C78
  3
UCSORTHOREF
350
7DE1B343D9E1C75
  3
UCSORTHOVIEW
350
7DE1B343D9E1C76
  3
VERSIONGUID
350
7DE1B343D9E1C6A
  0
DICTIONARY
  5
7DE1B343D9E1C5B
102
{ACAD_REACTORS
330
7DE1B343D9E1C0E
102
}
330
7DE1B343D9E1C0E
100
AcDbDictionary
  3
DIMASSOC
350
7DE1B343D9E1C5C
  0
XRECORD
  5
7DE1B343D9E1C81
102
{ACAD_REACTORS
330
7DE1B343D9E1C80
102
}
330
7DE1B343D9E1C80
100
AcDbXrecord
340
7DE1B343D9E1C1A
  0
XRECORD
  5
7DE1B343D9E1C7F
102
{ACAD_REACTORS
330
7DE1B343D9E1C7E
102
}
330
7DE1B343D9E1C7E
100
AcDbXrecord
340
7DE1B343D9E1C17
  0
MLINESTYLE
  5
7DE1B343D9E1C1D
102
{ACAD_REACTORS
330
7DE1B343D9E1C10
102
}
330
7DE1B343D9E1C10
100
AcDbMlineStyle
  2
STANDARD
 70
     0
  3

 62
     0
 51
90.0
 52
90.0
 71
     2
 49
0.5
 62
   256
  6
BYLAYER
 49
-0.5
 62
   256
  6
BYLAYER
  0
ACDBPLACEHOLDER
  5
7DE1B343D9E1C52
102
{ACAD_REACTORS
330
7DE1B343D9E1C51
102
}
330
7DE1B343D9E1C51
100
AcDbPlaceHolder
280
     0
  0
XRECORD
  5
7DE1B343D9E1C68
102
{ACAD_REACTORS
330
7DE1B343D9E1C5E
102
}
330
7DE1B343D9E1C5E
100
AcDbXrecord
 90
        0
  0
XRECORD
  5
7DE1B343D9E1C69
102
{ACAD_REACTORS
330
7DE1B343D9E1C5E
102
}
330
7DE1B343D9E1C5E
100
AcDbXrecord
  1
{50299600-8DB7-11D6-88E6-0090279574E7}
  0
XRECORD
  5
7DE1B343D9E1C61
102
{ACAD_REACTORS
330
7DE1B343D9E1C5E
102
}
330
7DE1B343D9E1C5E
100
AcDbXrecord
  1

  0
XRECORD
  5
7DE1B343D9E1C67
102
{ACAD_REACTORS
330
7DE1B343D9E1C5E
102
}
330
7DE1B343D9E1C5E
100
AcDbXrecord
 90
        0
  0
XRECORD
  5
7DE1B343D9E1C63
102
{ACAD_REACTORS
330
7DE1B343D9E1C5E
102
}
330
7DE1B343D9E1C5E
100
AcDbXrecord
340
7DE1B343D9E1C53
  0
XRECORD
  5
7DE1B343D9E1C66
102
{ACAD_REACTORS
330
7DE1B343D9E1C5E
102
}
330
7DE1B343D9E1C5E
100
AcDbXrecord
 90
    14877
  0
XRECORD
  5
7DE1B343D9E1C64
102
{ACAD_REACTORS
330
7DE1B343D9E1C5E
102
}
330
7DE1B343D9E1C5E
100
AcDbXrecord
340
7DE1B343D9E1C54
  0
XRECORD
  5
7DE1B343D9E1C65
102
{ACAD_REACTORS
330
7DE1B343D9E1C5E
102
}
330
7DE1B343D9E1C5E
100
AcDbXrecord
340
7DE1B343D9E1C51
  0
XRECORD
  5
7DE1B343D9E1C6B
102
{ACAD_REACTORS
330
7DE1B343D9E1C5E
102
}
330
7DE1B343D9E1C5E
100
AcDbXrecord
 40
0.0
  0
XRECORD
  5
7DE1B343D9E1C6E
102
{ACAD_REACTORS
330
7DE1B343D9E1C5E
102
}
330
7DE1B343D9E1C5E
100
AcDbXrecord
340
0
  0
XRECORD
  5
7DE1B343D9E1C74
102
{ACAD_REACTORS
330
7DE1B343D9E1C5E
102
}
330
7DE1B343D9E1C5E
100
AcDbXrecord
 10
0.0
 20
0.0
 30
0.0
  0
XRECORD
  5
7DE1B343D9E1C70
102
{ACAD_REACTORS
330
7DE1B343D9E1C5E
102
}
330
7DE1B343D9E1C5E
100
AcDbXrecord
 10
0.0
 20
0.0
 30
0.0
  0
XRECORD
  5
7DE1B343D9E1C73
102
{ACAD_REACTORS
330
7DE1B343D9E1C5E
102
}
330
7DE1B343D9E1C5E
100
AcDbXrecord
 10
0.0
 20
0.0
 30
0.0
  0
XRECORD
  5
7DE1B343D9E1C71
102
{ACAD_REACTORS
330
7DE1B343D9E1C5E
102
}
330
7DE1B343D9E1C5E
100
AcDbXrecord
 10
0.0
 20
0.0
 30
0.0
  0
XRECORD
  5
7DE1B343D9E1C72
102
{ACAD_REACTORS
330
7DE1B343D9E1C5E
102
}
330
7DE1B343D9E1C5E
100
AcDbXrecord
 10
0.0
 20
0.0
 30
0.0
  0
XRECORD
  5
7DE1B343D9E1C6F
102
{ACAD_REACTORS
330
7DE1B343D9E1C5E
102
}
330
7DE1B343D9E1C5E
100
AcDbXrecord
 10
0.0
 20
0.0
 30
0.0
  0
XRECORD
  5
7DE1B343D9E1C6C
102
{ACAD_REACTORS
330
7DE1B343D9E1C5E
102
}
330
7DE1B343D9E1C5E
100
AcDbXrecord
340
0
  0
XRECORD
  5
7DE1B343D9E1C6D
102
{ACAD_REACTORS
330
7DE1B343D9E1C5E
102
}
330
7DE1B343D9E1C5E
100
AcDbXrecord
 70
     0
  0
XRECORD
  5
7DE1B343D9E1C62
102
{ACAD_REACTORS
330
7DE1B343D9E1C5E
102
}
330
7DE1B343D9E1C5E
100
AcDbXrecord
  1

  0
XRECORD
  5
7DE1B343D9E1C5F
102
{ACAD_REACTORS
330
7DE1B343D9E1C5E
102
}
330
7DE1B343D9E1C5E
100
AcDbXrecord
 90
        1
  0
XRECORD
  5
7DE1B343D9E1C60
102
{ACAD_REACTORS
330
7DE1B343D9E1C5E
102
}
330
7DE1B343D9E1C5E
100
AcDbXrecord
 90
       70
  0
XRECORD
  5
7DE1B343D9E1C77
102
{ACAD_REACTORS
330
7DE1B343D9E1C5E
102
}
330
7DE1B343D9E1C5E
100
AcDbXrecord
340
0
  0
XRECORD
  5
7DE1B343D9E1C7D
102
{ACAD_REACTORS
330
7DE1B343D9E1C5E
102
}
330
7DE1B343D9E1C5E
100
AcDbXrecord
 10
0.0
 20
0.0
 30
0.0
  0
XRECORD
  5
7DE1B343D9E1C79
102
{ACAD_REACTORS
330
7DE1B343D9E1C5E
102
}
330
7DE1B343D9E1C5E
100
AcDbXrecord
 10
0.0
 20
0.0
 30
0.0
  0
XRECORD
  5
7DE1B343D9E1C7C
102
{ACAD_REACTORS
330
7DE1B343D9E1C5E
102
}
330
7DE1B343D9E1C5E
100
AcDbXrecord
 10
0.0
 20
0.0
 30
0.0
  0
XRECORD
  5
7DE1B343D9E1C7A
102
{ACAD_REACTORS
330
7DE1B343D9E1C5E
102
}
330
7DE1B343D9E1C5E
100
AcDbXrecord
 10
0.0
 20
0.0
 30
0.0
  0
XRECORD
  5
7DE1B343D9E1C7B
102
{ACAD_REACTORS
330
7DE1B343D9E1C5E
102
}
330
7DE1B343D9E1C5E
100
AcDbXrecord
 10
0.0
 20
0.0
 30
0.0
  0
XRECORD
  5
7DE1B343D9E1C78
102
{ACAD_REACTORS
330
7DE1B343D9E1C5E
102
}
330
7DE1B343D9E1C5E
100
AcDbXrecord
 10
0.0
 20
0.0
 30
0.0
  0
XRECORD
  5
7DE1B343D9E1C75
102
{ACAD_REACTORS
330
7DE1B343D9E1C5E
102
}
330
7DE1B343D9E1C5E
100
AcDbXrecord
340
0
  0
XRECORD
  5
7DE1B343D9E1C76
102
{ACAD_REACTORS
330
7DE1B343D9E1C5E
102
}
330
7DE1B343D9E1C5E
100
AcDbXrecord
 70
     0
  0
XRECORD
  5
7DE1B343D9E1C6A
102
{ACAD_REACTORS
330
7DE1B343D9E1C5E
102
}
330
7DE1B343D9E1C5E
100
AcDbXrecord
  1
{50299602-8DB7-11D6-88E6-0090279574E7}
  0
DICTIONARYVAR
  5
7DE1B343D9E1C5C
102
{ACAD_REACTORS
330
7DE1B343D9E1C5B
102
}
330
7DE1B343D9E1C5B
100
DictionaryVariables
280
     0
  1
1
  0
ENDSEC
  0
EOF
