  0
SECTION
  2
HEADER
  9
$ACADVER
  1
AC1014
  9
$ACADMAINTVER
 70
     9
  9
$DWGCODEPAGE
  3
ANSI_1252
  9
$INSBASE
 10
0.0
 20
0.0
 30
0.0
  9
$EXTMIN
 10
1.898057322335282
 20
2.638595643883115
 30
0.0
  9
$EXTMAX
 10
5.383276644082418
 20
5.352575667737416
 30
0.0
  9
$LIMMIN
 10
0.0
 20
0.0
  9
$LIMMAX
 10
18.0
 20
12.0
  9
$ORTHOMODE
 70
     0
  9
$REGENMODE
 70
     1
  9
$FILLMODE
 70
     1
  9
$QTEXTMODE
 70
     0
  9
$MIRRTEXT
 70
     0
  9
$DRAGMODE
 70
     2
  9
$LTSCALE
 40
1.0
  9
$OSMODE
 70
    39
  9
$ATTMODE
 70
     1
  9
$TEXTSIZE
 40
0.125
  9
$TRACEWID
 40
0.05
  9
$TEXTSTYLE
  7
ROMANS
  9
$CLAYER
  8
0
  9
$CELTYPE
  6
BYLAYER
  9
$CECOLOR
 62
   256
  9
$CELTSCALE
 40
1.0
  9
$DELOBJ
 70
     1
  9
$DISPSILH
 70
     1
  9
$DIMSCALE
 40
1.0
  9
$DIMASZ
 40
0.125
  9
$DIMEXO
 40
0.125
  9
$DIMDLI
 40
0.375
  9
$DIMRND
 40
0.0
  9
$DIMDLE
 40
0.0
  9
$DIMEXE
 40
0.125
  9
$DIMTP
 40
0.0
  9
$DIMTM
 40
0.0
  9
$DIMTXT
 40
0.125
  9
$DIMCEN
 40
-0.125
  9
$DIMTSZ
 40
0.0
  9
$DIMTOL
 70
     0
  9
$DIMLIM
 70
     0
  9
$DIMTIH
 70
     1
  9
$DIMTOH
 70
     1
  9
$DIMSE1
 70
     1
  9
$DIMSE2
 70
     0
  9
$DIMTAD
 70
     0
  9
$DIMZIN
 70
     4
  9
$DIMBLK
  1

  9
$DIMASO
 70
     1
  9
$DIMSHO
 70
     1
  9
$DIMPOST
  1

  9
$DIMAPOST
  1

  9
$DIMALT
 70
     0
  9
$DIMALTD
 70
     2
  9
$DIMALTF
 40
25.4
  9
$DIMLFAC
 40
1.0
  9
$DIMTOFL
 70
     1
  9
$DIMTVP
 40
0.0
  9
$DIMTIX
 70
     0
  9
$DIMSOXD
 70
     0
  9
$DIMSAH
 70
     0
  9
$DIMBLK1
  1

  9
$DIMBLK2
  1

  9
$DIMSTYLE
  2
STANDARD
  9
$DIMCLRD
 70
     0
  9
$DIMCLRE
 70
     0
  9
$DIMCLRT
 70
     0
  9
$DIMTFAC
 40
1.0
  9
$DIMGAP
 40
0.09
  9
$DIMJUST
 70
     0
  9
$DIMSD1
 70
     0
  9
$DIMSD2
 70
     0
  9
$DIMTOLJ
 70
     1
  9
$DIMTZIN
 70
     0
  9
$DIMALTZ
 70
     0
  9
$DIMALTTZ
 70
     0
  9
$DIMFIT
 70
     3
  9
$DIMUPT
 70
     0
  9
$DIMUNIT
 70
     2
  9
$DIMDEC
 70
     3
  9
$DIMTDEC
 70
     4
  9
$DIMALTU
 70
     2
  9
$DIMALTTD
 70
     2
  9
$DIMTXSTY
  7
ROMANS
  9
$DIMAUNIT
 70
     0
  9
$LUNITS
 70
     2
  9
$LUPREC
 70
     3
  9
$SKETCHINC
 40
0.1
  9
$FILLETRAD
 40
0.03125
  9
$AUNITS
 70
     0
  9
$AUPREC
 70
     0
  9
$MENU
  1
AUTOMSTR
  9
$ELEVATION
 40
0.0
  9
$PELEVATION
 40
0.0
  9
$THICKNESS
 40
0.0
  9
$LIMCHECK
 70
     0
  9
$BLIPMODE
 70
     0
  9
$CHAMFERA
 40
0.0
  9
$CHAMFERB
 40
0.0
  9
$CHAMFERC
 40
0.0
  9
$CHAMFERD
 40
0.0
  9
$SKPOLY
 70
     0
  9
$TDCREATE
 40
2448526.513356828
  9
$TDUPDATE
 40
2452458.311884432
  9
$TDINDWG
 40
0.0930984491
  9
$TDUSRTIMER
 40
0.0930984491
  9
$USRTIMER
 70
     1
  9
$ANGBASE
 50
0.0
  9
$ANGDIR
 70
     0
  9
$PDMODE
 70
     0
  9
$PDSIZE
 40
0.0
  9
$PLINEWID
 40
0.0
  9
$COORDS
 70
     2
  9
$SPLFRAME
 70
     0
  9
$SPLINETYPE
 70
     6
  9
$SPLINESEGS
 70
     8
  9
$ATTDIA
 70
     0
  9
$ATTREQ
 70
     1
  9
$HANDLING
 70
 22529
  9
$HANDSEED
  5
5A1
  9
$SURFTAB1
 70
     6
  9
$SURFTAB2
 70
     6
  9
$SURFTYPE
 70
     6
  9
$SURFU
 70
     6
  9
$SURFV
 70
     6
  9
$UCSNAME
  2

  9
$UCSORG
 10
0.0
 20
0.0
 30
0.0
  9
$UCSXDIR
 10
1.0
 20
0.0
 30
0.0
  9
$UCSYDIR
 10
0.0
 20
1.0
 30
0.0
  9
$PUCSNAME
  2

  9
$PUCSORG
 10
0.0
 20
0.0
 30
0.0
  9
$PUCSXDIR
 10
1.0
 20
0.0
 30
0.0
  9
$PUCSYDIR
 10
0.0
 20
1.0
 30
0.0
  9
$USERI1
 70
     0
  9
$USERI2
 70
     0
  9
$USERI3
 70
     0
  9
$USERI4
 70
     0
  9
$USERI5
 70
     0
  9
$USERR1
 40
0.0
  9
$USERR2
 40
0.0
  9
$USERR3
 40
0.0
  9
$USERR4
 40
0.0
  9
$USERR5
 40
0.0
  9
$WORLDVIEW
 70
     1
  9
$SHADEDGE
 70
     3
  9
$SHADEDIF
 70
    70
  9
$TILEMODE
 70
     1
  9
$MAXACTVP
 70
    16
  9
$PINSBASE
 10
0.0
 20
0.0
 30
0.0
  9
$PLIMCHECK
 70
     0
  9
$PEXTMIN
 10
1.000000000000000E+20
 20
1.000000000000000E+20
 30
1.000000000000000E+20
  9
$PEXTMAX
 10
-1.000000000000000E+20
 20
-1.000000000000000E+20
 30
-1.000000000000000E+20
  9
$PLIMMIN
 10
0.0
 20
0.0
  9
$PLIMMAX
 10
12.0
 20
9.0
  9
$UNITMODE
 70
     0
  9
$VISRETAIN
 70
     0
  9
$PLINEGEN
 70
     1
  9
$PSLTSCALE
 70
     0
  9
$TREEDEPTH
 70
  3020
  9
$PICKSTYLE
 70
     1
  9
$CMLSTYLE
  2
STANDARD
  9
$CMLJUST
 70
     0
  9
$CMLSCALE
 40
1.0
  9
$PROXYGRAPHICS
 70
     1
  9
$MEASUREMENT
 70
     0
  0
ENDSEC
  0
SECTION
  2
CLASSES
  0
CLASS
  1
LWPOLYLINE
  2
AcDbPolyline
  3
AutoCAD 2000
 90
        0
280
     0
281
     1
  0
CLASS
  1
ACDBDICTIONARYWDFLT
  2
AcDbDictionaryWithDefault
  3
AutoCAD 2000
 90
        0
280
     0
281
     0
  0
CLASS
  1
ACDBPLACEHOLDER
  2
AcDbPlaceHolder
  3
AutoCAD 2000
 90
        0
280
     0
281
     0
  0
CLASS
  1
LAYOUT
  2
AcDbLayout
  3
AutoCAD 2000
 90
        0
280
     0
281
     0
  0
CLASS
  1
DICTIONARYVAR
  2
AcDbDictionaryVar
  3
AutoCAD 2000
 90
        0
280
     0
281
     0
  0
CLASS
  1
LONG_TRANSACTION
  2
AcDbLongTransaction
  3
AutoCAD 2000
 90
        0
280
     0
281
     0
  0
CLASS
  1
LWPOLYLINE
  2
AcDbPolyline
  3
AutoCAD 2000
 90
        0
280
     0
281
     1
  0
CLASS
  1
HATCH
  2
AcDbHatch
  3
AutoCAD 2000
 90
        0
280
     0
281
     1
  0
CLASS
  1
XRECORD
  2
AcDbXrecord
  3
AutoCAD 2000
 90
        0
280
     0
281
     0
  0
ENDSEC
  0
SECTION
  2
TABLES
  0
TABLE
  2
VPORT
  5
8
330
0
100
AcDbSymbolTable
 70
     2
  0
VPORT
  5
57C
330
8
100
AcDbSymbolTableRecord
100
AcDbViewportTableRecord
  2
*ACTIVE
 70
     0
 10
0.0
 20
0.0
 11
1.0
 21
1.0
 12
7.33907425171696
 22
3.995698820975899
 13
0.0
 23
0.0
 14
0.015625
 24
0.015625
 15
0.0
 25
0.0
 16
0.0
 26
0.0
 36
1.0
 17
0.0
 27
0.0
 37
0.0
 40
2.738609346756126
 41
4.320930232558139
 42
50.0
 43
0.0
 44
0.0
 50
0.0
 51
0.0
 71
     0
 72
  2000
 73
     1
 74
     1
 75
     0
 76
     0
 77
     0
 78
     0
  0
ENDTAB
  0
TABLE
  2
LTYPE
  5
5
330
0
100
AcDbSymbolTable
 70
     1
  0
LTYPE
  5
12
330
5
100
AcDbSymbolTableRecord
100
AcDbLinetypeTableRecord
  2
BYBLOCK
 70
     0
  3

 72
    65
 73
     0
 40
0.0
  0
LTYPE
  5
13
330
5
100
AcDbSymbolTableRecord
100
AcDbLinetypeTableRecord
  2
BYLAYER
 70
     0
  3

 72
    65
 73
     0
 40
0.0
  0
LTYPE
  5
14
330
5
100
AcDbSymbolTableRecord
100
AcDbLinetypeTableRecord
  2
CONTINUOUS
 70
     0
  3
Solid line
 72
    65
 73
     0
 40
0.0
  0
ENDTAB
  0
TABLE
  2
LAYER
  5
2
330
0
100
AcDbSymbolTable
 70
     2
  0
LAYER
  5
F
330
2
100
AcDbSymbolTableRecord
100
AcDbLayerTableRecord
  2
0
 70
     0
 62
     7
  6
CONTINUOUS
  0
LAYER
  5
2F
330
2
100
AcDbSymbolTableRecord
100
AcDbLayerTableRecord
  2
TEXT
 70
     0
 62
     3
  6
CONTINUOUS
  0
ENDTAB
  0
TABLE
  2
STYLE
  5
3
330
0
100
AcDbSymbolTable
 70
     3
  0
STYLE
  5
10
330
3
100
AcDbSymbolTableRecord
100
AcDbTextStyleTableRecord
  2
STANDARD
 70
     0
 40
0.0
 41
1.0
 50
0.0
 71
     0
 42
0.125
  3
txt
  4

  0
STYLE
  5
468
330
3
100
AcDbSymbolTableRecord
100
AcDbTextStyleTableRecord
  2
ITALICC
 70
     0
 40
0.0
 41
1.0
 50
0.0
 71
     0
 42
0.125
  3
italicc
  4

  0
STYLE
  5
578
330
3
100
AcDbSymbolTableRecord
100
AcDbTextStyleTableRecord
  2
ROMANS
 70
     0
 40
0.0
 41
1.0
 50
0.0
 71
     0
 42
0.125
  3
romans.shx
  4

  0
ENDTAB
  0
TABLE
  2
VIEW
  5
6
330
0
100
AcDbSymbolTable
 70
     0
  0
ENDTAB
  0
TABLE
  2
UCS
  5
7
330
0
100
AcDbSymbolTable
 70
     0
  0
ENDTAB
  0
TABLE
  2
APPID
  5
9
330
0
100
AcDbSymbolTable
 70
     1
  0
APPID
  5
11
330
9
100
AcDbSymbolTableRecord
100
AcDbRegAppTableRecord
  2
ACAD
 70
     0
  0
ENDTAB
  0
TABLE
  2
DIMSTYLE
  5
A
330
0
100
AcDbSymbolTable
 70
     1
  0
DIMSTYLE
105
45B
330
A
100
AcDbSymbolTableRecord
100
AcDbDimStyleTableRecord
  2
STANDARD
 70
     0
  3

  4

  5

  6

  7

 40
1.0
 41
0.18
 42
0.0625
 43
0.38
 44
0.18
 45
0.0
 46
0.0
 47
0.0
 48
0.0
140
0.18
141
0.09
142
0.0
143
25.4
144
1.0
145
0.0
146
1.0
147
0.09
 71
     0
 72
     0
 73
     1
 74
     1
 75
     0
 76
     0
 77
     0
 78
     0
170
     0
171
     2
172
     0
173
     0
174
     0
175
     0
176
     0
177
     0
178
     0
270
     2
271
     4
272
     4
273
     2
274
     2
340
10
275
     0
280
     0
281
     0
282
     0
283
     1
284
     0
285
     0
286
     0
287
     3
288
     0
  0
ENDTAB
  0
TABLE
  2
BLOCK_RECORD
  5
1
330
0
100
AcDbSymbolTable
 70
     0
  0
BLOCK_RECORD
  5
18
102
{ACAD_XDICTIONARY
360
59F
102
}
330
1
100
AcDbSymbolTableRecord
100
AcDbBlockTableRecord
  2
*MODEL_SPACE
  0
BLOCK_RECORD
  5
15
102
{ACAD_XDICTIONARY
360
59D
102
}
330
1
100
AcDbSymbolTableRecord
100
AcDbBlockTableRecord
  2
*PAPER_SPACE
  0
ENDTAB
  0
ENDSEC
  0
SECTION
  2
BLOCKS
  0
BLOCK
  5
39
330
18
100
AcDbEntity
  8
0
100
AcDbBlockBegin
  2
*MODEL_SPACE
 70
     0
 10
0.0
 20
0.0
 30
0.0
  3
*MODEL_SPACE
  1

  0
ENDBLK
  5
3A
330
18
100
AcDbEntity
  8
0
100
AcDbBlockEnd
  0
BLOCK
  5
37
330
15
100
AcDbEntity
 67
     1
  8
0
100
AcDbBlockBegin
  2
*PAPER_SPACE
 70
     0
 10
0.0
 20
0.0
 30
0.0
  3
*PAPER_SPACE
  1

  0
ENDBLK
  5
38
330
15
100
AcDbEntity
 67
     1
  8
0
100
AcDbBlockEnd
  0
ENDSEC
  0
SECTION
  2
ENTITIES
  0
LWPOLYLINE
  5
3D5
330
18
100
AcDbEntity
  8
0
100
AcDbPolyline
 90
       35
 70
     1
 43
0.0
 10
4.303499559156723
 20
5.189117389845841
 10
4.256624559156724
 20
5.216180683714107
 42
-0.2679491924311512
 10
4.240999559156723
 20
5.243243977582367
 10
4.240999559156723
 20
5.283603580825336
 10
4.209749559156723
 20
5.283603580825336
 42
-1.0
 10
4.209749559156723
 20
5.346103580825336
 10
4.647249559156723
 20
5.346103580825336
 42
-0.4142135623730951
 10
4.678499559156723
 20
5.314853580825336
 10
4.678499559156723
 20
4.971103580825414
 10
4.678499559156723
 20
4.221103580825261
 10
4.678499559156723
 20
3.877353580825336
 42
-0.4142135623730951
 10
4.647249559156723
 20
3.846103580825336
 10
4.428499559156723
 20
3.846103580825336
 10
4.428499559156723
 20
3.627353580825336
 42
-0.4142135623730951
 10
4.397249559156723
 20
3.596103580825336
 10
2.959749559156723
 20
3.596103580825336
 42
-0.4142135623730951
 10
2.928499559156723
 20
3.627353580825336
 10
2.928499559156723
 20
4.064853580825336
 42
-1.0
 10
2.990999559156723
 20
4.064853580825336
 10
2.990999559156723
 20
4.033603580825336
 10
2.990999559156723
 20
3.971103580825336
 10
2.990999559156723
 20
3.658603580825336
 10
4.365999559156723
 20
3.658603580825336
 10
4.365999559156723
 20
3.846103580825336
 10
4.272249559156723
 20
3.846103580825336
 42
-0.4142135623730951
 10
4.240999559156723
 20
3.877353580825336
 10
4.240999559156723
 20
4.136463184068305
 42
-0.267949192431142
 10
4.256624559156723
 20
4.16352647793657
 10
4.303499559156723
 20
4.190589771804831
 10
4.303499559156723
 20
3.908603580825336
 10
4.615999559156723
 20
3.908603580825336
 10
4.615999559156723
 20
4.208603580825248
 10
4.615999559156723
 20
4.983603580825346
 10
4.615999559156723
 20
5.283603580825336
 10
4.303499559156723
 20
5.283603580825336
  0
LINE
  5
4EE
330
18
100
AcDbEntity
  8
TEXT
100
AcDbLine
 10
3.749255373029825
 20
2.84067193019109
 30
0.0
 11
3.749255373029825
 21
2.982001462370229
 31
0.0
  0
LINE
  5
4EF
330
18
100
AcDbEntity
  8
TEXT
100
AcDbLine
 10
3.796353531585808
 20
2.916537256602628
 30
0.0
 11
3.749255373029825
 21
2.84067193019109
 31
0.0
  0
LINE
  5
4F0
330
18
100
AcDbEntity
  8
TEXT
100
AcDbLine
 10
3.806788248349732
 20
2.806644013661655
 30
0.0
 11
3.871345364315438
 21
2.916537256602628
 31
0.0
  0
TEXT
  5
4F1
330
18
100
AcDbEntity
  8
TEXT
100
AcDbText
 10
4.054344059812747
 20
2.836208459225906
 30
0.0
 40
0.0522247191011236
  1
6536 Main St. N.E. * P.O. Box 32008
 41
0.8388932496075355
 72
     5
 11
5.38327664408241
 21
2.836208459225906
 31
0.0
100
AcDbText
  0
ARC
  5
4F2
330
18
100
AcDbEntity
  8
TEXT
100
AcDbCircle
 10
3.608772400514487
 20
2.8273546866632
 30
0.0
 40
0.0249058752826653
100
AcDbArc
 50
89.99971217465335
 51
179.9999999999985
  0
LINE
  5
4F3
330
18
100
AcDbEntity
  8
TEXT
100
AcDbLine
 10
3.521571634091454
 20
2.811325278049201
 30
0.0
 11
3.477820862909553
 21
2.893575554045346
 31
0.0
  0
LINE
  5
4F4
330
18
100
AcDbEntity
  8
TEXT
100
AcDbLine
 10
3.521571634091454
 20
2.916537256602628
 30
0.0
 11
3.521571634091454
 21
2.811325278049201
 31
0.0
  0
ARC
  5
4F5
330
18
100
AcDbEntity
  8
TEXT
100
AcDbCircle
 10
3.413580796871935
 20
2.823901186945866
 30
0.0
 40
0.028359375
100
AcDbArc
 50
25.78218179591245
 51
90.0
  0
LINE
  5
4F6
330
18
100
AcDbEntity
  8
TEXT
100
AcDbLine
 10
2.951586335688187
 20
2.732452061717117
 30
0.0
 11
2.951586335688187
 21
2.984548734341439
 31
0.0
  0
LINE
  5
4F7
330
18
100
AcDbEntity
  8
TEXT
100
AcDbLine
 10
2.983898189825847
 20
2.916537256602628
 30
0.0
 11
2.983898189825847
 21
2.71567304987022
 31
0.0
  0
LINE
  5
4F8
330
18
100
AcDbEntity
  8
TEXT
100
AcDbLine
 10
2.854655710328444
 20
2.916537256602628
 30
0.0
 11
2.79590714752258
 21
2.815665260489508
 31
0.0
  0
LINE
  5
4F9
330
18
100
AcDbEntity
  8
TEXT
100
AcDbLine
 10
2.79590714752258
 20
2.815665260489508
 30
0.0
 11
2.737276826490642
 21
2.916537256602628
 31
0.0
  0
ARC
  5
4FA
330
18
100
AcDbEntity
  8
TEXT
100
AcDbCircle
 10
2.429703502604215
 20
2.834449797156127
 30
0.0
 40
0.0820874594465043
100
AcDbArc
 50
90.0
 51
270.0
  0
LWPOLYLINE
  5
4FB
330
18
100
AcDbEntity
  8
TEXT
100
AcDbPolyline
 90
        2
 70
     0
 43
0.0001332181640625
 10
2.021617169503251
 20
2.843267266368252
 10
2.01162580719856
 20
2.916537256602632
  0
LWPOLYLINE
  5
4FC
330
18
100
AcDbEntity
  8
TEXT
100
AcDbPolyline
 90
        2
 70
     0
 43
0.0001332181640625
 10
2.01162580719856
 20
2.889893623790131
 10
2.021617169503251
 20
2.829945449962005
  0
LWPOLYLINE
  5
4FD
330
18
100
AcDbEntity
  8
TEXT
100
AcDbPolyline
 90
        2
 70
     0
 43
0.0001332181640625
 10
2.051591256417312
 20
2.889893623790131
 10
2.041599894112623
 20
2.829945449962005
  0
LWPOLYLINE
  5
4FE
330
18
100
AcDbEntity
  8
TEXT
100
AcDbPolyline
 90
        2
 70
     0
 43
0.0001332181640625
 10
2.051591256417312
 20
2.916537256602632
 10
2.041599894112623
 20
2.843267266368252
  0
LWPOLYLINE
  5
4FF
330
18
100
AcDbEntity
  8
TEXT
100
AcDbPolyline
 90
        3
 70
     0
 43
0.0006660908203125
 10
2.164826695870438
 20
2.803301817149504
 10
2.164826695870438
 20
2.916537256602632
 10
2.051591256417312
 20
2.916537256602632
  0
LWPOLYLINE
  5
500
330
18
100
AcDbEntity
  8
TEXT
100
AcDbPolyline
 90
        3
 70
     0
 43
0.0006660908203125
 10
2.138183063057937
 20
2.803301817149504
 10
2.138183063057937
 20
2.889893623790131
 10
2.051591256417312
 20
2.889893623790131
  0
LWPOLYLINE
  5
501
330
18
100
AcDbEntity
  8
TEXT
100
AcDbPolyline
 90
        2
 70
     0
 43
0.0001332181640625
 10
2.138183063057937
 20
2.889893623790131
 10
2.078234889229813
 20
2.829945449962005
  0
LWPOLYLINE
  5
502
330
18
100
AcDbEntity
  8
TEXT
100
AcDbPolyline
 90
        2
 70
     0
 43
0.0001332181640625
 10
1.925034000557936
 20
2.889893623790131
 10
1.984982174386061
 20
2.829945449962005
  0
LWPOLYLINE
  5
503
330
18
100
AcDbEntity
  8
TEXT
100
AcDbPolyline
 90
        3
 70
     0
 43
0.0006660908203125
 10
2.01162580719856
 20
2.916537256602632
 10
1.898390367745438
 20
2.916537256602632
 10
1.898390367745438
 20
2.803301817149504
  0
LWPOLYLINE
  5
504
330
18
100
AcDbEntity
  8
TEXT
100
AcDbPolyline
 90
        3
 70
     0
 43
0.0006660908203125
 10
2.01162580719856
 20
2.889893623790131
 10
1.925034000557936
 20
2.889893623790131
 10
1.925034000557936
 20
2.803301817149504
  0
LINE
  5
505
330
18
100
AcDbEntity
  8
TEXT
100
AcDbLine
 10
2.500540968962765
 20
2.816455840335235
 30
0.0
 11
2.434940832718464
 21
2.816455840335235
 31
0.0
  0
LINE
  5
506
330
18
100
AcDbEntity
  8
TEXT
100
AcDbLine
 10
2.429703502604215
 20
2.752362337709621
 30
0.0
 11
2.505481342869044
 21
2.752362337709621
 31
0.0
  0
LINE
  5
507
330
18
100
AcDbEntity
  8
TEXT
100
AcDbLine
 10
2.347616043157712
 20
2.650064223614117
 30
0.0
 11
2.500540968962765
 21
2.650064223614117
 31
0.0
  0
LINE
  5
508
330
18
100
AcDbEntity
  8
TEXT
100
AcDbLine
 10
2.505481342869044
 20
2.718421229947557
 30
0.0
 11
2.34761604315771
 21
2.718421229947557
 31
0.0
  0
LINE
  5
509
330
18
100
AcDbEntity
  8
TEXT
100
AcDbLine
 10
2.434940832718464
 20
2.852260561945863
 30
0.0
 11
2.601846486747433
 21
2.852260561945863
 31
0.0
  0
LWPOLYLINE
  5
50A
330
18
100
AcDbEntity
  8
TEXT
100
AcDbPolyline
 90
        2
 70
     0
 43
0.0006660908203125
 10
2.138183063057937
 20
2.803301817149504
 10
2.164826695870438
 20
2.803301817149504
  0
LWPOLYLINE
  5
50B
330
18
100
AcDbEntity
  8
TEXT
100
AcDbPolyline
 90
        2
 70
     0
 43
0.0001332181640625
 10
2.091556705636062
 20
2.793310454844815
 10
2.164826695870438
 20
2.803301817149504
  0
LWPOLYLINE
  5
50C
330
18
100
AcDbEntity
  8
TEXT
100
AcDbPolyline
 90
        2
 70
     0
 43
0.0006660908203125
 10
2.138183063057937
 20
2.763336367930756
 10
2.164826695870438
 20
2.763336367930756
  0
LWPOLYLINE
  5
50D
330
18
100
AcDbEntity
  8
TEXT
100
AcDbPolyline
 90
        3
 70
     0
 43
0.0006660908203125
 10
2.051591256417312
 20
2.650100928477629
 10
2.164826695870438
 20
2.650100928477629
 10
2.164826695870438
 20
2.763336367930756
  0
LWPOLYLINE
  5
50E
330
18
100
AcDbEntity
  8
TEXT
100
AcDbPolyline
 90
        2
 70
     0
 43
0.0001332181640625
 10
2.164826695870438
 20
2.763336367930756
 10
2.091556705636062
 20
2.773327730235441
  0
LWPOLYLINE
  5
50F
330
18
100
AcDbEntity
  8
TEXT
100
AcDbPolyline
 90
        3
 70
     0
 43
0.0006660908203125
 10
1.898390367745438
 20
2.763336367930756
 10
1.898390367745438
 20
2.650100928477629
 10
2.01162580719856
 20
2.650100928477629
  0
LWPOLYLINE
  5
510
330
18
100
AcDbEntity
  8
TEXT
100
AcDbPolyline
 90
        3
 70
     0
 43
0.0006660908203125
 10
1.925034000557936
 20
2.763336367930756
 10
1.925034000557936
 20
2.67674456129013
 10
2.01162580719856
 20
2.67674456129013
  0
LWPOLYLINE
  5
511
330
18
100
AcDbEntity
  8
TEXT
100
AcDbPolyline
 90
        5
 70
     0
 43
0.0001332181640625
 10
2.021617169503251
 20
2.723370918712005
 10
2.021617169503251
 20
2.736692735118255
 10
1.984982174386063
 20
2.736692735118255
 10
1.984982174386063
 20
2.773327730235441
 10
1.971660357979812
 20
2.773327730235441
  0
LWPOLYLINE
  5
512
330
18
100
AcDbEntity
  8
TEXT
100
AcDbPolyline
 90
        5
 70
     0
 43
0.0001332181640625
 10
1.971660357979812
 20
2.793310454844815
 10
1.984982174386061
 20
2.793310454844815
 10
1.984982174386061
 20
2.829945449962005
 10
2.021617169503251
 20
2.829945449962005
 10
2.021617169503251
 20
2.843267266368252
  0
LWPOLYLINE
  5
513
330
18
100
AcDbEntity
  8
TEXT
100
AcDbPolyline
 90
        2
 70
     0
 43
0.0001332181640625
 10
1.925034000557936
 20
2.803301817149504
 10
1.984982174386061
 20
2.793310454844815
  0
LWPOLYLINE
  5
514
330
18
100
AcDbEntity
  8
TEXT
100
AcDbPolyline
 90
        2
 70
     0
 43
0.0001332181640625
 10
1.898390367745438
 20
2.803301817149504
 10
1.971660357979812
 20
2.793310454844815
  0
LWPOLYLINE
  5
515
330
18
100
AcDbEntity
  8
TEXT
100
AcDbPolyline
 90
        2
 70
     0
 43
0.0006660908203125
 10
1.925034000557936
 20
2.803301817149504
 10
1.898390367745438
 20
2.803301817149504
  0
LWPOLYLINE
  5
516
330
18
100
AcDbEntity
  8
TEXT
100
AcDbPolyline
 90
        2
 70
     0
 43
0.0001332181640625
 10
1.925034000557936
 20
2.67674456129013
 10
1.984982174386063
 20
2.736692735118255
  0
LWPOLYLINE
  5
517
330
18
100
AcDbEntity
  8
TEXT
100
AcDbPolyline
 90
        2
 70
     0
 43
0.0006660908203125
 10
1.925034000557936
 20
2.763336367930756
 10
1.898390367745438
 20
2.763336367930756
  0
LWPOLYLINE
  5
518
330
18
100
AcDbEntity
  8
TEXT
100
AcDbPolyline
 90
        2
 70
     0
 43
0.0001332181640625
 10
1.971660357979812
 20
2.773327730235441
 10
1.898390367745438
 20
2.763336367930756
  0
LWPOLYLINE
  5
519
330
18
100
AcDbEntity
  8
TEXT
100
AcDbPolyline
 90
        2
 70
     0
 43
0.0001332181640625
 10
1.925034000557936
 20
2.763336367930756
 10
1.984982174386063
 20
2.773327730235441
  0
LWPOLYLINE
  5
51A
330
18
100
AcDbEntity
  8
TEXT
100
AcDbPolyline
 90
        5
 70
     0
 43
0.0001332181640625
 10
2.041599894112623
 20
2.843267266368252
 10
2.041599894112623
 20
2.829945449962005
 10
2.078234889229813
 20
2.829945449962005
 10
2.078234889229813
 20
2.793310454844815
 10
2.091556705636062
 20
2.793310454844815
  0
LWPOLYLINE
  5
51B
330
18
100
AcDbEntity
  8
TEXT
100
AcDbPolyline
 90
        2
 70
     0
 43
0.0001332181640625
 10
2.138183063057937
 20
2.803301817149504
 10
2.078234889229813
 20
2.793310454844815
  0
LWPOLYLINE
  5
51C
330
18
100
AcDbEntity
  8
TEXT
100
AcDbPolyline
 90
        2
 70
     0
 43
0.0006660908203125
 10
2.01162580719856
 20
2.67674456129013
 10
2.01162580719856
 20
2.650100928477629
  0
LWPOLYLINE
  5
51D
330
18
100
AcDbEntity
  8
TEXT
100
AcDbPolyline
 90
        2
 70
     0
 43
0.0001332181640625
 10
2.01162580719856
 20
2.67674456129013
 10
2.021617169503251
 20
2.736692735118255
  0
LWPOLYLINE
  5
51E
330
18
100
AcDbEntity
  8
TEXT
100
AcDbPolyline
 90
        2
 70
     0
 43
0.0001332181640625
 10
2.01162580719856
 20
2.650100928477629
 10
2.021617169503251
 20
2.723370918712005
  0
LWPOLYLINE
  5
51F
330
18
100
AcDbEntity
  8
TEXT
100
AcDbPolyline
 90
        2
 70
     0
 43
0.0001332181640625
 10
2.051591256417312
 20
2.67674456129013
 10
2.041599894112623
 20
2.736692735118255
  0
LWPOLYLINE
  5
520
330
18
100
AcDbEntity
  8
TEXT
100
AcDbPolyline
 90
        2
 70
     0
 43
0.0001332181640625
 10
2.041599894112623
 20
2.723370918712005
 10
2.051591256417312
 20
2.650100928477629
  0
LWPOLYLINE
  5
521
330
18
100
AcDbEntity
  8
TEXT
100
AcDbPolyline
 90
        2
 70
     0
 43
0.0006660908203125
 10
2.051591256417312
 20
2.67674456129013
 10
2.051591256417312
 20
2.650100928477629
  0
LWPOLYLINE
  5
522
330
18
100
AcDbEntity
  8
TEXT
100
AcDbPolyline
 90
        2
 70
     0
 43
0.0001332181640625
 10
2.138183063057937
 20
2.67674456129013
 10
2.078234889229813
 20
2.736692735118255
  0
LWPOLYLINE
  5
523
330
18
100
AcDbEntity
  8
TEXT
100
AcDbPolyline
 90
        3
 70
     0
 43
0.0006660908203125
 10
2.051591256417312
 20
2.67674456129013
 10
2.138183063057937
 20
2.67674456129013
 10
2.138183063057937
 20
2.763336367930756
  0
LWPOLYLINE
  5
524
330
18
100
AcDbEntity
  8
TEXT
100
AcDbPolyline
 90
        2
 70
     0
 43
0.0001332181640625
 10
2.138183063057937
 20
2.763336367930756
 10
2.078234889229813
 20
2.773327730235441
  0
LWPOLYLINE
  5
525
330
18
100
AcDbEntity
  8
TEXT
100
AcDbPolyline
 90
        5
 70
     0
 43
0.0001332181640625
 10
2.091556705636062
 20
2.773327730235441
 10
2.078234889229813
 20
2.773327730235441
 10
2.078234889229813
 20
2.736692735118255
 10
2.041599894112623
 20
2.736692735118255
 10
2.041599894112623
 20
2.723370918712005
  0
ARC
  5
526
330
18
100
AcDbEntity
  8
TEXT
100
AcDbCircle
 10
2.434940832718464
 20
2.834358201140551
 30
0.0
 40
0.017902360805315
100
AcDbArc
 50
90.0
 51
270.0
  0
LINE
  5
527
330
18
100
AcDbEntity
  8
TEXT
100
AcDbLine
 10
2.34761604315771
 20
2.718421229947557
 30
0.0
 11
2.347616043157712
 21
2.650064223614117
 31
0.0
  0
TEXT
  5
528
330
18
100
AcDbEntity
  8
TEXT
100
AcDbText
 10
4.054344059812747
 20
2.649691605293321
 30
0.0
 40
0.0522247191011236
  1
Phone  1-800-328-2495
 41
1.272321428571429
 72
     5
 11
5.38327664408241
 21
2.649691605293321
 31
0.0
100
AcDbText
  0
TEXT
  5
529
330
18
100
AcDbEntity
  8
TEXT
100
AcDbText
 10
4.054344059812747
 20
2.742950032259614
 30
0.0
 40
0.0522247191011236
  1
Minneapolis, MN 55432-0008
 41
1.11444212721585
 72
     5
 11
5.38327664408241
 21
2.742950032259614
 31
0.0
100
AcDbText
  0
LINE
  5
52A
330
18
100
AcDbEntity
  8
TEXT
100
AcDbLine
 10
3.608772400514489
 20
2.852260561945863
 30
0.0
 11
3.685420381807045
 21
2.852260561945863
 31
0.0
  0
LINE
  5
52B
330
18
100
AcDbEntity
  8
TEXT
100
AcDbLine
 10
3.050729242883814
 20
2.852260561945863
 30
0.0
 11
3.100564522706964
 21
2.852260561945863
 31
0.0
  0
ARC
  5
52C
330
18
100
AcDbEntity
  8
TEXT
100
AcDbCircle
 10
2.752263350613411
 20
2.689611945887813
 30
0.0
 40
0.0392772371940762
100
AcDbArc
 50
270.1604552698595
 51
330.0831797321295
  0
ARC
  5
52D
330
18
100
AcDbEntity
  8
TEXT
100
AcDbCircle
 10
2.661962504721186
 20
2.709856614952167
 30
0.0
 40
0.0601160179737537
100
AcDbArc
 50
180.0000000000003
 51
264.0521544866073
  0
LINE
  5
52E
330
18
100
AcDbEntity
  8
TEXT
100
AcDbLine
 10
2.601846486747433
 20
2.852260561945863
 30
0.0
 11
2.601846486747433
 21
2.709856614952167
 31
0.0
  0
ARC
  5
52F
330
18
100
AcDbEntity
  8
TEXT
100
AcDbCircle
 10
2.505481342869044
 20
2.735391783828591
 30
0.0
 40
0.0169705538810321
100
AcDbArc
 50
270.0
 51
90.0
  0
ARC
  5
530
330
18
100
AcDbEntity
  8
TEXT
100
AcDbCircle
 10
2.500540968962765
 20
2.733260031974674
 30
0.0
 40
0.0831958083605586
100
AcDbArc
 50
270.0
 51
90.0
  0
LWPOLYLINE
  5
531
330
18
100
AcDbEntity
  8
TEXT
100
AcDbPolyline
 90
        6
 70
     1
 43
0.0
 10
2.698256897802689
 20
2.852260561945863
 10
2.667940303582481
 20
2.852260561945863
 10
2.667940303582481
 20
2.729149563890969
 42
0.407328721240804
 10
2.679483954743957
 20
2.717330649214583
 10
2.740105653788688
 20
2.717330649214583
 10
2.757570994196006
 20
2.750142878258062
  0
LINE
  5
532
330
18
100
AcDbEntity
  8
TEXT
100
AcDbLine
 10
2.655733094227539
 20
2.650064223614117
 30
0.0
 11
2.752373345302533
 21
2.6503348627124
 31
0.0
  0
LWPOLYLINE
  5
533
330
18
100
AcDbEntity
  8
TEXT
100
AcDbPolyline
 90
        2
 70
     0
 43
0.0
 10
2.883606616619069
 20
2.701615565829046
 42
0.3318488747599744
 10
2.952725909184382
 20
2.650064223614117
 42
-6.868794160588311
  0
LINE
  5
534
330
18
100
AcDbEntity
  8
TEXT
100
AcDbLine
 10
2.883606616619069
 20
2.834372940654398
 30
0.0
 11
2.883606616619069
 21
2.701615565829042
 31
0.0
  0
LINE
  5
535
330
18
100
AcDbEntity
  8
TEXT
100
AcDbLine
 10
2.786306910525624
 20
2.67002272971913
 30
0.0
 11
2.883606616619069
 21
2.834372940654398
 31
0.0
  0
ARC
  5
536
330
18
100
AcDbEntity
  8
TEXT
100
AcDbCircle
 10
2.966904552941244
 20
2.731054856113646
 30
0.0
 40
0.0153818062434269
100
AcDbArc
 50
174.7883570302258
 51
270.0
  0
LINE
  5
537
330
18
100
AcDbEntity
  8
TEXT
100
AcDbLine
 10
2.983898189825847
 20
2.71567304987022
 30
0.0
 11
2.966904552941244
 21
2.71567304987022
 31
0.0
  0
LINE
  5
538
330
18
100
AcDbEntity
  8
TEXT
100
AcDbLine
 10
2.95272590918438
 20
2.650064223614117
 30
0.0
 11
3.050729242883814
 21
2.650064223614117
 31
0.0
  0
LINE
  5
539
330
18
100
AcDbEntity
  8
TEXT
100
AcDbLine
 10
3.050729242883814
 20
2.650064223614117
 30
0.0
 11
3.050729242883814
 21
2.852260561945863
 31
0.0
  0
LINE
  5
53A
330
18
100
AcDbEntity
  8
TEXT
100
AcDbLine
 10
3.413580796871936
 20
2.852260561945863
 30
0.0
 11
3.306374523484645
 21
2.852260561945863
 31
0.0
  0
LINE
  5
53B
330
18
100
AcDbEntity
  8
TEXT
100
AcDbLine
 10
3.367093882392673
 20
2.814985588483731
 30
0.0
 11
3.449381872176058
 21
2.814985588483731
 31
0.0
  0
LWPOLYLINE
  5
53C
330
18
100
AcDbEntity
  8
TEXT
100
AcDbPolyline
 90
        4
 70
     1
 43
0.0
 10
3.462312913458957
 20
2.753028201598143
 10
3.373652594799098
 20
2.753028201598143
 42
0.9999999999999998
 10
3.373652594799098
 20
2.710629661094282
 10
3.462312913458957
 20
2.710629661094282
 42
1.0
  0
LWPOLYLINE
  5
53D
330
18
100
AcDbEntity
  8
TEXT
100
AcDbPolyline
 90
        2
 70
     0
 43
0.0
 10
3.348417960897473
 20
2.650064223614117
 10
3.482435378528849
 20
2.650064223614117
 42
0.9999999999999998
  0
LINE
  5
53E
330
18
100
AcDbEntity
  8
TEXT
100
AcDbLine
 10
3.175176358654915
 20
2.852260561945863
 30
0.0
 11
3.229309955575867
 21
2.852260561945863
 31
0.0
  0
LINE
  5
53F
330
18
100
AcDbEntity
  8
TEXT
100
AcDbLine
 10
3.108118311873077
 20
2.650064223614117
 30
0.0
 11
3.175176358654915
 21
2.650064223614117
 31
0.0
  0
LINE
  5
540
330
18
100
AcDbEntity
  8
TEXT
100
AcDbLine
 10
3.175176358654915
 20
2.650064223614117
 30
0.0
 11
3.175176358654915
 21
2.852260561945863
 31
0.0
  0
LINE
  5
541
330
18
100
AcDbEntity
  8
TEXT
100
AcDbLine
 10
3.108118311873077
 20
2.844706772779753
 30
0.0
 11
3.108118311873077
 21
2.650064223614117
 31
0.0
  0
LWPOLYLINE
  5
542
330
18
100
AcDbEntity
  8
TEXT
100
AcDbPolyline
 90
        2
 70
     0
 43
0.0
 10
3.100564522706962
 20
2.852260561945863
 42
-0.4142135623731017
 10
3.108118311873075
 20
2.844706772779753
 42
-0.9999999999999998
  0
LINE
  5
543
330
18
100
AcDbEntity
  8
TEXT
100
AcDbLine
 10
3.306374523484645
 20
2.852260561945863
 30
0.0
 11
3.306374523484645
 21
2.777208155871656
 31
0.0
  0
ARC
  5
544
330
18
100
AcDbEntity
  8
TEXT
100
AcDbCircle
 10
3.367093882392673
 20
2.747300007339612
 30
0.0
 40
0.0676855811441166
100
AcDbArc
 50
90.0
 51
153.7768192527749
  0
LWPOLYLINE
  5
545
330
18
100
AcDbEntity
  8
TEXT
100
AcDbPolyline
 90
        2
 70
     0
 43
0.0
 10
3.305342028029837
 20
2.693555168564556
 42
0.2901071551932823
 10
3.348417960897473
 20
2.650064223614117
 42
5.328517124445801
  0
LWPOLYLINE
  5
546
330
18
100
AcDbEntity
  8
TEXT
100
AcDbPolyline
 90
        2
 70
     0
 43
0.0
 10
3.229309955575866
 20
2.852260561945863
 42
-0.4142135623731017
 10
3.236863744741979
 20
2.844706772779753
 42
-0.9999999999999998
  0
LWPOLYLINE
  5
547
330
18
100
AcDbEntity
  8
TEXT
100
AcDbPolyline
 90
        4
 70
     0
 43
0.0
 10
3.236863744741979
 20
2.844706772779753
 10
3.236863744741979
 20
2.650064223614117
 10
3.305342028029837
 20
2.650064223614117
 10
3.305342028029837
 20
2.693555168564556
 42
-1.714843617202739
  0
LWPOLYLINE
  5
548
330
18
100
AcDbEntity
  8
TEXT
100
AcDbPolyline
 90
        2
 70
     0
 43
0.0
 10
3.525511311396494
 20
2.693555168564556
 42
-0.2901071551932486
 10
3.482435378528849
 20
2.650064223614117
 42
-5.328517124445184
  0
LWPOLYLINE
  5
549
330
18
100
AcDbEntity
  8
TEXT
100
AcDbPolyline
 90
        2
 70
     0
 43
0.0
 10
3.525511311396494
 20
2.650064223614117
 10
3.583866525231828
 20
2.650064223614117
  0
LWPOLYLINE
  5
54A
330
18
100
AcDbEntity
  8
TEXT
100
AcDbPolyline
 90
        2
 70
     0
 43
0.0
 10
3.525511311396494
 20
2.693555168564556
 10
3.525511311396494
 20
2.650064223614117
  0
LINE
  5
54B
330
18
100
AcDbEntity
  8
TEXT
100
AcDbLine
 10
3.449381872176058
 20
2.814985588483731
 30
0.0
 11
3.439117111762492
 21
2.836236128056425
 31
0.0
  0
LINE
  5
54C
330
18
100
AcDbEntity
  8
TEXT
100
AcDbLine
 10
3.58386652523183
 20
2.650064223614117
 30
0.0
 11
3.583866525231822
 21
2.827354729045586
 31
0.0
  0
LINE
  5
54D
330
18
100
AcDbEntity
  8
TEXT
100
AcDbLine
 10
3.902280471713343
 20
2.650064223614117
 30
0.0
 11
3.806788248349732
 21
2.806644013661655
 31
0.0
  0
LINE
  5
54E
330
18
100
AcDbEntity
  8
TEXT
100
AcDbLine
 10
3.825702099337135
 20
2.650064223614117
 30
0.0
 11
3.902280471713343
 21
2.650064223614117
 31
0.0
  0
LINE
  5
54F
330
18
100
AcDbEntity
  8
TEXT
100
AcDbLine
 10
3.685420381807052
 20
2.650064223614117
 30
0.0
 11
3.749798566125672
 21
2.650064223614117
 31
0.0
  0
LINE
  5
550
330
18
100
AcDbEntity
  8
TEXT
100
AcDbLine
 10
3.685420381807045
 20
2.852260561945863
 30
0.0
 11
3.685420381807052
 21
2.650064223614117
 31
0.0
  0
LINE
  5
551
330
18
100
AcDbEntity
  8
TEXT
100
AcDbLine
 10
3.749798566125672
 20
2.781643792090298
 30
0.0
 11
3.825702099337135
 21
2.650064223614117
 31
0.0
  0
LINE
  5
552
330
18
100
AcDbEntity
  8
TEXT
100
AcDbLine
 10
3.749798566125672
 20
2.650064223614117
 30
0.0
 11
3.749798566125672
 21
2.781643792090298
 31
0.0
  0
LINE
  5
553
330
18
100
AcDbEntity
  8
TEXT
100
AcDbLine
 10
2.605435255502726
 20
2.916537256602628
 30
0.0
 11
2.429703502604215
 21
2.916537256602628
 31
0.0
  0
LWPOLYLINE
  5
554
330
18
100
AcDbEntity
  8
TEXT
100
AcDbPolyline
 90
        2
 70
     0
 43
0.0006660908203125
 10
2.01162580719856
 20
2.889893623790131
 10
2.01162580719856
 20
2.916537256602632
  0
LWPOLYLINE
  5
555
330
18
100
AcDbEntity
  8
TEXT
100
AcDbPolyline
 90
        2
 70
     0
 43
0.0006660908203125
 10
2.051591256417312
 20
2.889893623790131
 10
2.051591256417312
 20
2.916537256602632
  0
TEXT
  5
556
330
18
100
AcDbEntity
  8
TEXT
100
AcDbText
 10
4.054344059812747
 20
2.929466886192198
 30
0.0
 40
0.0522247191011236
  1
Stylmark  Incorporated
 41
1.221428571428571
 72
     5
 11
5.38327664408241
 21
2.929466886192198
 31
0.0
100
AcDbText
  0
LINE
  5
557
330
18
100
AcDbEntity
  8
TEXT
100
AcDbLine
 10
3.680940494480545
 20
2.916537256602628
 30
0.0
 11
3.61344077683103
 21
2.916537256602628
 31
0.0
  0
TEXT
  5
558
330
18
100
AcDbEntity
  8
TEXT
100
AcDbText
 10
2.888062711086234
 20
3.096614247965697
 30
0.0
 40
0.125
  1
PART #110424
  7
ITALICC
 72
     1
 11
3.641038901562424
 21
3.096614247965697
 31
0.0
100
AcDbText
  0
LINE
  5
559
330
18
100
AcDbEntity
  8
TEXT
100
AcDbLine
 10
3.117916245756983
 20
2.916537256602628
 30
0.0
 11
2.983898189825847
 21
2.916537256602628
 31
0.0
  0
LINE
  5
55A
330
18
100
AcDbEntity
  8
TEXT
100
AcDbLine
 10
2.665477860346733
 20
2.950925174196767
 30
0.0
 11
2.605435255502726
 21
2.950925174196767
 31
0.0
  0
LINE
  5
55B
330
18
100
AcDbEntity
  8
TEXT
100
AcDbLine
 10
2.605435255502726
 20
2.950925174196767
 30
0.0
 11
2.605435255502726
 21
2.916537256602628
 31
0.0
  0
LINE
  5
55C
330
18
100
AcDbEntity
  8
TEXT
100
AcDbLine
 10
2.737276826490642
 20
2.916537256602628
 30
0.0
 11
2.665477860346733
 21
2.916537256602628
 31
0.0
  0
LINE
  5
55D
330
18
100
AcDbEntity
  8
TEXT
100
AcDbLine
 10
2.665477860346733
 20
2.916537256602628
 30
0.0
 11
2.665477860346733
 21
2.950925174196767
 31
0.0
  0
LINE
  5
55E
330
18
100
AcDbEntity
  8
TEXT
100
AcDbLine
 10
2.951586335688187
 20
2.984548734341439
 30
0.0
 11
2.88477762312182
 21
2.984548734341439
 31
0.0
  0
LINE
  5
55F
330
18
100
AcDbEntity
  8
TEXT
100
AcDbLine
 10
2.88477762312182
 20
2.916537256602628
 30
0.0
 11
2.854655710328444
 21
2.916537256602628
 31
0.0
  0
LINE
  5
560
330
18
100
AcDbEntity
  8
TEXT
100
AcDbLine
 10
2.88477762312182
 20
2.984548734341439
 30
0.0
 11
2.88477762312182
 21
2.916537256602628
 31
0.0
  0
LINE
  5
561
330
18
100
AcDbEntity
  8
TEXT
100
AcDbLine
 10
3.442611695216413
 20
2.916537256602628
 30
0.0
 11
3.307779785999354
 21
2.916537256602628
 31
0.0
  0
LWPOLYLINE
  5
562
330
18
100
AcDbEntity
  8
TEXT
100
AcDbPolyline
 90
        3
 70
     0
 43
0.0
 10
3.271998095286189
 20
2.916537256602632
 10
3.153697936470145
 20
2.916537256602632
 10
3.153697936470145
 20
2.889369759841736
 42
-1.960274751411753
  0
LWPOLYLINE
  5
563
330
18
100
AcDbEntity
  8
TEXT
100
AcDbPolyline
 90
        2
 70
     0
 43
0.0
 10
3.117916245756983
 20
2.916537256602632
 42
-0.3328679258950098
 10
3.153697936470145
 20
2.889369759841736
 42
6.772930709997214
  0
LINE
  5
564
330
18
100
AcDbEntity
  8
TEXT
100
AcDbLine
 10
3.307779785999354
 20
2.916537256602628
 30
0.0
 11
3.307779785999354
 21
2.888214710832984
 31
0.0
  0
LWPOLYLINE
  5
565
330
18
100
AcDbEntity
  8
TEXT
100
AcDbPolyline
 90
        2
 70
     0
 43
0.0
 10
3.271998095286189
 20
2.916537256602632
 42
-0.3277054968067132
 10
3.307779785999354
 20
2.888214710832988
 42
6.667889725900311
  0
LINE
  5
566
330
18
100
AcDbEntity
  8
TEXT
100
AcDbLine
 10
3.585468540390955
 20
2.916537256602628
 30
0.0
 11
3.521571634091454
 21
2.916537256602628
 31
0.0
  0
ARC
  5
567
330
18
100
AcDbEntity
  8
TEXT
100
AcDbCircle
 10
3.440584755439346
 20
2.874953689481726
 30
0.0
 40
0.0416329381542859
100
AcDbArc
 50
26.56974201007528
 51
87.20939649401342
  0
LINE
  5
568
330
18
100
AcDbEntity
  8
TEXT
100
AcDbLine
 10
3.585468540390955
 20
2.888989606741754
 30
0.0
 11
3.585468540390955
 21
2.916537256602628
 31
0.0
  0
ARC
  5
569
330
18
100
AcDbEntity
  8
TEXT
100
AcDbCircle
 10
3.616661357454065
 20
2.885291529320364
 30
0.0
 40
0.0314112657011332
100
AcDbArc
 50
95.88484768694724
 51
173.2388340632136
  0
LINE
  5
56A
330
18
100
AcDbEntity
  8
TEXT
100
AcDbLine
 10
3.871345364315438
 20
2.916537256602628
 30
0.0
 11
3.796353531585811
 21
2.916537256602628
 31
0.0
  0
LINE
  5
56B
330
18
100
AcDbEntity
  8
TEXT
100
AcDbLine
 10
3.680940494480552
 20
2.982001462370229
 30
0.0
 11
3.680940494480545
 21
2.916537256602628
 31
0.0
  0
LINE
  5
56C
330
18
100
AcDbEntity
  8
TEXT
100
AcDbLine
 10
3.749255373029825
 20
2.982001462370229
 30
0.0
 11
3.680940494480552
 21
2.982001462370229
 31
0.0
  0
ENDSEC
  0
SECTION
  2
OBJECTS
  0
DICTIONARY
  5
C
330
0
100
AcDbDictionary
  3
ACAD_GROUP
350
D
  3
ACAD_LAYOUT
350
571
  3
ACAD_MLINESTYLE
350
E
  3
ACAD_PLOTSETTINGS
350
572
  3
ACAD_PLOTSTYLENAME
350
56F
  3
ACDBHEADERROUNDTRIPXREC
350
57D
  3
ACDBVARIABLEDICTIONARY
350
57A
  0
DICTIONARY
  5
59F
330
18
100
AcDbDictionary
280
     1
  3
ACAD_LAYOUTSELFREF
360
5A0
  0
DICTIONARY
  5
59D
330
15
100
AcDbDictionary
280
     1
  3
ACAD_LAYOUTSELFREF
360
59E
  0
DICTIONARY
  5
D
102
{ACAD_REACTORS
330
C
102
}
330
C
100
AcDbDictionary
  0
DICTIONARY
  5
571
102
{ACAD_REACTORS
330
C
102
}
330
C
100
AcDbDictionary
  0
DICTIONARY
  5
E
102
{ACAD_REACTORS
330
C
102
}
330
C
100
AcDbDictionary
  3
STANDARD
350
1B
  0
DICTIONARY
  5
572
102
{ACAD_REACTORS
330
C
102
}
330
C
100
AcDbDictionary
  0
ACDBDICTIONARYWDFLT
  5
56F
102
{ACAD_REACTORS
330
C
102
}
330
C
100
AcDbDictionary
281
     1
  3
Normal
350
570
100
AcDbDictionaryWithDefault
340
570
  0
DICTIONARY
  5
57D
102
{ACAD_REACTORS
330
C
102
}
330
C
100
AcDbDictionary
  3
CEPSNTYPE
350
587
  3
FINGERPRINTGUID
350
588
  3
HYPERLINKBASE
350
580
  3
INSUNITS
350
586
  3
LAYOUTDICT
350
582
  3
LWETCUNION
350
585
  3
PLOTSETDICT
350
583
  3
PLOTSTYLNAMDICT
350
584
  3
PSVPSCALE
350
58A
  3
PUCSBASE
350
58D
  3
PUCSORGBACK
350
593
  3
PUCSORGBOTTOM
350
58F
  3
PUCSORGFRONT
350
592
  3
PUCSORGLEFT
350
590
  3
PUCSORGRIGHT
350
591
  3
PUCSORGTOP
350
58E
  3
PUCSORTHOREF
350
58B
  3
PUCSORTHOVIEW
350
58C
  3
STYLESHEET
350
581
  3
TSTACKALIGN
350
57E
  3
TSTACKSIZE
350
57F
  3
UCSBASE
350
596
  3
UCSORGBACK
350
59C
  3
UCSORGBOTTOM
350
598
  3
UCSORGFRONT
350
59B
  3
UCSORGLEFT
350
599
  3
UCSORGRIGHT
350
59A
  3
UCSORGTOP
350
597
  3
UCSORTHOREF
350
594
  3
UCSORTHOVIEW
350
595
  3
VERSIONGUID
350
589
  0
DICTIONARY
  5
57A
102
{ACAD_REACTORS
330
C
102
}
330
C
100
AcDbDictionary
  3
DIMASSOC
350
57B
  0
XRECORD
  5
5A0
102
{ACAD_REACTORS
330
59F
102
}
330
59F
100
AcDbXrecord
340
18
  0
XRECORD
  5
59E
102
{ACAD_REACTORS
330
59D
102
}
330
59D
100
AcDbXrecord
340
15
  0
MLINESTYLE
  5
1B
102
{ACAD_REACTORS
330
E
102
}
330
E
100
AcDbMlineStyle
  2
STANDARD
 70
     0
  3

 62
     0
 51
90.0
 52
90.0
 71
     2
 49
0.5
 62
   256
  6
BYLAYER
 49
-0.5
 62
   256
  6
BYLAYER
  0
ACDBPLACEHOLDER
  5
570
102
{ACAD_REACTORS
330
56F
102
}
330
56F
100
AcDbPlaceHolder
280
     0
  0
XRECORD
  5
587
102
{ACAD_REACTORS
330
57D
102
}
330
57D
100
AcDbXrecord
 90
        0
  0
XRECORD
  5
588
102
{ACAD_REACTORS
330
57D
102
}
330
57D
100
AcDbXrecord
  1
{4B940600-8DB7-11D6-88E6-0090279574E7}
  0
XRECORD
  5
580
102
{ACAD_REACTORS
330
57D
102
}
330
57D
100
AcDbXrecord
  1

  0
XRECORD
  5
586
102
{ACAD_REACTORS
330
57D
102
}
330
57D
100
AcDbXrecord
 90
        0
  0
XRECORD
  5
582
102
{ACAD_REACTORS
330
57D
102
}
330
57D
100
AcDbXrecord
340
571
  0
XRECORD
  5
585
102
{ACAD_REACTORS
330
57D
102
}
330
57D
100
AcDbXrecord
 90
    14877
  0
XRECORD
  5
583
102
{ACAD_REACTORS
330
57D
102
}
330
57D
100
AcDbXrecord
340
572
  0
XRECORD
  5
584
102
{ACAD_REACTORS
330
57D
102
}
330
57D
100
AcDbXrecord
340
56F
  0
XRECORD
  5
58A
102
{ACAD_REACTORS
330
57D
102
}
330
57D
100
AcDbXrecord
 40
0.0
  0
XRECORD
  5
58D
102
{ACAD_REACTORS
330
57D
102
}
330
57D
100
AcDbXrecord
340
0
  0
XRECORD
  5
593
102
{ACAD_REACTORS
330
57D
102
}
330
57D
100
AcDbXrecord
 10
0.0
 20
0.0
 30
0.0
  0
XRECORD
  5
58F
102
{ACAD_REACTORS
330
57D
102
}
330
57D
100
AcDbXrecord
 10
0.0
 20
0.0
 30
0.0
  0
XRECORD
  5
592
102
{ACAD_REACTORS
330
57D
102
}
330
57D
100
AcDbXrecord
 10
0.0
 20
0.0
 30
0.0
  0
XRECORD
  5
590
102
{ACAD_REACTORS
330
57D
102
}
330
57D
100
AcDbXrecord
 10
0.0
 20
0.0
 30
0.0
  0
XRECORD
  5
591
102
{ACAD_REACTORS
330
57D
102
}
330
57D
100
AcDbXrecord
 10
0.0
 20
0.0
 30
0.0
  0
XRECORD
  5
58E
102
{ACAD_REACTORS
330
57D
102
}
330
57D
100
AcDbXrecord
 10
0.0
 20
0.0
 30
0.0
  0
XRECORD
  5
58B
102
{ACAD_REACTORS
330
57D
102
}
330
57D
100
AcDbXrecord
340
0
  0
XRECORD
  5
58C
102
{ACAD_REACTORS
330
57D
102
}
330
57D
100
AcDbXrecord
 70
     0
  0
XRECORD
  5
581
102
{ACAD_REACTORS
330
57D
102
}
330
57D
100
AcDbXrecord
  1

  0
XRECORD
  5
57E
102
{ACAD_REACTORS
330
57D
102
}
330
57D
100
AcDbXrecord
 90
        1
  0
XRECORD
  5
57F
102
{ACAD_REACTORS
330
57D
102
}
330
57D
100
AcDbXrecord
 90
       70
  0
XRECORD
  5
596
102
{ACAD_REACTORS
330
57D
102
}
330
57D
100
AcDbXrecord
340
0
  0
XRECORD
  5
59C
102
{ACAD_REACTORS
330
57D
102
}
330
57D
100
AcDbXrecord
 10
0.0
 20
0.0
 30
0.0
  0
XRECORD
  5
598
102
{ACAD_REACTORS
330
57D
102
}
330
57D
100
AcDbXrecord
 10
0.0
 20
0.0
 30
0.0
  0
XRECORD
  5
59B
102
{ACAD_REACTORS
330
57D
102
}
330
57D
100
AcDbXrecord
 10
0.0
 20
0.0
 30
0.0
  0
XRECORD
  5
599
102
{ACAD_REACTORS
330
57D
102
}
330
57D
100
AcDbXrecord
 10
0.0
 20
0.0
 30
0.0
  0
XRECORD
  5
59A
102
{ACAD_REACTORS
330
57D
102
}
330
57D
100
AcDbXrecord
 10
0.0
 20
0.0
 30
0.0
  0
XRECORD
  5
597
102
{ACAD_REACTORS
330
57D
102
}
330
57D
100
AcDbXrecord
 10
0.0
 20
0.0
 30
0.0
  0
XRECORD
  5
594
102
{ACAD_REACTORS
330
57D
102
}
330
57D
100
AcDbXrecord
340
0
  0
XRECORD
  5
595
102
{ACAD_REACTORS
330
57D
102
}
330
57D
100
AcDbXrecord
 70
     0
  0
XRECORD
  5
589
102
{ACAD_REACTORS
330
57D
102
}
330
57D
100
AcDbXrecord
  1
{4B940602-8DB7-11D6-88E6-0090279574E7}
  0
DICTIONARYVAR
  5
57B
102
{ACAD_REACTORS
330
57A
102
}
330
57A
100
DictionaryVariables
280
     0
  1
1
  0
ENDSEC
  0
EOF
