  0
SECTION
  2
HEADER
  9
$ACADVER
  1
AC1014
  9
$ACADMAINTVER
 70
     9
  9
$DWGCODEPAGE
  3
ANSI_1252
  9
$INSBASE
 10
0.0
 20
0.0
 30
0.0
  9
$EXTMIN
 10
-1.139661527994666
 20
-0.1113526035167289
 30
0.0
  9
$EXTMAX
 10
2.345557793752462
 20
3.104509760690478
 30
0.0
  9
$LIMMIN
 10
0.0
 20
0.0
  9
$LIMMAX
 10
18.0
 20
12.0
  9
$ORTHOMODE
 70
     1
  9
$REGENMODE
 70
     1
  9
$FILLMODE
 70
     1
  9
$QTEXTMODE
 70
     0
  9
$MIRRTEXT
 70
     0
  9
$DRAGMODE
 70
     2
  9
$LTSCALE
 40
1.0
  9
$OSMODE
 70
    39
  9
$ATTMODE
 70
     1
  9
$TEXTSIZE
 40
0.125
  9
$TRACEWID
 40
0.05
  9
$TEXTSTYLE
  7
ROMANS
  9
$CLAYER
  8
0
  9
$CELTYPE
  6
BYLAYER
  9
$CECOLOR
 62
   256
  9
$CELTSCALE
 40
1.0
  9
$DELOBJ
 70
     1
  9
$DISPSILH
 70
     1
  9
$DIMSCALE
 40
1.0
  9
$DIMASZ
 40
0.125
  9
$DIMEXO
 40
0.125
  9
$DIMDLI
 40
0.375
  9
$DIMRND
 40
0.0
  9
$DIMDLE
 40
0.0
  9
$DIMEXE
 40
0.125
  9
$DIMTP
 40
0.0
  9
$DIMTM
 40
0.0
  9
$DIMTXT
 40
0.125
  9
$DIMCEN
 40
-0.125
  9
$DIMTSZ
 40
0.0
  9
$DIMTOL
 70
     0
  9
$DIMLIM
 70
     0
  9
$DIMTIH
 70
     1
  9
$DIMTOH
 70
     1
  9
$DIMSE1
 70
     0
  9
$DIMSE2
 70
     0
  9
$DIMTAD
 70
     0
  9
$DIMZIN
 70
     4
  9
$DIMBLK
  1

  9
$DIMASO
 70
     1
  9
$DIMSHO
 70
     1
  9
$DIMPOST
  1

  9
$DIMAPOST
  1

  9
$DIMALT
 70
     0
  9
$DIMALTD
 70
     2
  9
$DIMALTF
 40
25.4
  9
$DIMLFAC
 40
1.0
  9
$DIMTOFL
 70
     0
  9
$DIMTVP
 40
0.0
  9
$DIMTIX
 70
     0
  9
$DIMSOXD
 70
     0
  9
$DIMSAH
 70
     0
  9
$DIMBLK1
  1

  9
$DIMBLK2
  1

  9
$DIMSTYLE
  2
STANDARD
  9
$DIMCLRD
 70
     0
  9
$DIMCLRE
 70
     0
  9
$DIMCLRT
 70
     0
  9
$DIMTFAC
 40
1.0
  9
$DIMGAP
 40
0.09
  9
$DIMJUST
 70
     0
  9
$DIMSD1
 70
     0
  9
$DIMSD2
 70
     0
  9
$DIMTOLJ
 70
     1
  9
$DIMTZIN
 70
     0
  9
$DIMALTZ
 70
     0
  9
$DIMALTTZ
 70
     0
  9
$DIMFIT
 70
     3
  9
$DIMUPT
 70
     0
  9
$DIMUNIT
 70
     2
  9
$DIMDEC
 70
     3
  9
$DIMTDEC
 70
     4
  9
$DIMALTU
 70
     2
  9
$DIMALTTD
 70
     2
  9
$DIMTXSTY
  7
ROMANS
  9
$DIMAUNIT
 70
     0
  9
$LUNITS
 70
     2
  9
$LUPREC
 70
     3
  9
$SKETCHINC
 40
0.1
  9
$FILLETRAD
 40
0.03125
  9
$AUNITS
 70
     0
  9
$AUPREC
 70
     1
  9
$MENU
  1
AUTOMSTR
  9
$ELEVATION
 40
0.0
  9
$PELEVATION
 40
0.0
  9
$THICKNESS
 40
0.0
  9
$LIMCHECK
 70
     0
  9
$BLIPMODE
 70
     0
  9
$CHAMFERA
 40
0.0
  9
$CHAMFERB
 40
0.0
  9
$CHAMFERC
 40
0.0
  9
$CHAMFERD
 40
0.0
  9
$SKPOLY
 70
     0
  9
$TDCREATE
 40
2448491.425294907
  9
$TDUPDATE
 40
2452458.311709409
  9
$TDINDWG
 40
0.1035632176
  9
$TDUSRTIMER
 40
0.1035632176
  9
$USRTIMER
 70
     1
  9
$ANGBASE
 50
0.0
  9
$ANGDIR
 70
     0
  9
$PDMODE
 70
     0
  9
$PDSIZE
 40
0.0
  9
$PLINEWID
 40
0.0
  9
$COORDS
 70
     2
  9
$SPLFRAME
 70
     0
  9
$SPLINETYPE
 70
     6
  9
$SPLINESEGS
 70
     8
  9
$ATTDIA
 70
     0
  9
$ATTREQ
 70
     1
  9
$HANDLING
 70
 22529
  9
$HANDSEED
  5
39F
  9
$SURFTAB1
 70
     6
  9
$SURFTAB2
 70
     6
  9
$SURFTYPE
 70
     6
  9
$SURFU
 70
     6
  9
$SURFV
 70
     6
  9
$UCSNAME
  2

  9
$UCSORG
 10
0.0
 20
0.0
 30
0.0
  9
$UCSXDIR
 10
1.0
 20
0.0
 30
0.0
  9
$UCSYDIR
 10
0.0
 20
1.0
 30
0.0
  9
$PUCSNAME
  2

  9
$PUCSORG
 10
0.0
 20
0.0
 30
0.0
  9
$PUCSXDIR
 10
1.0
 20
0.0
 30
0.0
  9
$PUCSYDIR
 10
0.0
 20
1.0
 30
0.0
  9
$USERI1
 70
     0
  9
$USERI2
 70
     0
  9
$USERI3
 70
     0
  9
$USERI4
 70
     0
  9
$USERI5
 70
     0
  9
$USERR1
 40
0.0
  9
$USERR2
 40
0.0
  9
$USERR3
 40
0.0
  9
$USERR4
 40
0.0
  9
$USERR5
 40
0.0
  9
$WORLDVIEW
 70
     1
  9
$SHADEDGE
 70
     3
  9
$SHADEDIF
 70
    70
  9
$TILEMODE
 70
     1
  9
$MAXACTVP
 70
    16
  9
$PINSBASE
 10
0.0
 20
0.0
 30
0.0
  9
$PLIMCHECK
 70
     0
  9
$PEXTMIN
 10
1.000000000000000E+20
 20
1.000000000000000E+20
 30
1.000000000000000E+20
  9
$PEXTMAX
 10
-1.000000000000000E+20
 20
-1.000000000000000E+20
 30
-1.000000000000000E+20
  9
$PLIMMIN
 10
0.0
 20
0.0
  9
$PLIMMAX
 10
12.0
 20
9.0
  9
$UNITMODE
 70
     0
  9
$VISRETAIN
 70
     0
  9
$PLINEGEN
 70
     1
  9
$PSLTSCALE
 70
     0
  9
$TREEDEPTH
 70
  3020
  9
$PICKSTYLE
 70
     1
  9
$CMLSTYLE
  2
STANDARD
  9
$CMLJUST
 70
     0
  9
$CMLSCALE
 40
1.0
  9
$PROXYGRAPHICS
 70
     1
  9
$MEASUREMENT
 70
     0
  0
ENDSEC
  0
SECTION
  2
CLASSES
  0
CLASS
  1
LWPOLYLINE
  2
AcDbPolyline
  3
AutoCAD 2000
 90
        0
280
     0
281
     1
  0
CLASS
  1
ACDBDICTIONARYWDFLT
  2
AcDbDictionaryWithDefault
  3
AutoCAD 2000
 90
        0
280
     0
281
     0
  0
CLASS
  1
ACDBPLACEHOLDER
  2
AcDbPlaceHolder
  3
AutoCAD 2000
 90
        0
280
     0
281
     0
  0
CLASS
  1
LAYOUT
  2
AcDbLayout
  3
AutoCAD 2000
 90
        0
280
     0
281
     0
  0
CLASS
  1
DICTIONARYVAR
  2
AcDbDictionaryVar
  3
AutoCAD 2000
 90
        0
280
     0
281
     0
  0
CLASS
  1
LONG_TRANSACTION
  2
AcDbLongTransaction
  3
AutoCAD 2000
 90
        0
280
     0
281
     0
  0
CLASS
  1
LWPOLYLINE
  2
AcDbPolyline
  3
AutoCAD 2000
 90
        0
280
     0
281
     1
  0
CLASS
  1
HATCH
  2
AcDbHatch
  3
AutoCAD 2000
 90
        0
280
     0
281
     1
  0
CLASS
  1
XRECORD
  2
AcDbXrecord
  3
AutoCAD 2000
 90
        0
280
     0
281
     0
  0
ENDSEC
  0
SECTION
  2
TABLES
  0
TABLE
  2
VPORT
  5
8
330
0
100
AcDbSymbolTable
 70
     2
  0
VPORT
  5
37A
330
8
100
AcDbSymbolTableRecord
100
AcDbViewportTableRecord
  2
*ACTIVE
 70
     0
 10
0.0
 20
0.0
 11
1.0
 21
1.0
 12
4.98509017634983
 22
1.496790107587051
 13
0.0
 23
0.0
 14
0.015625
 24
0.015625
 15
0.0
 25
0.0
 16
0.0
 26
0.0
 36
1.0
 17
0.0
 27
0.0
 37
0.0
 40
3.244526037196946
 41
4.320930232558139
 42
50.0
 43
0.0
 44
0.0
 50
0.0
 51
0.0
 71
     0
 72
  2000
 73
     1
 74
     1
 75
     0
 76
     0
 77
     0
 78
     0
  0
ENDTAB
  0
TABLE
  2
LTYPE
  5
5
330
0
100
AcDbSymbolTable
 70
     1
  0
LTYPE
  5
12
330
5
100
AcDbSymbolTableRecord
100
AcDbLinetypeTableRecord
  2
BYBLOCK
 70
     0
  3

 72
    65
 73
     0
 40
0.0
  0
LTYPE
  5
13
330
5
100
AcDbSymbolTableRecord
100
AcDbLinetypeTableRecord
  2
BYLAYER
 70
     0
  3

 72
    65
 73
     0
 40
0.0
  0
LTYPE
  5
14
330
5
100
AcDbSymbolTableRecord
100
AcDbLinetypeTableRecord
  2
CONTINUOUS
 70
     0
  3
Solid line
 72
    65
 73
     0
 40
0.0
  0
ENDTAB
  0
TABLE
  2
LAYER
  5
2
330
0
100
AcDbSymbolTable
 70
     2
  0
LAYER
  5
F
330
2
100
AcDbSymbolTableRecord
100
AcDbLayerTableRecord
  2
0
 70
     0
 62
     7
  6
CONTINUOUS
  0
LAYER
  5
2C
330
2
100
AcDbSymbolTableRecord
100
AcDbLayerTableRecord
  2
TEXT
 70
     0
 62
     3
  6
CONTINUOUS
  0
ENDTAB
  0
TABLE
  2
STYLE
  5
3
330
0
100
AcDbSymbolTable
 70
     3
  0
STYLE
  5
10
330
3
100
AcDbSymbolTableRecord
100
AcDbTextStyleTableRecord
  2
STANDARD
 70
     0
 40
0.0
 41
1.0
 50
0.0
 71
     0
 42
0.125
  3
txt
  4

  0
STYLE
  5
265
330
3
100
AcDbSymbolTableRecord
100
AcDbTextStyleTableRecord
  2
ITALICC
 70
     0
 40
0.0
 41
1.0
 50
0.0
 71
     0
 42
0.125
  3
italicc
  4

  0
STYLE
  5
376
330
3
100
AcDbSymbolTableRecord
100
AcDbTextStyleTableRecord
  2
ROMANS
 70
     0
 40
0.0
 41
1.0
 50
0.0
 71
     0
 42
0.125
  3
romans.shx
  4

  0
ENDTAB
  0
TABLE
  2
VIEW
  5
6
330
0
100
AcDbSymbolTable
 70
     0
  0
ENDTAB
  0
TABLE
  2
UCS
  5
7
330
0
100
AcDbSymbolTable
 70
     0
  0
ENDTAB
  0
TABLE
  2
APPID
  5
9
330
0
100
AcDbSymbolTable
 70
     1
  0
APPID
  5
11
330
9
100
AcDbSymbolTableRecord
100
AcDbRegAppTableRecord
  2
ACAD
 70
     0
  0
ENDTAB
  0
TABLE
  2
DIMSTYLE
  5
A
330
0
100
AcDbSymbolTable
 70
     1
  0
DIMSTYLE
105
25B
330
A
100
AcDbSymbolTableRecord
100
AcDbDimStyleTableRecord
  2
STANDARD
 70
     0
  3

  4

  5

  6

  7

 40
1.0
 41
0.18
 42
0.0625
 43
0.38
 44
0.18
 45
0.0
 46
0.0
 47
0.0
 48
0.0
140
0.18
141
0.09
142
0.0
143
25.4
144
1.0
145
0.0
146
1.0
147
0.09
 71
     0
 72
     0
 73
     1
 74
     1
 75
     0
 76
     0
 77
     0
 78
     0
170
     0
171
     2
172
     0
173
     0
174
     0
175
     0
176
     0
177
     0
178
     0
270
     2
271
     4
272
     4
273
     2
274
     2
340
10
275
     0
280
     0
281
     0
282
     0
283
     1
284
     0
285
     0
286
     0
287
     3
288
     0
  0
ENDTAB
  0
TABLE
  2
BLOCK_RECORD
  5
1
330
0
100
AcDbSymbolTable
 70
     0
  0
BLOCK_RECORD
  5
18
102
{ACAD_XDICTIONARY
360
39D
102
}
330
1
100
AcDbSymbolTableRecord
100
AcDbBlockTableRecord
  2
*MODEL_SPACE
  0
BLOCK_RECORD
  5
15
102
{ACAD_XDICTIONARY
360
39B
102
}
330
1
100
AcDbSymbolTableRecord
100
AcDbBlockTableRecord
  2
*PAPER_SPACE
  0
ENDTAB
  0
ENDSEC
  0
SECTION
  2
BLOCKS
  0
BLOCK
  5
35
330
18
100
AcDbEntity
  8
0
100
AcDbBlockBegin
  2
*MODEL_SPACE
 70
     0
 10
0.0
 20
0.0
 30
0.0
  3
*MODEL_SPACE
  1

  0
ENDBLK
  5
36
330
18
100
AcDbEntity
  8
0
100
AcDbBlockEnd
  0
BLOCK
  5
33
330
15
100
AcDbEntity
 67
     1
  8
0
100
AcDbBlockBegin
  2
*PAPER_SPACE
 70
     0
 10
0.0
 20
0.0
 30
0.0
  3
*PAPER_SPACE
  1

  0
ENDBLK
  5
34
330
15
100
AcDbEntity
 67
     1
  8
0
100
AcDbBlockEnd
  0
ENDSEC
  0
SECTION
  2
ENTITIES
  0
LWPOLYLINE
  5
20C
330
18
100
AcDbEntity
  8
0
100
AcDbPolyline
 90
       17
 70
     1
 43
0.0
 10
1.057089805620589
 20
3.098037673778399
 42
-0.4142135623730951
 10
1.088339805620589
 20
3.066787673778399
 10
1.088339805620591
 20
0.8292876737783711
 42
-0.4142135623730982
 10
1.057089805620591
 20
0.7980376737783712
 10
1.025839805620591
 20
0.7980376737783712
 10
1.025839805620591
 20
1.048037673778371
 10
0.963339805620591
 20
1.048037673778371
 10
0.963339805620591
 20
1.110537673778371
 10
1.025839805620591
 20
1.110537673778371
 10
1.02583980562059
 20
1.673537673778398
 10
0.4008398056205902
 20
1.673537673778398
 10
0.4008398056205902
 20
1.798537673778398
 10
0.5158398056205904
 20
1.798537673778398
 10
0.5258398056205911
 20
1.788537673778398
 10
0.5358398056205909
 20
1.798537673778398
 10
1.02583980562059
 20
1.798537673778398
 10
1.02583980562059
 20
3.098037673778399
  0
LINE
  5
2EB
330
18
100
AcDbEntity
  8
TEXT
100
AcDbLine
 10
0.7115365226998769
 20
0.0907236827912463
 30
0.0
 11
0.7115365226998769
 21
0.2320532149703851
 31
0.0
  0
LINE
  5
2EC
330
18
100
AcDbEntity
  8
TEXT
100
AcDbLine
 10
0.7586346812558596
 20
0.1665890092027844
 30
0.0
 11
0.7115365226998769
 21
0.0907236827912463
 31
0.0
  0
LINE
  5
2ED
330
18
100
AcDbEntity
  8
TEXT
100
AcDbLine
 10
0.7690693980197843
 20
0.0566957662618108
 30
0.0
 11
0.8336265139854894
 21
0.1665890092027844
 31
0.0
  0
TEXT
  5
2EE
330
18
100
AcDbEntity
  8
TEXT
100
AcDbText
 10
1.016625209482798
 20
0.0862602118260618
 30
0.0
 40
0.0522247191011236
  1
6536 Main St. N.E. * P.O. Box 32008
 41
0.8388932496075355
 72
     5
 11
2.345557793752462
 21
0.0862602118260618
 31
0.0
100
AcDbText
  0
ARC
  5
2EF
330
18
100
AcDbEntity
  8
TEXT
100
AcDbCircle
 10
0.5710535501845389
 20
0.0774064392633562
 30
0.0
 40
0.0249058752826653
100
AcDbArc
 50
89.99971217465335
 51
179.9999999999985
  0
LINE
  5
2F0
330
18
100
AcDbEntity
  8
TEXT
100
AcDbLine
 10
0.4838527837615061
 20
0.0613770306493571
 30
0.0
 11
0.4401020125796045
 21
0.1436273066455023
 31
0.0
  0
LINE
  5
2F1
330
18
100
AcDbEntity
  8
TEXT
100
AcDbLine
 10
0.4838527837615061
 20
0.1665890092027844
 30
0.0
 11
0.4838527837615061
 21
0.0613770306493571
 31
0.0
  0
ARC
  5
2F2
330
18
100
AcDbEntity
  8
TEXT
100
AcDbCircle
 10
0.3758619465419866
 20
0.0739529395460217
 30
0.0
 40
0.028359375
100
AcDbArc
 50
25.78218179591245
 51
90.0
  0
LINE
  5
2F3
330
18
100
AcDbEntity
  8
TEXT
100
AcDbLine
 10
-0.0861325146417613
 20
-0.0174961856827274
 30
0.0
 11
-0.0861325146417613
 21
0.234600486941595
 31
0.0
  0
LINE
  5
2F4
330
18
100
AcDbEntity
  8
TEXT
100
AcDbLine
 10
-0.0538206605041012
 20
0.1665890092027844
 30
0.0
 11
-0.0538206605041012
 21
-0.0342751975296238
 31
0.0
  0
LINE
  5
2F5
330
18
100
AcDbEntity
  8
TEXT
100
AcDbLine
 10
-0.1830631400015044
 20
0.1665890092027844
 30
0.0
 11
-0.2418117028073681
 21
0.0657170130896638
 31
0.0
  0
LINE
  5
2F6
330
18
100
AcDbEntity
  8
TEXT
100
AcDbLine
 10
-0.2418117028073681
 20
0.0657170130896638
 30
0.0
 11
-0.300442023839306
 21
0.1665890092027844
 31
0.0
  0
ARC
  5
2F7
330
18
100
AcDbEntity
  8
TEXT
100
AcDbCircle
 10
-0.6080153477257327
 20
0.0845015497562827
 30
0.0
 40
0.0820874594465043
100
AcDbArc
 50
90.0
 51
270.0
  0
LWPOLYLINE
  5
2F8
330
18
100
AcDbEntity
  8
TEXT
100
AcDbPolyline
 90
        2
 70
     0
 43
0.0001332181640625
 10
-1.016101680826697
 20
0.0933190189684084
 10
-1.026093043131387
 20
0.166589009202788
  0
LWPOLYLINE
  5
2F9
330
18
100
AcDbEntity
  8
TEXT
100
AcDbPolyline
 90
        2
 70
     0
 43
0.0001332181640625
 10
-1.026093043131387
 20
0.1399453763902869
 10
-1.016101680826697
 20
0.0799972025621614
  0
LWPOLYLINE
  5
2FA
330
18
100
AcDbEntity
  8
TEXT
100
AcDbPolyline
 90
        2
 70
     0
 43
0.0001332181640625
 10
-0.9861275939126361
 20
0.1399453763902869
 10
-0.9961189562173249
 20
0.0799972025621614
  0
LWPOLYLINE
  5
2FB
330
18
100
AcDbEntity
  8
TEXT
100
AcDbPolyline
 90
        2
 70
     0
 43
0.0001332181640625
 10
-0.9861275939126361
 20
0.166589009202788
 10
-0.9961189562173249
 20
0.0933190189684084
  0
LWPOLYLINE
  5
2FC
330
18
100
AcDbEntity
  8
TEXT
100
AcDbPolyline
 90
        3
 70
     0
 43
0.0006660908203125
 10
-0.8728921544595102
 20
0.0533535697496603
 10
-0.8728921544595102
 20
0.166589009202788
 10
-0.9861275939126361
 20
0.166589009202788
  0
LWPOLYLINE
  5
2FD
330
18
100
AcDbEntity
  8
TEXT
100
AcDbPolyline
 90
        3
 70
     0
 43
0.0006660908203125
 10
-0.8995357872720113
 20
0.0533535697496603
 10
-0.8995357872720113
 20
0.1399453763902869
 10
-0.9861275939126361
 20
0.1399453763902869
  0
LWPOLYLINE
  5
2FE
330
18
100
AcDbEntity
  8
TEXT
100
AcDbPolyline
 90
        2
 70
     0
 43
0.0001332181640625
 10
-0.8995357872720113
 20
0.1399453763902869
 10
-0.9594839611001351
 20
0.0799972025621614
  0
LWPOLYLINE
  5
2FF
330
18
100
AcDbEntity
  8
TEXT
100
AcDbPolyline
 90
        2
 70
     0
 43
0.0001332181640625
 10
-1.112684849772012
 20
0.1399453763902869
 10
-1.052736675943886
 20
0.0799972025621614
  0
LWPOLYLINE
  5
300
330
18
100
AcDbEntity
  8
TEXT
100
AcDbPolyline
 90
        3
 70
     0
 43
0.0006660908203125
 10
-1.026093043131387
 20
0.166589009202788
 10
-1.13932848258451
 20
0.166589009202788
 10
-1.13932848258451
 20
0.0533535697496603
  0
LWPOLYLINE
  5
301
330
18
100
AcDbEntity
  8
TEXT
100
AcDbPolyline
 90
        3
 70
     0
 43
0.0006660908203125
 10
-1.026093043131387
 20
0.1399453763902869
 10
-1.112684849772012
 20
0.1399453763902869
 10
-1.112684849772012
 20
0.0533535697496603
  0
LINE
  5
302
330
18
100
AcDbEntity
  8
TEXT
100
AcDbLine
 10
-0.5371778813671835
 20
0.0665075929353911
 30
0.0
 11
-0.6027780176114846
 21
0.0665075929353911
 31
0.0
  0
LINE
  5
303
330
18
100
AcDbEntity
  8
TEXT
100
AcDbLine
 10
-0.6080153477257327
 20
0.0024140903097774
 30
0.0
 11
-0.5322375074609039
 21
0.0024140903097774
 31
0.0
  0
LINE
  5
304
330
18
100
AcDbEntity
  8
TEXT
100
AcDbLine
 10
-0.6901028071722362
 20
-0.0998840237857266
 30
0.0
 11
-0.5371778813671835
 21
-0.0998840237857266
 31
0.0
  0
LINE
  5
305
330
18
100
AcDbEntity
  8
TEXT
100
AcDbLine
 10
-0.5322375074609039
 20
-0.0315270174522873
 30
0.0
 11
-0.690102807172238
 21
-0.0315270174522873
 31
0.0
  0
LINE
  5
306
330
18
100
AcDbEntity
  8
TEXT
100
AcDbLine
 10
-0.6027780176114846
 20
0.102312314546019
 30
0.0
 11
-0.4358723635825151
 21
0.102312314546019
 31
0.0
  0
LWPOLYLINE
  5
307
330
18
100
AcDbEntity
  8
TEXT
100
AcDbPolyline
 90
        2
 70
     0
 43
0.0006660908203125
 10
-0.8995357872720113
 20
0.0533535697496603
 10
-0.8728921544595102
 20
0.0533535697496603
  0
LWPOLYLINE
  5
308
330
18
100
AcDbEntity
  8
TEXT
100
AcDbPolyline
 90
        2
 70
     0
 43
0.0001332181640625
 10
-0.9461621446938863
 20
0.0433622074449716
 10
-0.8728921544595102
 20
0.0533535697496603
  0
LWPOLYLINE
  5
309
330
18
100
AcDbEntity
  8
TEXT
100
AcDbPolyline
 90
        2
 70
     0
 43
0.0006660908203125
 10
-0.8995357872720113
 20
0.0133881205309123
 10
-0.8728921544595102
 20
0.0133881205309123
  0
LWPOLYLINE
  5
30A
330
18
100
AcDbEntity
  8
TEXT
100
AcDbPolyline
 90
        3
 70
     0
 43
0.0006660908203125
 10
-0.9861275939126361
 20
-0.0998473189222153
 10
-0.8728921544595102
 20
-0.0998473189222153
 10
-0.8728921544595102
 20
0.0133881205309123
  0
LWPOLYLINE
  5
30B
330
18
100
AcDbEntity
  8
TEXT
100
AcDbPolyline
 90
        2
 70
     0
 43
0.0001332181640625
 10
-0.8728921544595102
 20
0.0133881205309123
 10
-0.9461621446938863
 20
0.0233794828355976
  0
LWPOLYLINE
  5
30C
330
18
100
AcDbEntity
  8
TEXT
100
AcDbPolyline
 90
        3
 70
     0
 43
0.0006660908203125
 10
-1.13932848258451
 20
0.0133881205309123
 10
-1.13932848258451
 20
-0.0998473189222153
 10
-1.026093043131387
 20
-0.0998473189222153
  0
LWPOLYLINE
  5
30D
330
18
100
AcDbEntity
  8
TEXT
100
AcDbPolyline
 90
        3
 70
     0
 43
0.0006660908203125
 10
-1.112684849772012
 20
0.0133881205309123
 10
-1.112684849772012
 20
-0.0732036861097143
 10
-1.026093043131387
 20
-0.0732036861097143
  0
LWPOLYLINE
  5
30E
330
18
100
AcDbEntity
  8
TEXT
100
AcDbPolyline
 90
        5
 70
     0
 43
0.0001332181640625
 10
-1.016101680826697
 20
-0.0265773286878393
 10
-1.016101680826697
 20
-0.0132555122815887
 10
-1.052736675943885
 20
-0.0132555122815887
 10
-1.052736675943885
 20
0.0233794828355976
 10
-1.066058492350135
 20
0.0233794828355976
  0
LWPOLYLINE
  5
30F
330
18
100
AcDbEntity
  8
TEXT
100
AcDbPolyline
 90
        5
 70
     0
 43
0.0001332181640625
 10
-1.066058492350135
 20
0.0433622074449716
 10
-1.052736675943886
 20
0.0433622074449716
 10
-1.052736675943886
 20
0.0799972025621614
 10
-1.016101680826697
 20
0.0799972025621614
 10
-1.016101680826697
 20
0.0933190189684084
  0
LWPOLYLINE
  5
310
330
18
100
AcDbEntity
  8
TEXT
100
AcDbPolyline
 90
        2
 70
     0
 43
0.0001332181640625
 10
-1.112684849772012
 20
0.0533535697496603
 10
-1.052736675943886
 20
0.0433622074449716
  0
LWPOLYLINE
  5
311
330
18
100
AcDbEntity
  8
TEXT
100
AcDbPolyline
 90
        2
 70
     0
 43
0.0001332181640625
 10
-1.13932848258451
 20
0.0533535697496603
 10
-1.066058492350135
 20
0.0433622074449716
  0
LWPOLYLINE
  5
312
330
18
100
AcDbEntity
  8
TEXT
100
AcDbPolyline
 90
        2
 70
     0
 43
0.0006660908203125
 10
-1.112684849772012
 20
0.0533535697496603
 10
-1.13932848258451
 20
0.0533535697496603
  0
LWPOLYLINE
  5
313
330
18
100
AcDbEntity
  8
TEXT
100
AcDbPolyline
 90
        2
 70
     0
 43
0.0001332181640625
 10
-1.112684849772012
 20
-0.0732036861097143
 10
-1.052736675943885
 20
-0.0132555122815887
  0
LWPOLYLINE
  5
314
330
18
100
AcDbEntity
  8
TEXT
100
AcDbPolyline
 90
        2
 70
     0
 43
0.0006660908203125
 10
-1.112684849772012
 20
0.0133881205309123
 10
-1.13932848258451
 20
0.0133881205309123
  0
LWPOLYLINE
  5
315
330
18
100
AcDbEntity
  8
TEXT
100
AcDbPolyline
 90
        2
 70
     0
 43
0.0001332181640625
 10
-1.066058492350135
 20
0.0233794828355976
 10
-1.13932848258451
 20
0.0133881205309123
  0
LWPOLYLINE
  5
316
330
18
100
AcDbEntity
  8
TEXT
100
AcDbPolyline
 90
        2
 70
     0
 43
0.0001332181640625
 10
-1.112684849772012
 20
0.0133881205309123
 10
-1.052736675943885
 20
0.0233794828355976
  0
LWPOLYLINE
  5
317
330
18
100
AcDbEntity
  8
TEXT
100
AcDbPolyline
 90
        5
 70
     0
 43
0.0001332181640625
 10
-0.9961189562173249
 20
0.0933190189684084
 10
-0.9961189562173249
 20
0.0799972025621614
 10
-0.9594839611001351
 20
0.0799972025621614
 10
-0.9594839611001351
 20
0.0433622074449716
 10
-0.9461621446938863
 20
0.0433622074449716
  0
LWPOLYLINE
  5
318
330
18
100
AcDbEntity
  8
TEXT
100
AcDbPolyline
 90
        2
 70
     0
 43
0.0001332181640625
 10
-0.8995357872720113
 20
0.0533535697496603
 10
-0.9594839611001351
 20
0.0433622074449716
  0
LWPOLYLINE
  5
319
330
18
100
AcDbEntity
  8
TEXT
100
AcDbPolyline
 90
        2
 70
     0
 43
0.0006660908203125
 10
-1.026093043131387
 20
-0.0732036861097143
 10
-1.026093043131387
 20
-0.0998473189222153
  0
LWPOLYLINE
  5
31A
330
18
100
AcDbEntity
  8
TEXT
100
AcDbPolyline
 90
        2
 70
     0
 43
0.0001332181640625
 10
-1.026093043131387
 20
-0.0732036861097143
 10
-1.016101680826697
 20
-0.0132555122815887
  0
LWPOLYLINE
  5
31B
330
18
100
AcDbEntity
  8
TEXT
100
AcDbPolyline
 90
        2
 70
     0
 43
0.0001332181640625
 10
-1.026093043131387
 20
-0.0998473189222153
 10
-1.016101680826697
 20
-0.0265773286878393
  0
LWPOLYLINE
  5
31C
330
18
100
AcDbEntity
  8
TEXT
100
AcDbPolyline
 90
        2
 70
     0
 43
0.0001332181640625
 10
-0.9861275939126361
 20
-0.0732036861097143
 10
-0.9961189562173249
 20
-0.0132555122815887
  0
LWPOLYLINE
  5
31D
330
18
100
AcDbEntity
  8
TEXT
100
AcDbPolyline
 90
        2
 70
     0
 43
0.0001332181640625
 10
-0.9961189562173249
 20
-0.0265773286878393
 10
-0.9861275939126361
 20
-0.0998473189222153
  0
LWPOLYLINE
  5
31E
330
18
100
AcDbEntity
  8
TEXT
100
AcDbPolyline
 90
        2
 70
     0
 43
0.0006660908203125
 10
-0.9861275939126361
 20
-0.0732036861097143
 10
-0.9861275939126361
 20
-0.0998473189222153
  0
LWPOLYLINE
  5
31F
330
18
100
AcDbEntity
  8
TEXT
100
AcDbPolyline
 90
        2
 70
     0
 43
0.0001332181640625
 10
-0.8995357872720113
 20
-0.0732036861097143
 10
-0.9594839611001351
 20
-0.0132555122815887
  0
LWPOLYLINE
  5
320
330
18
100
AcDbEntity
  8
TEXT
100
AcDbPolyline
 90
        3
 70
     0
 43
0.0006660908203125
 10
-0.9861275939126361
 20
-0.0732036861097143
 10
-0.8995357872720113
 20
-0.0732036861097143
 10
-0.8995357872720113
 20
0.0133881205309123
  0
LWPOLYLINE
  5
321
330
18
100
AcDbEntity
  8
TEXT
100
AcDbPolyline
 90
        2
 70
     0
 43
0.0001332181640625
 10
-0.8995357872720113
 20
0.0133881205309123
 10
-0.9594839611001351
 20
0.0233794828355976
  0
LWPOLYLINE
  5
322
330
18
100
AcDbEntity
  8
TEXT
100
AcDbPolyline
 90
        5
 70
     0
 43
0.0001332181640625
 10
-0.9461621446938863
 20
0.0233794828355976
 10
-0.9594839611001351
 20
0.0233794828355976
 10
-0.9594839611001351
 20
-0.0132555122815887
 10
-0.9961189562173249
 20
-0.0132555122815887
 10
-0.9961189562173249
 20
-0.0265773286878393
  0
ARC
  5
323
330
18
100
AcDbEntity
  8
TEXT
100
AcDbCircle
 10
-0.6027780176114846
 20
0.0844099537407068
 30
0.0
 40
0.017902360805315
100
AcDbArc
 50
90.0
 51
270.0
  0
LINE
  5
324
330
18
100
AcDbEntity
  8
TEXT
100
AcDbLine
 10
-0.690102807172238
 20
-0.0315270174522873
 30
0.0
 11
-0.6901028071722362
 21
-0.0998840237857266
 31
0.0
  0
TEXT
  5
325
330
18
100
AcDbEntity
  8
TEXT
100
AcDbText
 10
1.016625209482798
 20
-0.1002566421065225
 30
0.0
 40
0.0522247191011236
  1
Phone  1-800-328-2495
 41
1.272321428571429
 72
     5
 11
2.345557793752462
 21
-0.1002566421065225
 31
0.0
100
AcDbText
  0
TEXT
  5
326
330
18
100
AcDbEntity
  8
TEXT
100
AcDbText
 10
1.016625209482798
 20
-0.0069982151402304
 30
0.0
 40
0.0522247191011236
  1
Minneapolis, MN 55432-0008
 41
1.11444212721585
 72
     5
 11
2.345557793752462
 21
-0.0069982151402304
 31
0.0
100
AcDbText
  0
LINE
  5
327
330
18
100
AcDbEntity
  8
TEXT
100
AcDbLine
 10
0.5710535501845407
 20
0.102312314546019
 30
0.0
 11
0.6477015314770967
 21
0.102312314546019
 31
0.0
  0
LINE
  5
328
330
18
100
AcDbEntity
  8
TEXT
100
AcDbLine
 10
0.0130103925538663
 20
0.102312314546019
 30
0.0
 11
0.0628456723770157
 21
0.102312314546019
 31
0.0
  0
ARC
  5
329
330
18
100
AcDbEntity
  8
TEXT
100
AcDbCircle
 10
-0.2854554997165373
 20
-0.0603363015120309
 30
0.0
 40
0.0392772371940762
100
AcDbArc
 50
270.1604552698595
 51
330.0831797321295
  0
ARC
  5
32A
330
18
100
AcDbEntity
  8
TEXT
100
AcDbCircle
 10
-0.375756345608762
 20
-0.0400916324476768
 30
0.0
 40
0.0601160179737537
100
AcDbArc
 50
180.0000000000003
 51
264.0521544866073
  0
LINE
  5
32B
330
18
100
AcDbEntity
  8
TEXT
100
AcDbLine
 10
-0.4358723635825151
 20
0.102312314546019
 30
0.0
 11
-0.4358723635825151
 21
-0.0400916324476768
 31
0.0
  0
ARC
  5
32C
330
18
100
AcDbEntity
  8
TEXT
100
AcDbCircle
 10
-0.5322375074609039
 20
-0.0145564635712532
 30
0.0
 40
0.0169705538810321
100
AcDbArc
 50
270.0
 51
90.0
  0
ARC
  5
32D
330
18
100
AcDbEntity
  8
TEXT
100
AcDbCircle
 10
-0.5371778813671835
 20
-0.0166882154251695
 30
0.0
 40
0.0831958083605586
100
AcDbArc
 50
270.0
 51
90.0
  0
LWPOLYLINE
  5
32E
330
18
100
AcDbEntity
  8
TEXT
100
AcDbPolyline
 90
        6
 70
     1
 43
0.0
 10
-0.3394619525272589
 20
0.102312314546019
 10
-0.369778546747467
 20
0.102312314546019
 10
-0.369778546747467
 20
-0.0207986835088754
 42
0.407328721240804
 10
-0.3582348955859906
 20
-0.0326175981852615
 10
-0.2976131965412598
 20
-0.0326175981852615
 10
-0.2801478561339419
 20
0.0001946308582177
  0
LINE
  5
32F
330
18
100
AcDbEntity
  8
TEXT
100
AcDbLine
 10
-0.3819857561024094
 20
-0.0998840237857266
 30
0.0
 11
-0.2853455050274149
 21
-0.0996133846874443
 31
0.0
  0
LWPOLYLINE
  5
330
330
18
100
AcDbEntity
  8
TEXT
100
AcDbPolyline
 90
        2
 70
     0
 43
0.0
 10
-0.1541122337108796
 20
-0.0483326815707983
 42
0.3318488747599744
 10
-0.0849929411455666
 20
-0.0998840237857266
 42
-6.868794160588311
  0
LINE
  5
331
330
18
100
AcDbEntity
  8
TEXT
100
AcDbLine
 10
-0.1541122337108796
 20
0.0844246932545545
 30
0.0
 11
-0.1541122337108796
 21
-0.0483326815708019
 31
0.0
  0
LINE
  5
332
330
18
100
AcDbEntity
  8
TEXT
100
AcDbLine
 10
-0.2514119398043242
 20
-0.0799255176807137
 30
0.0
 11
-0.1541122337108796
 21
0.0844246932545545
 31
0.0
  0
ARC
  5
333
330
18
100
AcDbEntity
  8
TEXT
100
AcDbCircle
 10
-0.0708142973887043
 20
-0.0188933912861984
 30
0.0
 40
0.0153818062434269
100
AcDbArc
 50
174.7883570302258
 51
270.0
  0
LINE
  5
334
330
18
100
AcDbEntity
  8
TEXT
100
AcDbLine
 10
-0.0538206605041012
 20
-0.0342751975296238
 30
0.0
 11
-0.0708142973887043
 21
-0.0342751975296238
 31
0.0
  0
LINE
  5
335
330
18
100
AcDbEntity
  8
TEXT
100
AcDbLine
 10
-0.0849929411455683
 20
-0.0998840237857266
 30
0.0
 11
0.0130103925538663
 21
-0.0998840237857266
 31
0.0
  0
LINE
  5
336
330
18
100
AcDbEntity
  8
TEXT
100
AcDbLine
 10
0.0130103925538663
 20
-0.0998840237857266
 30
0.0
 11
0.0130103925538663
 21
0.102312314546019
 31
0.0
  0
LINE
  5
337
330
18
100
AcDbEntity
  8
TEXT
100
AcDbLine
 10
0.3758619465419883
 20
0.102312314546019
 30
0.0
 11
0.2686556731546972
 21
0.102312314546019
 31
0.0
  0
LINE
  5
338
330
18
100
AcDbEntity
  8
TEXT
100
AcDbLine
 10
0.3293750320627247
 20
0.0650373410838867
 30
0.0
 11
0.4116630218461097
 21
0.0650373410838867
 31
0.0
  0
LWPOLYLINE
  5
339
330
18
100
AcDbEntity
  8
TEXT
100
AcDbPolyline
 90
        4
 70
     1
 43
0.0
 10
0.4245940631290086
 20
0.0030799541982987
 10
0.3359337444691501
 20
0.0030799541982987
 42
0.9999999999999998
 10
0.3359337444691501
 20
-0.0393185863055621
 10
0.4245940631290086
 20
-0.0393185863055621
 42
1.0
  0
LWPOLYLINE
  5
33A
330
18
100
AcDbEntity
  8
TEXT
100
AcDbPolyline
 90
        2
 70
     0
 43
0.0
 10
0.3106991105675245
 20
-0.0998840237857266
 10
0.4447165281989012
 20
-0.0998840237857266
 42
0.9999999999999998
  0
LINE
  5
33B
330
18
100
AcDbEntity
  8
TEXT
100
AcDbLine
 10
0.1374575083249674
 20
0.102312314546019
 30
0.0
 11
0.1915911052459194
 21
0.102312314546019
 31
0.0
  0
LINE
  5
33C
330
18
100
AcDbEntity
  8
TEXT
100
AcDbLine
 10
0.0703994615431292
 20
-0.0998840237857266
 30
0.0
 11
0.1374575083249674
 21
-0.0998840237857266
 31
0.0
  0
LINE
  5
33D
330
18
100
AcDbEntity
  8
TEXT
100
AcDbLine
 10
0.1374575083249674
 20
-0.0998840237857266
 30
0.0
 11
0.1374575083249674
 21
0.102312314546019
 31
0.0
  0
LINE
  5
33E
330
18
100
AcDbEntity
  8
TEXT
100
AcDbLine
 10
0.0703994615431292
 20
0.0947585253799091
 30
0.0
 11
0.0703994615431292
 21
-0.0998840237857266
 31
0.0
  0
LWPOLYLINE
  5
33F
330
18
100
AcDbEntity
  8
TEXT
100
AcDbPolyline
 90
        2
 70
     0
 43
0.0
 10
0.0628456723770139
 20
0.102312314546019
 42
-0.4142135623731017
 10
0.0703994615431274
 20
0.0947585253799091
 42
-0.9999999999999998
  0
LINE
  5
340
330
18
100
AcDbEntity
  8
TEXT
100
AcDbLine
 10
0.2686556731546972
 20
0.102312314546019
 30
0.0
 11
0.2686556731546972
 21
0.0272599084718124
 31
0.0
  0
ARC
  5
341
330
18
100
AcDbEntity
  8
TEXT
100
AcDbCircle
 10
0.3293750320627247
 20
-0.0026482400602319
 30
0.0
 40
0.0676855811441166
100
AcDbArc
 50
90.0
 51
153.7768192527749
  0
LWPOLYLINE
  5
342
330
18
100
AcDbEntity
  8
TEXT
100
AcDbPolyline
 90
        2
 70
     0
 43
0.0
 10
0.267623177699889
 20
-0.0563930788352884
 42
0.2901071551932823
 10
0.3106991105675245
 20
-0.0998840237857266
 42
5.328517124445801
  0
LWPOLYLINE
  5
343
330
18
100
AcDbEntity
  8
TEXT
100
AcDbPolyline
 90
        2
 70
     0
 43
0.0
 10
0.1915911052459176
 20
0.102312314546019
 42
-0.4142135623731017
 10
0.1991448944120311
 20
0.0947585253799091
 42
-0.9999999999999998
  0
LWPOLYLINE
  5
344
330
18
100
AcDbEntity
  8
TEXT
100
AcDbPolyline
 90
        4
 70
     0
 43
0.0
 10
0.1991448944120311
 20
0.0947585253799091
 10
0.1991448944120311
 20
-0.0998840237857266
 10
0.267623177699889
 20
-0.0998840237857266
 10
0.267623177699889
 20
-0.0563930788352884
 42
-1.714843617202739
  0
LWPOLYLINE
  5
345
330
18
100
AcDbEntity
  8
TEXT
100
AcDbPolyline
 90
        2
 70
     0
 43
0.0
 10
0.4877924610665457
 20
-0.0563930788352884
 42
-0.2901071551932486
 10
0.4447165281989012
 20
-0.0998840237857266
 42
-5.328517124445184
  0
LWPOLYLINE
  5
346
330
18
100
AcDbEntity
  8
TEXT
100
AcDbPolyline
 90
        2
 70
     0
 43
0.0
 10
0.4877924610665457
 20
-0.0998840237857266
 10
0.5461476749018797
 20
-0.0998840237857266
  0
LWPOLYLINE
  5
347
330
18
100
AcDbEntity
  8
TEXT
100
AcDbPolyline
 90
        2
 70
     0
 43
0.0
 10
0.4877924610665457
 20
-0.0563930788352884
 10
0.4877924610665457
 20
-0.0998840237857266
  0
LINE
  5
348
330
18
100
AcDbEntity
  8
TEXT
100
AcDbLine
 10
0.4116630218461097
 20
0.0650373410838867
 30
0.0
 11
0.4013982614325436
 21
0.086287880656581
 31
0.0
  0
LINE
  5
349
330
18
100
AcDbEntity
  8
TEXT
100
AcDbLine
 10
0.5461476749018815
 20
-0.0998840237857266
 30
0.0
 11
0.5461476749018744
 21
0.0774064816457418
 31
0.0
  0
LINE
  5
34A
330
18
100
AcDbEntity
  8
TEXT
100
AcDbLine
 10
0.8645616213833946
 20
-0.0998840237857266
 30
0.0
 11
0.7690693980197843
 21
0.0566957662618108
 31
0.0
  0
LINE
  5
34B
330
18
100
AcDbEntity
  8
TEXT
100
AcDbLine
 10
0.787983249007187
 20
-0.0998840237857266
 30
0.0
 11
0.8645616213833946
 21
-0.0998840237857266
 31
0.0
  0
LINE
  5
34C
330
18
100
AcDbEntity
  8
TEXT
100
AcDbLine
 10
0.6477015314771038
 20
-0.0998840237857266
 30
0.0
 11
0.7120797157957242
 21
-0.0998840237857266
 31
0.0
  0
LINE
  5
34D
330
18
100
AcDbEntity
  8
TEXT
100
AcDbLine
 10
0.6477015314770967
 20
0.102312314546019
 30
0.0
 11
0.6477015314771038
 21
-0.0998840237857266
 31
0.0
  0
LINE
  5
34E
330
18
100
AcDbEntity
  8
TEXT
100
AcDbLine
 10
0.7120797157957242
 20
0.0316955446904537
 30
0.0
 11
0.787983249007187
 21
-0.0998840237857266
 31
0.0
  0
LINE
  5
34F
330
18
100
AcDbEntity
  8
TEXT
100
AcDbLine
 10
0.7120797157957242
 20
-0.0998840237857266
 30
0.0
 11
0.7120797157957242
 21
0.0316955446904537
 31
0.0
  0
LINE
  5
350
330
18
100
AcDbEntity
  8
TEXT
100
AcDbLine
 10
-0.4322835948272222
 20
0.1665890092027844
 30
0.0
 11
-0.6080153477257327
 21
0.1665890092027844
 31
0.0
  0
LWPOLYLINE
  5
351
330
18
100
AcDbEntity
  8
TEXT
100
AcDbPolyline
 90
        2
 70
     0
 43
0.0006660908203125
 10
-1.026093043131387
 20
0.1399453763902869
 10
-1.026093043131387
 20
0.166589009202788
  0
LWPOLYLINE
  5
352
330
18
100
AcDbEntity
  8
TEXT
100
AcDbPolyline
 90
        2
 70
     0
 43
0.0006660908203125
 10
-0.9861275939126361
 20
0.1399453763902869
 10
-0.9861275939126361
 20
0.166589009202788
  0
TEXT
  5
353
330
18
100
AcDbEntity
  8
TEXT
100
AcDbText
 10
1.016625209482798
 20
0.179518638792354
 30
0.0
 40
0.0522247191011236
  1
Stylmark  Incorporated
 41
1.221428571428571
 72
     5
 11
2.345557793752462
 21
0.179518638792354
 31
0.0
100
AcDbText
  0
LINE
  5
354
330
18
100
AcDbEntity
  8
TEXT
100
AcDbLine
 10
0.6432216441505965
 20
0.1665890092027844
 30
0.0
 11
0.5757219265010818
 21
0.1665890092027844
 31
0.0
  0
TEXT
  5
355
330
18
100
AcDbEntity
  8
TEXT
100
AcDbText
 10
-0.1496561392437139
 20
0.3466660005658531
 30
0.0
 40
0.125
  1
PART #110422
  7
ITALICC
 72
     1
 11
0.6033200512324762
 21
0.3466660005658531
 31
0.0
100
AcDbText
  0
LINE
  5
356
330
18
100
AcDbEntity
  8
TEXT
100
AcDbLine
 10
0.0801973954270352
 20
0.1665890092027844
 30
0.0
 11
-0.0538206605041012
 21
0.1665890092027844
 31
0.0
  0
LINE
  5
357
330
18
100
AcDbEntity
  8
TEXT
100
AcDbLine
 10
-0.3722409899832151
 20
0.2009769267969226
 30
0.0
 11
-0.4322835948272222
 21
0.2009769267969226
 31
0.0
  0
LINE
  5
358
330
18
100
AcDbEntity
  8
TEXT
100
AcDbLine
 10
-0.4322835948272222
 20
0.2009769267969226
 30
0.0
 11
-0.4322835948272222
 21
0.1665890092027844
 31
0.0
  0
LINE
  5
359
330
18
100
AcDbEntity
  8
TEXT
100
AcDbLine
 10
-0.300442023839306
 20
0.1665890092027844
 30
0.0
 11
-0.3722409899832151
 21
0.1665890092027844
 31
0.0
  0
LINE
  5
35A
330
18
100
AcDbEntity
  8
TEXT
100
AcDbLine
 10
-0.3722409899832151
 20
0.1665890092027844
 30
0.0
 11
-0.3722409899832151
 21
0.2009769267969226
 31
0.0
  0
LINE
  5
35B
330
18
100
AcDbEntity
  8
TEXT
100
AcDbLine
 10
-0.0861325146417613
 20
0.234600486941595
 30
0.0
 11
-0.1529412272081281
 21
0.234600486941595
 31
0.0
  0
LINE
  5
35C
330
18
100
AcDbEntity
  8
TEXT
100
AcDbLine
 10
-0.1529412272081281
 20
0.1665890092027844
 30
0.0
 11
-0.1830631400015044
 21
0.1665890092027844
 31
0.0
  0
LINE
  5
35D
330
18
100
AcDbEntity
  8
TEXT
100
AcDbLine
 10
-0.1529412272081281
 20
0.234600486941595
 30
0.0
 11
-0.1529412272081281
 21
0.1665890092027844
 31
0.0
  0
LINE
  5
35E
330
18
100
AcDbEntity
  8
TEXT
100
AcDbLine
 10
0.4048928448864651
 20
0.1665890092027844
 30
0.0
 11
0.2700609356694059
 21
0.1665890092027844
 31
0.0
  0
LWPOLYLINE
  5
35F
330
18
100
AcDbEntity
  8
TEXT
100
AcDbPolyline
 90
        3
 70
     0
 43
0.0
 10
0.234279244956241
 20
0.166589009202788
 10
0.1159790861401966
 20
0.166589009202788
 10
0.1159790861401966
 20
0.139421512441892
 42
-1.960274751411753
  0
LWPOLYLINE
  5
360
330
18
100
AcDbEntity
  8
TEXT
100
AcDbPolyline
 90
        2
 70
     0
 43
0.0
 10
0.0801973954270352
 20
0.166589009202788
 42
-0.3328679258950098
 10
0.1159790861401966
 20
0.139421512441892
 42
6.772930709997214
  0
LINE
  5
361
330
18
100
AcDbEntity
  8
TEXT
100
AcDbLine
 10
0.2700609356694059
 20
0.1665890092027844
 30
0.0
 11
0.2700609356694059
 21
0.1382664634331405
 31
0.0
  0
LWPOLYLINE
  5
362
330
18
100
AcDbEntity
  8
TEXT
100
AcDbPolyline
 90
        2
 70
     0
 43
0.0
 10
0.234279244956241
 20
0.166589009202788
 42
-0.3277054968067132
 10
0.2700609356694059
 20
0.1382664634331441
 42
6.667889725900311
  0
LINE
  5
363
330
18
100
AcDbEntity
  8
TEXT
100
AcDbLine
 10
0.5477496900610071
 20
0.1665890092027844
 30
0.0
 11
0.4838527837615061
 21
0.1665890092027844
 31
0.0
  0
ARC
  5
364
330
18
100
AcDbEntity
  8
TEXT
100
AcDbCircle
 10
0.4028659051093975
 20
0.125005442081882
 30
0.0
 40
0.0416329381542859
100
AcDbArc
 50
26.56974201007528
 51
87.20939649401342
  0
LINE
  5
365
330
18
100
AcDbEntity
  8
TEXT
100
AcDbLine
 10
0.5477496900610071
 20
0.1390413593419097
 30
0.0
 11
0.5477496900610071
 21
0.1665890092027844
 31
0.0
  0
ARC
  5
366
330
18
100
AcDbEntity
  8
TEXT
100
AcDbCircle
 10
0.5789425071241166
 20
0.1353432819205196
 30
0.0
 40
0.0314112657011332
100
AcDbArc
 50
95.88484768694724
 51
173.2388340632136
  0
LINE
  5
367
330
18
100
AcDbEntity
  8
TEXT
100
AcDbLine
 10
0.8336265139854894
 20
0.1665890092027844
 30
0.0
 11
0.7586346812558631
 21
0.1665890092027844
 31
0.0
  0
LINE
  5
368
330
18
100
AcDbEntity
  8
TEXT
100
AcDbLine
 10
0.6432216441506036
 20
0.2320532149703851
 30
0.0
 11
0.6432216441505965
 21
0.1665890092027844
 31
0.0
  0
LINE
  5
369
330
18
100
AcDbEntity
  8
TEXT
100
AcDbLine
 10
0.7115365226998769
 20
0.2320532149703851
 30
0.0
 11
0.6432216441506036
 21
0.2320532149703851
 31
0.0
  0
ENDSEC
  0
SECTION
  2
OBJECTS
  0
DICTIONARY
  5
C
330
0
100
AcDbDictionary
  3
ACAD_GROUP
350
D
  3
ACAD_LAYOUT
350
36F
  3
ACAD_MLINESTYLE
350
E
  3
ACAD_PLOTSETTINGS
350
370
  3
ACAD_PLOTSTYLENAME
350
36D
  3
ACDBHEADERROUNDTRIPXREC
350
37B
  3
ACDBVARIABLEDICTIONARY
350
378
  0
DICTIONARY
  5
39D
330
18
100
AcDbDictionary
280
     1
  3
ACAD_LAYOUTSELFREF
360
39E
  0
DICTIONARY
  5
39B
330
15
100
AcDbDictionary
280
     1
  3
ACAD_LAYOUTSELFREF
360
39C
  0
DICTIONARY
  5
D
102
{ACAD_REACTORS
330
C
102
}
330
C
100
AcDbDictionary
  0
DICTIONARY
  5
36F
102
{ACAD_REACTORS
330
C
102
}
330
C
100
AcDbDictionary
  0
DICTIONARY
  5
E
102
{ACAD_REACTORS
330
C
102
}
330
C
100
AcDbDictionary
  3
STANDARD
350
1B
  0
DICTIONARY
  5
370
102
{ACAD_REACTORS
330
C
102
}
330
C
100
AcDbDictionary
  0
ACDBDICTIONARYWDFLT
  5
36D
102
{ACAD_REACTORS
330
C
102
}
330
C
100
AcDbDictionary
281
     1
  3
Normal
350
36E
100
AcDbDictionaryWithDefault
340
36E
  0
DICTIONARY
  5
37B
102
{ACAD_REACTORS
330
C
102
}
330
C
100
AcDbDictionary
  3
CEPSNTYPE
350
385
  3
FINGERPRINTGUID
350
386
  3
HYPERLINKBASE
350
37E
  3
INSUNITS
350
384
  3
LAYOUTDICT
350
380
  3
LWETCUNION
350
383
  3
PLOTSETDICT
350
381
  3
PLOTSTYLNAMDICT
350
382
  3
PSVPSCALE
350
388
  3
PUCSBASE
350
38B
  3
PUCSORGBACK
350
391
  3
PUCSORGBOTTOM
350
38D
  3
PUCSORGFRONT
350
390
  3
PUCSORGLEFT
350
38E
  3
PUCSORGRIGHT
350
38F
  3
PUCSORGTOP
350
38C
  3
PUCSORTHOREF
350
389
  3
PUCSORTHOVIEW
350
38A
  3
STYLESHEET
350
37F
  3
TSTACKALIGN
350
37C
  3
TSTACKSIZE
350
37D
  3
UCSBASE
350
394
  3
UCSORGBACK
350
39A
  3
UCSORGBOTTOM
350
396
  3
UCSORGFRONT
350
399
  3
UCSORGLEFT
350
397
  3
UCSORGRIGHT
350
398
  3
UCSORGTOP
350
395
  3
UCSORTHOREF
350
392
  3
UCSORTHOVIEW
350
393
  3
VERSIONGUID
350
387
  0
DICTIONARY
  5
378
102
{ACAD_REACTORS
330
C
102
}
330
C
100
AcDbDictionary
  3
DIMASSOC
350
379
  0
XRECORD
  5
39E
102
{ACAD_REACTORS
330
39D
102
}
330
39D
100
AcDbXrecord
340
18
  0
XRECORD
  5
39C
102
{ACAD_REACTORS
330
39B
102
}
330
39B
100
AcDbXrecord
340
15
  0
MLINESTYLE
  5
1B
102
{ACAD_REACTORS
330
E
102
}
330
E
100
AcDbMlineStyle
  2
STANDARD
 70
     0
  3

 62
     0
 51
90.0
 52
90.0
 71
     2
 49
0.5
 62
   256
  6
BYLAYER
 49
-0.5
 62
   256
  6
BYLAYER
  0
ACDBPLACEHOLDER
  5
36E
102
{ACAD_REACTORS
330
36D
102
}
330
36D
100
AcDbPlaceHolder
280
     0
  0
XRECORD
  5
385
102
{ACAD_REACTORS
330
37B
102
}
330
37B
100
AcDbXrecord
 90
        0
  0
XRECORD
  5
386
102
{ACAD_REACTORS
330
37B
102
}
330
37B
100
AcDbXrecord
  1
{4290A0E0-8DB7-11D6-88E6-0090279574E7}
  0
XRECORD
  5
37E
102
{ACAD_REACTORS
330
37B
102
}
330
37B
100
AcDbXrecord
  1

  0
XRECORD
  5
384
102
{ACAD_REACTORS
330
37B
102
}
330
37B
100
AcDbXrecord
 90
        0
  0
XRECORD
  5
380
102
{ACAD_REACTORS
330
37B
102
}
330
37B
100
AcDbXrecord
340
36F
  0
XRECORD
  5
383
102
{ACAD_REACTORS
330
37B
102
}
330
37B
100
AcDbXrecord
 90
    14877
  0
XRECORD
  5
381
102
{ACAD_REACTORS
330
37B
102
}
330
37B
100
AcDbXrecord
340
370
  0
XRECORD
  5
382
102
{ACAD_REACTORS
330
37B
102
}
330
37B
100
AcDbXrecord
340
36D
  0
XRECORD
  5
388
102
{ACAD_REACTORS
330
37B
102
}
330
37B
100
AcDbXrecord
 40
0.0
  0
XRECORD
  5
38B
102
{ACAD_REACTORS
330
37B
102
}
330
37B
100
AcDbXrecord
340
0
  0
XRECORD
  5
391
102
{ACAD_REACTORS
330
37B
102
}
330
37B
100
AcDbXrecord
 10
0.0
 20
0.0
 30
0.0
  0
XRECORD
  5
38D
102
{ACAD_REACTORS
330
37B
102
}
330
37B
100
AcDbXrecord
 10
0.0
 20
0.0
 30
0.0
  0
XRECORD
  5
390
102
{ACAD_REACTORS
330
37B
102
}
330
37B
100
AcDbXrecord
 10
0.0
 20
0.0
 30
0.0
  0
XRECORD
  5
38E
102
{ACAD_REACTORS
330
37B
102
}
330
37B
100
AcDbXrecord
 10
0.0
 20
0.0
 30
0.0
  0
XRECORD
  5
38F
102
{ACAD_REACTORS
330
37B
102
}
330
37B
100
AcDbXrecord
 10
0.0
 20
0.0
 30
0.0
  0
XRECORD
  5
38C
102
{ACAD_REACTORS
330
37B
102
}
330
37B
100
AcDbXrecord
 10
0.0
 20
0.0
 30
0.0
  0
XRECORD
  5
389
102
{ACAD_REACTORS
330
37B
102
}
330
37B
100
AcDbXrecord
340
0
  0
XRECORD
  5
38A
102
{ACAD_REACTORS
330
37B
102
}
330
37B
100
AcDbXrecord
 70
     0
  0
XRECORD
  5
37F
102
{ACAD_REACTORS
330
37B
102
}
330
37B
100
AcDbXrecord
  1

  0
XRECORD
  5
37C
102
{ACAD_REACTORS
330
37B
102
}
330
37B
100
AcDbXrecord
 90
        1
  0
XRECORD
  5
37D
102
{ACAD_REACTORS
330
37B
102
}
330
37B
100
AcDbXrecord
 90
       70
  0
XRECORD
  5
394
102
{ACAD_REACTORS
330
37B
102
}
330
37B
100
AcDbXrecord
340
0
  0
XRECORD
  5
39A
102
{ACAD_REACTORS
330
37B
102
}
330
37B
100
AcDbXrecord
 10
0.0
 20
0.0
 30
0.0
  0
XRECORD
  5
396
102
{ACAD_REACTORS
330
37B
102
}
330
37B
100
AcDbXrecord
 10
0.0
 20
0.0
 30
0.0
  0
XRECORD
  5
399
102
{ACAD_REACTORS
330
37B
102
}
330
37B
100
AcDbXrecord
 10
0.0
 20
0.0
 30
0.0
  0
XRECORD
  5
397
102
{ACAD_REACTORS
330
37B
102
}
330
37B
100
AcDbXrecord
 10
0.0
 20
0.0
 30
0.0
  0
XRECORD
  5
398
102
{ACAD_REACTORS
330
37B
102
}
330
37B
100
AcDbXrecord
 10
0.0
 20
0.0
 30
0.0
  0
XRECORD
  5
395
102
{ACAD_REACTORS
330
37B
102
}
330
37B
100
AcDbXrecord
 10
0.0
 20
0.0
 30
0.0
  0
XRECORD
  5
392
102
{ACAD_REACTORS
330
37B
102
}
330
37B
100
AcDbXrecord
340
0
  0
XRECORD
  5
393
102
{ACAD_REACTORS
330
37B
102
}
330
37B
100
AcDbXrecord
 70
     0
  0
XRECORD
  5
387
102
{ACAD_REACTORS
330
37B
102
}
330
37B
100
AcDbXrecord
  1
{4290A0E2-8DB7-11D6-88E6-0090279574E7}
  0
DICTIONARYVAR
  5
379
102
{ACAD_REACTORS
330
378
102
}
330
378
100
DictionaryVariables
280
     0
  1
1
  0
ENDSEC
  0
EOF
