  0
SECTION
  2
HEADER
  9
$ACADVER
  1
AC1014
  9
$ACADMAINTVER
 70
     9
  9
$DWGCODEPAGE
  3
ANSI_1252
  9
$INSBASE
 10
0.0
 20
0.0
 30
0.0
  9
$EXTMIN
 10
1.847066171767283
 20
3.282326283855716
 30
0.0
  9
$EXTMAX
 10
5.332285493514419
 20
5.67579259292696
 30
0.0
  9
$LIMMIN
 10
0.0
 20
0.0
  9
$LIMMAX
 10
18.0
 20
12.0
  9
$ORTHOMODE
 70
     1
  9
$REGENMODE
 70
     1
  9
$FILLMODE
 70
     1
  9
$QTEXTMODE
 70
     0
  9
$MIRRTEXT
 70
     0
  9
$DRAGMODE
 70
     2
  9
$LTSCALE
 40
1.0
  9
$OSMODE
 70
    39
  9
$ATTMODE
 70
     1
  9
$TEXTSIZE
 40
0.125
  9
$TRACEWID
 40
0.05
  9
$TEXTSTYLE
  7
ROMANS
  9
$CLAYER
  8
0
  9
$CELTYPE
  6
BYLAYER
  9
$CECOLOR
 62
   256
  9
$CELTSCALE
 40
1.0
  9
$DELOBJ
 70
     1
  9
$DISPSILH
 70
     1
  9
$DIMSCALE
 40
1.0
  9
$DIMASZ
 40
0.125
  9
$DIMEXO
 40
0.125
  9
$DIMDLI
 40
0.375
  9
$DIMRND
 40
0.0
  9
$DIMDLE
 40
0.0
  9
$DIMEXE
 40
0.125
  9
$DIMTP
 40
0.0
  9
$DIMTM
 40
0.0
  9
$DIMTXT
 40
0.125
  9
$DIMCEN
 40
-0.125
  9
$DIMTSZ
 40
0.0
  9
$DIMTOL
 70
     0
  9
$DIMLIM
 70
     0
  9
$DIMTIH
 70
     1
  9
$DIMTOH
 70
     1
  9
$DIMSE1
 70
     0
  9
$DIMSE2
 70
     0
  9
$DIMTAD
 70
     0
  9
$DIMZIN
 70
     4
  9
$DIMBLK
  1

  9
$DIMASO
 70
     1
  9
$DIMSHO
 70
     1
  9
$DIMPOST
  1

  9
$DIMAPOST
  1

  9
$DIMALT
 70
     0
  9
$DIMALTD
 70
     2
  9
$DIMALTF
 40
25.4
  9
$DIMLFAC
 40
1.0
  9
$DIMTOFL
 70
     0
  9
$DIMTVP
 40
0.0
  9
$DIMTIX
 70
     0
  9
$DIMSOXD
 70
     0
  9
$DIMSAH
 70
     0
  9
$DIMBLK1
  1

  9
$DIMBLK2
  1

  9
$DIMSTYLE
  2
STANDARD
  9
$DIMCLRD
 70
     0
  9
$DIMCLRE
 70
     0
  9
$DIMCLRT
 70
     0
  9
$DIMTFAC
 40
1.0
  9
$DIMGAP
 40
0.09
  9
$DIMJUST
 70
     0
  9
$DIMSD1
 70
     0
  9
$DIMSD2
 70
     0
  9
$DIMTOLJ
 70
     1
  9
$DIMTZIN
 70
     0
  9
$DIMALTZ
 70
     0
  9
$DIMALTTZ
 70
     0
  9
$DIMFIT
 70
     3
  9
$DIMUPT
 70
     0
  9
$DIMUNIT
 70
     2
  9
$DIMDEC
 70
     3
  9
$DIMTDEC
 70
     4
  9
$DIMALTU
 70
     2
  9
$DIMALTTD
 70
     2
  9
$DIMTXSTY
  7
ROMANS
  9
$DIMAUNIT
 70
     0
  9
$LUNITS
 70
     2
  9
$LUPREC
 70
     3
  9
$SKETCHINC
 40
0.1
  9
$FILLETRAD
 40
0.03125
  9
$AUNITS
 70
     0
  9
$AUPREC
 70
     0
  9
$MENU
  1
ACAD
  9
$ELEVATION
 40
0.0
  9
$PELEVATION
 40
0.0
  9
$THICKNESS
 40
0.0
  9
$LIMCHECK
 70
     0
  9
$BLIPMODE
 70
     0
  9
$CHAMFERA
 40
0.0
  9
$CHAMFERB
 40
0.0
  9
$CHAMFERC
 40
0.0
  9
$CHAMFERD
 40
0.0
  9
$SKPOLY
 70
     0
  9
$TDCREATE
 40
2449182.457393287
  9
$TDUPDATE
 40
2452458.311622256
  9
$TDINDWG
 40
0.0076007060
  9
$TDUSRTIMER
 40
0.0076007060
  9
$USRTIMER
 70
     1
  9
$ANGBASE
 50
0.0
  9
$ANGDIR
 70
     0
  9
$PDMODE
 70
     0
  9
$PDSIZE
 40
0.0
  9
$PLINEWID
 40
0.0
  9
$COORDS
 70
     2
  9
$SPLFRAME
 70
     0
  9
$SPLINETYPE
 70
     6
  9
$SPLINESEGS
 70
     8
  9
$ATTDIA
 70
     0
  9
$ATTREQ
 70
     1
  9
$HANDLING
 70
 22529
  9
$HANDSEED
  5
416
  9
$SURFTAB1
 70
     6
  9
$SURFTAB2
 70
     6
  9
$SURFTYPE
 70
     6
  9
$SURFU
 70
     6
  9
$SURFV
 70
     6
  9
$UCSNAME
  2

  9
$UCSORG
 10
0.0
 20
0.0
 30
0.0
  9
$UCSXDIR
 10
1.0
 20
0.0
 30
0.0
  9
$UCSYDIR
 10
0.0
 20
1.0
 30
0.0
  9
$PUCSNAME
  2

  9
$PUCSORG
 10
0.0
 20
0.0
 30
0.0
  9
$PUCSXDIR
 10
1.0
 20
0.0
 30
0.0
  9
$PUCSYDIR
 10
0.0
 20
1.0
 30
0.0
  9
$USERI1
 70
     0
  9
$USERI2
 70
     0
  9
$USERI3
 70
     0
  9
$USERI4
 70
     0
  9
$USERI5
 70
     0
  9
$USERR1
 40
0.0
  9
$USERR2
 40
0.0
  9
$USERR3
 40
0.0
  9
$USERR4
 40
0.0
  9
$USERR5
 40
0.0
  9
$WORLDVIEW
 70
     1
  9
$SHADEDGE
 70
     3
  9
$SHADEDIF
 70
    70
  9
$TILEMODE
 70
     1
  9
$MAXACTVP
 70
    16
  9
$PINSBASE
 10
0.0
 20
0.0
 30
0.0
  9
$PLIMCHECK
 70
     0
  9
$PEXTMIN
 10
1.000000000000000E+20
 20
1.000000000000000E+20
 30
1.000000000000000E+20
  9
$PEXTMAX
 10
-1.000000000000000E+20
 20
-1.000000000000000E+20
 30
-1.000000000000000E+20
  9
$PLIMMIN
 10
0.0
 20
0.0
  9
$PLIMMAX
 10
12.0
 20
9.0
  9
$UNITMODE
 70
     0
  9
$VISRETAIN
 70
     0
  9
$PLINEGEN
 70
     1
  9
$PSLTSCALE
 70
     0
  9
$TREEDEPTH
 70
  3020
  9
$PICKSTYLE
 70
     1
  9
$CMLSTYLE
  2
STANDARD
  9
$CMLJUST
 70
     0
  9
$CMLSCALE
 40
1.0
  9
$PROXYGRAPHICS
 70
     1
  9
$MEASUREMENT
 70
     0
  0
ENDSEC
  0
SECTION
  2
CLASSES
  0
CLASS
  1
LWPOLYLINE
  2
AcDbPolyline
  3
AutoCAD 2000
 90
        0
280
     0
281
     1
  0
CLASS
  1
ACDBDICTIONARYWDFLT
  2
AcDbDictionaryWithDefault
  3
AutoCAD 2000
 90
        0
280
     0
281
     0
  0
CLASS
  1
ACDBPLACEHOLDER
  2
AcDbPlaceHolder
  3
AutoCAD 2000
 90
        0
280
     0
281
     0
  0
CLASS
  1
LAYOUT
  2
AcDbLayout
  3
AutoCAD 2000
 90
        0
280
     0
281
     0
  0
CLASS
  1
DICTIONARYVAR
  2
AcDbDictionaryVar
  3
AutoCAD 2000
 90
        0
280
     0
281
     0
  0
CLASS
  1
LONG_TRANSACTION
  2
AcDbLongTransaction
  3
AutoCAD 2000
 90
        0
280
     0
281
     0
  0
CLASS
  1
LWPOLYLINE
  2
AcDbPolyline
  3
AutoCAD 2000
 90
        0
280
     0
281
     1
  0
CLASS
  1
HATCH
  2
AcDbHatch
  3
AutoCAD 2000
 90
        0
280
     0
281
     1
  0
CLASS
  1
XRECORD
  2
AcDbXrecord
  3
AutoCAD 2000
 90
        0
280
     0
281
     0
  0
ENDSEC
  0
SECTION
  2
TABLES
  0
TABLE
  2
VPORT
  5
8
330
0
100
AcDbSymbolTable
 70
     2
  0
VPORT
  5
3F1
330
8
100
AcDbSymbolTableRecord
100
AcDbViewportTableRecord
  2
*ACTIVE
 70
     0
 10
0.0
 20
0.0
 11
1.0
 21
1.0
 12
6.851031457087752
 22
4.478885352605297
 13
0.0
 23
0.0
 14
0.015625
 24
0.015625
 15
0.0
 25
0.0
 16
0.0
 26
0.0
 36
1.0
 17
0.0
 27
0.0
 37
0.0
 40
2.414896656346094
 41
4.320930232558139
 42
50.0
 43
0.0
 44
0.0
 50
0.0
 51
0.0
 71
     0
 72
  2000
 73
     1
 74
     1
 75
     0
 76
     0
 77
     0
 78
     0
  0
ENDTAB
  0
TABLE
  2
LTYPE
  5
5
330
0
100
AcDbSymbolTable
 70
     1
  0
LTYPE
  5
12
330
5
100
AcDbSymbolTableRecord
100
AcDbLinetypeTableRecord
  2
BYBLOCK
 70
     0
  3

 72
    65
 73
     0
 40
0.0
  0
LTYPE
  5
13
330
5
100
AcDbSymbolTableRecord
100
AcDbLinetypeTableRecord
  2
BYLAYER
 70
     0
  3

 72
    65
 73
     0
 40
0.0
  0
LTYPE
  5
14
330
5
100
AcDbSymbolTableRecord
100
AcDbLinetypeTableRecord
  2
CONTINUOUS
 70
     0
  3
Solid line
 72
    65
 73
     0
 40
0.0
  0
ENDTAB
  0
TABLE
  2
LAYER
  5
2
330
0
100
AcDbSymbolTable
 70
     2
  0
LAYER
  5
F
330
2
100
AcDbSymbolTableRecord
100
AcDbLayerTableRecord
  2
0
 70
     0
 62
     7
  6
CONTINUOUS
  0
LAYER
  5
2C
330
2
100
AcDbSymbolTableRecord
100
AcDbLayerTableRecord
  2
TEXT
 70
     0
 62
     3
  6
CONTINUOUS
  0
ENDTAB
  0
TABLE
  2
STYLE
  5
3
330
0
100
AcDbSymbolTable
 70
     3
  0
STYLE
  5
10
330
3
100
AcDbSymbolTableRecord
100
AcDbTextStyleTableRecord
  2
STANDARD
 70
     0
 40
0.0
 41
1.0
 50
0.0
 71
     0
 42
0.125
  3
txt
  4

  0
STYLE
  5
2DB
330
3
100
AcDbSymbolTableRecord
100
AcDbTextStyleTableRecord
  2
ITALICC
 70
     0
 40
0.0
 41
1.0
 50
0.0
 71
     0
 42
0.125
  3
italicc
  4

  0
STYLE
  5
3ED
330
3
100
AcDbSymbolTableRecord
100
AcDbTextStyleTableRecord
  2
ROMANS
 70
     0
 40
0.0
 41
1.0
 50
0.0
 71
     0
 42
0.125
  3
romans.shx
  4

  0
ENDTAB
  0
TABLE
  2
VIEW
  5
6
330
0
100
AcDbSymbolTable
 70
     0
  0
ENDTAB
  0
TABLE
  2
UCS
  5
7
330
0
100
AcDbSymbolTable
 70
     0
  0
ENDTAB
  0
TABLE
  2
APPID
  5
9
330
0
100
AcDbSymbolTable
 70
     1
  0
APPID
  5
11
330
9
100
AcDbSymbolTableRecord
100
AcDbRegAppTableRecord
  2
ACAD
 70
     0
  0
ENDTAB
  0
TABLE
  2
DIMSTYLE
  5
A
330
0
100
AcDbSymbolTable
 70
     1
  0
DIMSTYLE
105
2C8
330
A
100
AcDbSymbolTableRecord
100
AcDbDimStyleTableRecord
  2
STANDARD
 70
     0
  3

  4

  5

  6

  7

 40
1.0
 41
0.18
 42
0.0625
 43
0.38
 44
0.18
 45
0.0
 46
0.0
 47
0.0
 48
0.0
140
0.18
141
0.09
142
0.0
143
25.4
144
1.0
145
0.0
146
1.0
147
0.09
 71
     0
 72
     0
 73
     1
 74
     1
 75
     0
 76
     0
 77
     0
 78
     0
170
     0
171
     2
172
     0
173
     0
174
     0
175
     0
176
     0
177
     0
178
     0
270
     2
271
     4
272
     4
273
     2
274
     2
340
10
275
     0
280
     0
281
     0
282
     0
283
     1
284
     0
285
     0
286
     0
287
     3
288
     0
  0
ENDTAB
  0
TABLE
  2
BLOCK_RECORD
  5
1
330
0
100
AcDbSymbolTable
 70
     0
  0
BLOCK_RECORD
  5
18
102
{ACAD_XDICTIONARY
360
414
102
}
330
1
100
AcDbSymbolTableRecord
100
AcDbBlockTableRecord
  2
*MODEL_SPACE
  0
BLOCK_RECORD
  5
15
102
{ACAD_XDICTIONARY
360
412
102
}
330
1
100
AcDbSymbolTableRecord
100
AcDbBlockTableRecord
  2
*PAPER_SPACE
  0
ENDTAB
  0
ENDSEC
  0
SECTION
  2
BLOCKS
  0
BLOCK
  5
33
330
18
100
AcDbEntity
  8
0
100
AcDbBlockBegin
  2
*MODEL_SPACE
 70
     0
 10
0.0
 20
0.0
 30
0.0
  3
*MODEL_SPACE
  1

  0
ENDBLK
  5
34
330
18
100
AcDbEntity
  8
0
100
AcDbBlockEnd
  0
BLOCK
  5
31
330
15
100
AcDbEntity
 67
     1
  8
0
100
AcDbBlockBegin
  2
*PAPER_SPACE
 70
     0
 10
0.0
 20
0.0
 30
0.0
  3
*PAPER_SPACE
  1

  0
ENDBLK
  5
32
330
15
100
AcDbEntity
 67
     1
  8
0
100
AcDbBlockEnd
  0
ENDSEC
  0
SECTION
  2
ENTITIES
  0
LWPOLYLINE
  5
25C
330
18
100
AcDbEntity
  8
0
100
AcDbPolyline
 90
       17
 70
     1
 43
0.0
 10
2.863252586699893
 20
4.286143047471092
 42
1.0
 10
2.905678993571079
 20
4.243716640599906
 10
2.916285595288876
 20
4.254323242317703
 10
3.171827321558531
 20
4.509864968587365
 10
4.13849435598167
 20
4.509864968587358
 42
0.414213562373088
 10
4.16974435598167
 20
4.541114968587358
 10
4.169744355981684
 20
4.76738877713155
 10
4.169744355981656
 20
5.507782003010497
 10
4.263508733873543
 20
5.601546380902384
 10
4.274115335591339
 20
5.61215298262018
 42
1.0
 10
4.231688928720153
 20
5.654579389491367
 10
4.221082327002356
 20
5.64397278777357
 10
3.742574261631069
 20
5.165464722402269
 10
3.745377022823753
 20
5.155004675229712
 42
-3.732050807570737
 10
3.695879548141441
 20
5.105507200543939
 10
3.685419500966141
 20
5.108309961737354
 10
2.873859188417689
 20
4.296749649188889
  0
LINE
  5
361
330
18
100
AcDbEntity
  8
TEXT
100
AcDbLine
 10
3.698264222461826
 20
3.484402570163691
 30
0.0
 11
3.698264222461826
 21
3.62573210234283
 31
0.0
  0
LINE
  5
362
330
18
100
AcDbEntity
  8
TEXT
100
AcDbLine
 10
3.745362381017809
 20
3.560267896575229
 30
0.0
 11
3.698264222461826
 21
3.484402570163691
 31
0.0
  0
LINE
  5
363
330
18
100
AcDbEntity
  8
TEXT
100
AcDbLine
 10
3.755797097781734
 20
3.450374653634256
 30
0.0
 11
3.820354213747439
 21
3.560267896575229
 31
0.0
  0
TEXT
  5
364
330
18
100
AcDbEntity
  8
TEXT
100
AcDbText
 10
4.003352909244748
 20
3.479939099198507
 30
0.0
 40
0.0522247191011236
  1
6536 Main St. N.E. * P.O. Box 32008
 41
0.8388932496075355
 72
     5
 11
5.332285493514412
 21
3.479939099198507
 31
0.0
100
AcDbText
  0
ARC
  5
365
330
18
100
AcDbEntity
  8
TEXT
100
AcDbCircle
 10
3.557781249946488
 20
3.471085326635801
 30
0.0
 40
0.0249058752826653
100
AcDbArc
 50
89.99971217465335
 51
179.9999999999985
  0
LINE
  5
366
330
18
100
AcDbEntity
  8
TEXT
100
AcDbLine
 10
3.470580483523455
 20
3.455055918021802
 30
0.0
 11
3.426829712341554
 21
3.537306194017947
 31
0.0
  0
LINE
  5
367
330
18
100
AcDbEntity
  8
TEXT
100
AcDbLine
 10
3.470580483523455
 20
3.560267896575229
 30
0.0
 11
3.470580483523455
 21
3.455055918021802
 31
0.0
  0
ARC
  5
368
330
18
100
AcDbEntity
  8
TEXT
100
AcDbCircle
 10
3.362589646303936
 20
3.467631826918466
 30
0.0
 40
0.028359375
100
AcDbArc
 50
25.78218179591245
 51
90.0
  0
LINE
  5
369
330
18
100
AcDbEntity
  8
TEXT
100
AcDbLine
 10
2.900595185120188
 20
3.376182701689717
 30
0.0
 11
2.900595185120188
 21
3.62827937431404
 31
0.0
  0
LINE
  5
36A
330
18
100
AcDbEntity
  8
TEXT
100
AcDbLine
 10
2.932907039257848
 20
3.560267896575229
 30
0.0
 11
2.932907039257848
 21
3.359403689842821
 31
0.0
  0
LINE
  5
36B
330
18
100
AcDbEntity
  8
TEXT
100
AcDbLine
 10
2.803664559760445
 20
3.560267896575229
 30
0.0
 11
2.744915996954581
 21
3.459395900462109
 31
0.0
  0
LINE
  5
36C
330
18
100
AcDbEntity
  8
TEXT
100
AcDbLine
 10
2.744915996954581
 20
3.459395900462109
 30
0.0
 11
2.686285675922643
 21
3.560267896575229
 31
0.0
  0
ARC
  5
36D
330
18
100
AcDbEntity
  8
TEXT
100
AcDbCircle
 10
2.378712352036217
 20
3.478180437128727
 30
0.0
 40
0.0820874594465043
100
AcDbArc
 50
90.0
 51
270.0
  0
LWPOLYLINE
  5
36E
330
18
100
AcDbEntity
  8
TEXT
100
AcDbPolyline
 90
        2
 70
     0
 43
0.0001332181640625
 10
1.970626018935252
 20
3.486997906340853
 10
1.960634656630562
 20
3.560267896575233
  0
LWPOLYLINE
  5
36F
330
18
100
AcDbEntity
  8
TEXT
100
AcDbPolyline
 90
        2
 70
     0
 43
0.0001332181640625
 10
1.960634656630562
 20
3.533624263762732
 10
1.970626018935252
 20
3.473676089934606
  0
LWPOLYLINE
  5
370
330
18
100
AcDbEntity
  8
TEXT
100
AcDbPolyline
 90
        2
 70
     0
 43
0.0001332181640625
 10
2.000600105849313
 20
3.533624263762732
 10
1.990608743544624
 20
3.473676089934606
  0
LWPOLYLINE
  5
371
330
18
100
AcDbEntity
  8
TEXT
100
AcDbPolyline
 90
        2
 70
     0
 43
0.0001332181640625
 10
2.000600105849313
 20
3.560267896575233
 10
1.990608743544624
 20
3.486997906340853
  0
LWPOLYLINE
  5
372
330
18
100
AcDbEntity
  8
TEXT
100
AcDbPolyline
 90
        3
 70
     0
 43
0.0006660908203125
 10
2.113835545302439
 20
3.447032457122105
 10
2.113835545302439
 20
3.560267896575233
 10
2.000600105849313
 20
3.560267896575233
  0
LWPOLYLINE
  5
373
330
18
100
AcDbEntity
  8
TEXT
100
AcDbPolyline
 90
        3
 70
     0
 43
0.0006660908203125
 10
2.087191912489938
 20
3.447032457122105
 10
2.087191912489938
 20
3.533624263762732
 10
2.000600105849313
 20
3.533624263762732
  0
LWPOLYLINE
  5
374
330
18
100
AcDbEntity
  8
TEXT
100
AcDbPolyline
 90
        2
 70
     0
 43
0.0001332181640625
 10
2.087191912489938
 20
3.533624263762732
 10
2.027243738661814
 20
3.473676089934606
  0
LWPOLYLINE
  5
375
330
18
100
AcDbEntity
  8
TEXT
100
AcDbPolyline
 90
        2
 70
     0
 43
0.0001332181640625
 10
1.874042849989937
 20
3.533624263762732
 10
1.933991023818062
 20
3.473676089934606
  0
LWPOLYLINE
  5
376
330
18
100
AcDbEntity
  8
TEXT
100
AcDbPolyline
 90
        3
 70
     0
 43
0.0006660908203125
 10
1.960634656630562
 20
3.560267896575233
 10
1.847399217177439
 20
3.560267896575233
 10
1.847399217177439
 20
3.447032457122105
  0
LWPOLYLINE
  5
377
330
18
100
AcDbEntity
  8
TEXT
100
AcDbPolyline
 90
        3
 70
     0
 43
0.0006660908203125
 10
1.960634656630562
 20
3.533624263762732
 10
1.874042849989937
 20
3.533624263762732
 10
1.874042849989937
 20
3.447032457122105
  0
LINE
  5
378
330
18
100
AcDbEntity
  8
TEXT
100
AcDbLine
 10
2.449549818394766
 20
3.460186480307836
 30
0.0
 11
2.383949682150465
 21
3.460186480307836
 31
0.0
  0
LINE
  5
379
330
18
100
AcDbEntity
  8
TEXT
100
AcDbLine
 10
2.378712352036217
 20
3.396092977682222
 30
0.0
 11
2.454490192301046
 21
3.396092977682222
 31
0.0
  0
LINE
  5
37A
330
18
100
AcDbEntity
  8
TEXT
100
AcDbLine
 10
2.296624892589713
 20
3.293794863586718
 30
0.0
 11
2.449549818394766
 21
3.293794863586718
 31
0.0
  0
LINE
  5
37B
330
18
100
AcDbEntity
  8
TEXT
100
AcDbLine
 10
2.454490192301046
 20
3.362151869920158
 30
0.0
 11
2.296624892589711
 21
3.362151869920158
 31
0.0
  0
LINE
  5
37C
330
18
100
AcDbEntity
  8
TEXT
100
AcDbLine
 10
2.383949682150465
 20
3.495991201918464
 30
0.0
 11
2.550855336179434
 21
3.495991201918464
 31
0.0
  0
LWPOLYLINE
  5
37D
330
18
100
AcDbEntity
  8
TEXT
100
AcDbPolyline
 90
        2
 70
     0
 43
0.0006660908203125
 10
2.087191912489938
 20
3.447032457122105
 10
2.113835545302439
 20
3.447032457122105
  0
LWPOLYLINE
  5
37E
330
18
100
AcDbEntity
  8
TEXT
100
AcDbPolyline
 90
        2
 70
     0
 43
0.0001332181640625
 10
2.040565555068063
 20
3.437041094817416
 10
2.113835545302439
 20
3.447032457122105
  0
LWPOLYLINE
  5
37F
330
18
100
AcDbEntity
  8
TEXT
100
AcDbPolyline
 90
        2
 70
     0
 43
0.0006660908203125
 10
2.087191912489938
 20
3.407067007903357
 10
2.113835545302439
 20
3.407067007903357
  0
LWPOLYLINE
  5
380
330
18
100
AcDbEntity
  8
TEXT
100
AcDbPolyline
 90
        3
 70
     0
 43
0.0006660908203125
 10
2.000600105849313
 20
3.293831568450229
 10
2.113835545302439
 20
3.293831568450229
 10
2.113835545302439
 20
3.407067007903357
  0
LWPOLYLINE
  5
381
330
18
100
AcDbEntity
  8
TEXT
100
AcDbPolyline
 90
        2
 70
     0
 43
0.0001332181640625
 10
2.113835545302439
 20
3.407067007903357
 10
2.040565555068063
 20
3.417058370208042
  0
LWPOLYLINE
  5
382
330
18
100
AcDbEntity
  8
TEXT
100
AcDbPolyline
 90
        3
 70
     0
 43
0.0006660908203125
 10
1.847399217177439
 20
3.407067007903357
 10
1.847399217177439
 20
3.293831568450229
 10
1.960634656630562
 20
3.293831568450229
  0
LWPOLYLINE
  5
383
330
18
100
AcDbEntity
  8
TEXT
100
AcDbPolyline
 90
        3
 70
     0
 43
0.0006660908203125
 10
1.874042849989937
 20
3.407067007903357
 10
1.874042849989937
 20
3.32047520126273
 10
1.960634656630562
 20
3.32047520126273
  0
LWPOLYLINE
  5
384
330
18
100
AcDbEntity
  8
TEXT
100
AcDbPolyline
 90
        5
 70
     0
 43
0.0001332181640625
 10
1.970626018935252
 20
3.367101558684606
 10
1.970626018935252
 20
3.380423375090856
 10
1.933991023818064
 20
3.380423375090856
 10
1.933991023818064
 20
3.417058370208042
 10
1.920669207411814
 20
3.417058370208042
  0
LWPOLYLINE
  5
385
330
18
100
AcDbEntity
  8
TEXT
100
AcDbPolyline
 90
        5
 70
     0
 43
0.0001332181640625
 10
1.920669207411814
 20
3.437041094817416
 10
1.933991023818062
 20
3.437041094817416
 10
1.933991023818062
 20
3.473676089934606
 10
1.970626018935252
 20
3.473676089934606
 10
1.970626018935252
 20
3.486997906340853
  0
LWPOLYLINE
  5
386
330
18
100
AcDbEntity
  8
TEXT
100
AcDbPolyline
 90
        2
 70
     0
 43
0.0001332181640625
 10
1.874042849989937
 20
3.447032457122105
 10
1.933991023818062
 20
3.437041094817416
  0
LWPOLYLINE
  5
387
330
18
100
AcDbEntity
  8
TEXT
100
AcDbPolyline
 90
        2
 70
     0
 43
0.0001332181640625
 10
1.847399217177439
 20
3.447032457122105
 10
1.920669207411814
 20
3.437041094817416
  0
LWPOLYLINE
  5
388
330
18
100
AcDbEntity
  8
TEXT
100
AcDbPolyline
 90
        2
 70
     0
 43
0.0006660908203125
 10
1.874042849989937
 20
3.447032457122105
 10
1.847399217177439
 20
3.447032457122105
  0
LWPOLYLINE
  5
389
330
18
100
AcDbEntity
  8
TEXT
100
AcDbPolyline
 90
        2
 70
     0
 43
0.0001332181640625
 10
1.874042849989937
 20
3.32047520126273
 10
1.933991023818064
 20
3.380423375090856
  0
LWPOLYLINE
  5
38A
330
18
100
AcDbEntity
  8
TEXT
100
AcDbPolyline
 90
        2
 70
     0
 43
0.0006660908203125
 10
1.874042849989937
 20
3.407067007903357
 10
1.847399217177439
 20
3.407067007903357
  0
LWPOLYLINE
  5
38B
330
18
100
AcDbEntity
  8
TEXT
100
AcDbPolyline
 90
        2
 70
     0
 43
0.0001332181640625
 10
1.920669207411814
 20
3.417058370208042
 10
1.847399217177439
 20
3.407067007903357
  0
LWPOLYLINE
  5
38C
330
18
100
AcDbEntity
  8
TEXT
100
AcDbPolyline
 90
        2
 70
     0
 43
0.0001332181640625
 10
1.874042849989937
 20
3.407067007903357
 10
1.933991023818064
 20
3.417058370208042
  0
LWPOLYLINE
  5
38D
330
18
100
AcDbEntity
  8
TEXT
100
AcDbPolyline
 90
        5
 70
     0
 43
0.0001332181640625
 10
1.990608743544624
 20
3.486997906340853
 10
1.990608743544624
 20
3.473676089934606
 10
2.027243738661814
 20
3.473676089934606
 10
2.027243738661814
 20
3.437041094817416
 10
2.040565555068063
 20
3.437041094817416
  0
LWPOLYLINE
  5
38E
330
18
100
AcDbEntity
  8
TEXT
100
AcDbPolyline
 90
        2
 70
     0
 43
0.0001332181640625
 10
2.087191912489938
 20
3.447032457122105
 10
2.027243738661814
 20
3.437041094817416
  0
LWPOLYLINE
  5
38F
330
18
100
AcDbEntity
  8
TEXT
100
AcDbPolyline
 90
        2
 70
     0
 43
0.0006660908203125
 10
1.960634656630562
 20
3.32047520126273
 10
1.960634656630562
 20
3.293831568450229
  0
LWPOLYLINE
  5
390
330
18
100
AcDbEntity
  8
TEXT
100
AcDbPolyline
 90
        2
 70
     0
 43
0.0001332181640625
 10
1.960634656630562
 20
3.32047520126273
 10
1.970626018935252
 20
3.380423375090856
  0
LWPOLYLINE
  5
391
330
18
100
AcDbEntity
  8
TEXT
100
AcDbPolyline
 90
        2
 70
     0
 43
0.0001332181640625
 10
1.960634656630562
 20
3.293831568450229
 10
1.970626018935252
 20
3.367101558684606
  0
LWPOLYLINE
  5
392
330
18
100
AcDbEntity
  8
TEXT
100
AcDbPolyline
 90
        2
 70
     0
 43
0.0001332181640625
 10
2.000600105849313
 20
3.32047520126273
 10
1.990608743544624
 20
3.380423375090856
  0
LWPOLYLINE
  5
393
330
18
100
AcDbEntity
  8
TEXT
100
AcDbPolyline
 90
        2
 70
     0
 43
0.0001332181640625
 10
1.990608743544624
 20
3.367101558684606
 10
2.000600105849313
 20
3.293831568450229
  0
LWPOLYLINE
  5
394
330
18
100
AcDbEntity
  8
TEXT
100
AcDbPolyline
 90
        2
 70
     0
 43
0.0006660908203125
 10
2.000600105849313
 20
3.32047520126273
 10
2.000600105849313
 20
3.293831568450229
  0
LWPOLYLINE
  5
395
330
18
100
AcDbEntity
  8
TEXT
100
AcDbPolyline
 90
        2
 70
     0
 43
0.0001332181640625
 10
2.087191912489938
 20
3.32047520126273
 10
2.027243738661814
 20
3.380423375090856
  0
LWPOLYLINE
  5
396
330
18
100
AcDbEntity
  8
TEXT
100
AcDbPolyline
 90
        3
 70
     0
 43
0.0006660908203125
 10
2.000600105849313
 20
3.32047520126273
 10
2.087191912489938
 20
3.32047520126273
 10
2.087191912489938
 20
3.407067007903357
  0
LWPOLYLINE
  5
397
330
18
100
AcDbEntity
  8
TEXT
100
AcDbPolyline
 90
        2
 70
     0
 43
0.0001332181640625
 10
2.087191912489938
 20
3.407067007903357
 10
2.027243738661814
 20
3.417058370208042
  0
LWPOLYLINE
  5
398
330
18
100
AcDbEntity
  8
TEXT
100
AcDbPolyline
 90
        5
 70
     0
 43
0.0001332181640625
 10
2.040565555068063
 20
3.417058370208042
 10
2.027243738661814
 20
3.417058370208042
 10
2.027243738661814
 20
3.380423375090856
 10
1.990608743544624
 20
3.380423375090856
 10
1.990608743544624
 20
3.367101558684606
  0
ARC
  5
399
330
18
100
AcDbEntity
  8
TEXT
100
AcDbCircle
 10
2.383949682150465
 20
3.478088841113152
 30
0.0
 40
0.017902360805315
100
AcDbArc
 50
90.0
 51
270.0
  0
LINE
  5
39A
330
18
100
AcDbEntity
  8
TEXT
100
AcDbLine
 10
2.296624892589711
 20
3.362151869920158
 30
0.0
 11
2.296624892589713
 21
3.293794863586718
 31
0.0
  0
TEXT
  5
39B
330
18
100
AcDbEntity
  8
TEXT
100
AcDbText
 10
4.003352909244748
 20
3.293422245265922
 30
0.0
 40
0.0522247191011236
  1
Phone  1-800-328-2495
 41
1.272321428571429
 72
     5
 11
5.332285493514412
 21
3.293422245265922
 31
0.0
100
AcDbText
  0
TEXT
  5
39C
330
18
100
AcDbEntity
  8
TEXT
100
AcDbText
 10
4.003352909244748
 20
3.386680672232214
 30
0.0
 40
0.0522247191011236
  1
Minneapolis, MN 55432-0008
 41
1.11444212721585
 72
     5
 11
5.332285493514412
 21
3.386680672232214
 31
0.0
100
AcDbText
  0
LINE
  5
39D
330
18
100
AcDbEntity
  8
TEXT
100
AcDbLine
 10
3.55778124994649
 20
3.495991201918464
 30
0.0
 11
3.634429231239046
 21
3.495991201918464
 31
0.0
  0
LINE
  5
39E
330
18
100
AcDbEntity
  8
TEXT
100
AcDbLine
 10
2.999738092315816
 20
3.495991201918464
 30
0.0
 11
3.049573372138965
 21
3.495991201918464
 31
0.0
  0
ARC
  5
39F
330
18
100
AcDbEntity
  8
TEXT
100
AcDbCircle
 10
2.701272200045412
 20
3.333342585860414
 30
0.0
 40
0.0392772371940762
100
AcDbArc
 50
270.1604552698595
 51
330.0831797321295
  0
ARC
  5
3A0
330
18
100
AcDbEntity
  8
TEXT
100
AcDbCircle
 10
2.610971354153187
 20
3.353587254924768
 30
0.0
 40
0.0601160179737537
100
AcDbArc
 50
180.0000000000003
 51
264.0521544866073
  0
LINE
  5
3A1
330
18
100
AcDbEntity
  8
TEXT
100
AcDbLine
 10
2.550855336179434
 20
3.495991201918464
 30
0.0
 11
2.550855336179434
 21
3.353587254924768
 31
0.0
  0
ARC
  5
3A2
330
18
100
AcDbEntity
  8
TEXT
100
AcDbCircle
 10
2.454490192301046
 20
3.379122423801192
 30
0.0
 40
0.0169705538810321
100
AcDbArc
 50
270.0
 51
90.0
  0
ARC
  5
3A3
330
18
100
AcDbEntity
  8
TEXT
100
AcDbCircle
 10
2.449549818394766
 20
3.376990671947275
 30
0.0
 40
0.0831958083605586
100
AcDbArc
 50
270.0
 51
90.0
  0
LWPOLYLINE
  5
3A4
330
18
100
AcDbEntity
  8
TEXT
100
AcDbPolyline
 90
        6
 70
     1
 43
0.0
 10
2.64726574723469
 20
3.495991201918464
 10
2.616949153014482
 20
3.495991201918464
 10
2.616949153014482
 20
3.372880203863569
 42
0.407328721240804
 10
2.628492804175959
 20
3.361061289187183
 10
2.68911450322069
 20
3.361061289187183
 10
2.706579843628007
 20
3.393873518230662
  0
LINE
  5
3A5
330
18
100
AcDbEntity
  8
TEXT
100
AcDbLine
 10
2.60474194365954
 20
3.293794863586718
 30
0.0
 11
2.701382194734534
 21
3.294065502685
 31
0.0
  0
LWPOLYLINE
  5
3A6
330
18
100
AcDbEntity
  8
TEXT
100
AcDbPolyline
 90
        2
 70
     0
 43
0.0
 10
2.83261546605107
 20
3.345346205801646
 42
0.3318488747599744
 10
2.901734758616383
 20
3.293794863586718
 42
-6.868794160588311
  0
LINE
  5
3A7
330
18
100
AcDbEntity
  8
TEXT
100
AcDbLine
 10
2.83261546605107
 20
3.478103580626999
 30
0.0
 11
2.83261546605107
 21
3.345346205801643
 31
0.0
  0
LINE
  5
3A8
330
18
100
AcDbEntity
  8
TEXT
100
AcDbLine
 10
2.735315759957625
 20
3.313753369691731
 30
0.0
 11
2.83261546605107
 21
3.478103580626999
 31
0.0
  0
ARC
  5
3A9
330
18
100
AcDbEntity
  8
TEXT
100
AcDbCircle
 10
2.915913402373245
 20
3.374785496086246
 30
0.0
 40
0.0153818062434269
100
AcDbArc
 50
174.7883570302258
 51
270.0
  0
LINE
  5
3AA
330
18
100
AcDbEntity
  8
TEXT
100
AcDbLine
 10
2.932907039257848
 20
3.359403689842821
 30
0.0
 11
2.915913402373245
 21
3.359403689842821
 31
0.0
  0
LINE
  5
3AB
330
18
100
AcDbEntity
  8
TEXT
100
AcDbLine
 10
2.901734758616381
 20
3.293794863586718
 30
0.0
 11
2.999738092315816
 21
3.293794863586718
 31
0.0
  0
LINE
  5
3AC
330
18
100
AcDbEntity
  8
TEXT
100
AcDbLine
 10
2.999738092315816
 20
3.293794863586718
 30
0.0
 11
2.999738092315816
 21
3.495991201918464
 31
0.0
  0
LINE
  5
3AD
330
18
100
AcDbEntity
  8
TEXT
100
AcDbLine
 10
3.362589646303938
 20
3.495991201918464
 30
0.0
 11
3.255383372916647
 21
3.495991201918464
 31
0.0
  0
LINE
  5
3AE
330
18
100
AcDbEntity
  8
TEXT
100
AcDbLine
 10
3.316102731824674
 20
3.458716228456331
 30
0.0
 11
3.398390721608059
 21
3.458716228456331
 31
0.0
  0
LWPOLYLINE
  5
3AF
330
18
100
AcDbEntity
  8
TEXT
100
AcDbPolyline
 90
        4
 70
     1
 43
0.0
 10
3.411321762890958
 20
3.396758841570743
 10
3.322661444231099
 20
3.396758841570743
 42
0.9999999999999998
 10
3.322661444231099
 20
3.354360301066883
 10
3.411321762890958
 20
3.354360301066883
 42
1.0
  0
LWPOLYLINE
  5
3B0
330
18
100
AcDbEntity
  8
TEXT
100
AcDbPolyline
 90
        2
 70
     0
 43
0.0
 10
3.297426810329474
 20
3.293794863586718
 10
3.431444227960851
 20
3.293794863586718
 42
0.9999999999999998
  0
LINE
  5
3B1
330
18
100
AcDbEntity
  8
TEXT
100
AcDbLine
 10
3.124185208086917
 20
3.495991201918464
 30
0.0
 11
3.178318805007869
 21
3.495991201918464
 31
0.0
  0
LINE
  5
3B2
330
18
100
AcDbEntity
  8
TEXT
100
AcDbLine
 10
3.057127161305078
 20
3.293794863586718
 30
0.0
 11
3.124185208086917
 21
3.293794863586718
 31
0.0
  0
LINE
  5
3B3
330
18
100
AcDbEntity
  8
TEXT
100
AcDbLine
 10
3.124185208086917
 20
3.293794863586718
 30
0.0
 11
3.124185208086917
 21
3.495991201918464
 31
0.0
  0
LINE
  5
3B4
330
18
100
AcDbEntity
  8
TEXT
100
AcDbLine
 10
3.057127161305078
 20
3.488437412752354
 30
0.0
 11
3.057127161305078
 21
3.293794863586718
 31
0.0
  0
LWPOLYLINE
  5
3B5
330
18
100
AcDbEntity
  8
TEXT
100
AcDbPolyline
 90
        2
 70
     0
 43
0.0
 10
3.049573372138963
 20
3.495991201918464
 42
-0.4142135623731017
 10
3.057127161305077
 20
3.488437412752354
 42
-0.9999999999999998
  0
LINE
  5
3B6
330
18
100
AcDbEntity
  8
TEXT
100
AcDbLine
 10
3.255383372916647
 20
3.495991201918464
 30
0.0
 11
3.255383372916647
 21
3.420938795844257
 31
0.0
  0
ARC
  5
3B7
330
18
100
AcDbEntity
  8
TEXT
100
AcDbCircle
 10
3.316102731824674
 20
3.391030647312213
 30
0.0
 40
0.0676855811441166
100
AcDbArc
 50
90.0
 51
153.7768192527749
  0
LWPOLYLINE
  5
3B8
330
18
100
AcDbEntity
  8
TEXT
100
AcDbPolyline
 90
        2
 70
     0
 43
0.0
 10
3.254350877461838
 20
3.337285808537156
 42
0.2901071551932823
 10
3.297426810329474
 20
3.293794863586718
 42
5.328517124445801
  0
LWPOLYLINE
  5
3B9
330
18
100
AcDbEntity
  8
TEXT
100
AcDbPolyline
 90
        2
 70
     0
 43
0.0
 10
3.178318805007867
 20
3.495991201918464
 42
-0.4142135623731017
 10
3.18587259417398
 20
3.488437412752354
 42
-0.9999999999999998
  0
LWPOLYLINE
  5
3BA
330
18
100
AcDbEntity
  8
TEXT
100
AcDbPolyline
 90
        4
 70
     0
 43
0.0
 10
3.18587259417398
 20
3.488437412752354
 10
3.18587259417398
 20
3.293794863586718
 10
3.254350877461838
 20
3.293794863586718
 10
3.254350877461838
 20
3.337285808537156
 42
-1.714843617202739
  0
LWPOLYLINE
  5
3BB
330
18
100
AcDbEntity
  8
TEXT
100
AcDbPolyline
 90
        2
 70
     0
 43
0.0
 10
3.474520160828495
 20
3.337285808537156
 42
-0.2901071551932486
 10
3.431444227960851
 20
3.293794863586718
 42
-5.328517124445184
  0
LWPOLYLINE
  5
3BC
330
18
100
AcDbEntity
  8
TEXT
100
AcDbPolyline
 90
        2
 70
     0
 43
0.0
 10
3.474520160828495
 20
3.293794863586718
 10
3.532875374663829
 20
3.293794863586718
  0
LWPOLYLINE
  5
3BD
330
18
100
AcDbEntity
  8
TEXT
100
AcDbPolyline
 90
        2
 70
     0
 43
0.0
 10
3.474520160828495
 20
3.337285808537156
 10
3.474520160828495
 20
3.293794863586718
  0
LINE
  5
3BE
330
18
100
AcDbEntity
  8
TEXT
100
AcDbLine
 10
3.398390721608059
 20
3.458716228456331
 30
0.0
 11
3.388125961194493
 21
3.479966768029026
 31
0.0
  0
LINE
  5
3BF
330
18
100
AcDbEntity
  8
TEXT
100
AcDbLine
 10
3.532875374663831
 20
3.293794863586718
 30
0.0
 11
3.532875374663824
 21
3.471085369018187
 31
0.0
  0
LINE
  5
3C0
330
18
100
AcDbEntity
  8
TEXT
100
AcDbLine
 10
3.851289321145344
 20
3.293794863586718
 30
0.0
 11
3.755797097781734
 21
3.450374653634256
 31
0.0
  0
LINE
  5
3C1
330
18
100
AcDbEntity
  8
TEXT
100
AcDbLine
 10
3.774710948769136
 20
3.293794863586718
 30
0.0
 11
3.851289321145344
 21
3.293794863586718
 31
0.0
  0
LINE
  5
3C2
330
18
100
AcDbEntity
  8
TEXT
100
AcDbLine
 10
3.634429231239053
 20
3.293794863586718
 30
0.0
 11
3.698807415557674
 21
3.293794863586718
 31
0.0
  0
LINE
  5
3C3
330
18
100
AcDbEntity
  8
TEXT
100
AcDbLine
 10
3.634429231239046
 20
3.495991201918464
 30
0.0
 11
3.634429231239053
 21
3.293794863586718
 31
0.0
  0
LINE
  5
3C4
330
18
100
AcDbEntity
  8
TEXT
100
AcDbLine
 10
3.698807415557674
 20
3.425374432062898
 30
0.0
 11
3.774710948769136
 21
3.293794863586718
 31
0.0
  0
LINE
  5
3C5
330
18
100
AcDbEntity
  8
TEXT
100
AcDbLine
 10
3.698807415557674
 20
3.293794863586718
 30
0.0
 11
3.698807415557674
 21
3.425374432062898
 31
0.0
  0
LINE
  5
3C6
330
18
100
AcDbEntity
  8
TEXT
100
AcDbLine
 10
2.554444104934727
 20
3.560267896575229
 30
0.0
 11
2.378712352036217
 21
3.560267896575229
 31
0.0
  0
LWPOLYLINE
  5
3C7
330
18
100
AcDbEntity
  8
TEXT
100
AcDbPolyline
 90
        2
 70
     0
 43
0.0006660908203125
 10
1.960634656630562
 20
3.533624263762732
 10
1.960634656630562
 20
3.560267896575233
  0
LWPOLYLINE
  5
3C8
330
18
100
AcDbEntity
  8
TEXT
100
AcDbPolyline
 90
        2
 70
     0
 43
0.0006660908203125
 10
2.000600105849313
 20
3.533624263762732
 10
2.000600105849313
 20
3.560267896575233
  0
TEXT
  5
3C9
330
18
100
AcDbEntity
  8
TEXT
100
AcDbText
 10
4.003352909244748
 20
3.573197526164799
 30
0.0
 40
0.0522247191011236
  1
Stylmark  Incorporated
 41
1.221428571428571
 72
     5
 11
5.332285493514412
 21
3.573197526164799
 31
0.0
100
AcDbText
  0
LINE
  5
3CA
330
18
100
AcDbEntity
  8
TEXT
100
AcDbLine
 10
3.629949343912546
 20
3.560267896575229
 30
0.0
 11
3.562449626263031
 21
3.560267896575229
 31
0.0
  0
TEXT
  5
3CB
330
18
100
AcDbEntity
  8
TEXT
100
AcDbText
 10
2.848976322422997
 20
3.740344887938298
 30
0.0
 40
0.125
  1
PART #110421
  7
ITALICC
 72
     1
 11
3.590047750994425
 21
3.740344887938298
 31
0.0
100
AcDbText
  0
LINE
  5
3CC
330
18
100
AcDbEntity
  8
TEXT
100
AcDbLine
 10
3.066925095188985
 20
3.560267896575229
 30
0.0
 11
2.932907039257848
 21
3.560267896575229
 31
0.0
  0
LINE
  5
3CD
330
18
100
AcDbEntity
  8
TEXT
100
AcDbLine
 10
2.614486709778734
 20
3.594655814169367
 30
0.0
 11
2.554444104934727
 21
3.594655814169367
 31
0.0
  0
LINE
  5
3CE
330
18
100
AcDbEntity
  8
TEXT
100
AcDbLine
 10
2.554444104934727
 20
3.594655814169367
 30
0.0
 11
2.554444104934727
 21
3.560267896575229
 31
0.0
  0
LINE
  5
3CF
330
18
100
AcDbEntity
  8
TEXT
100
AcDbLine
 10
2.686285675922643
 20
3.560267896575229
 30
0.0
 11
2.614486709778734
 21
3.560267896575229
 31
0.0
  0
LINE
  5
3D0
330
18
100
AcDbEntity
  8
TEXT
100
AcDbLine
 10
2.614486709778734
 20
3.560267896575229
 30
0.0
 11
2.614486709778734
 21
3.594655814169367
 31
0.0
  0
LINE
  5
3D1
330
18
100
AcDbEntity
  8
TEXT
100
AcDbLine
 10
2.900595185120188
 20
3.62827937431404
 30
0.0
 11
2.833786472553821
 21
3.62827937431404
 31
0.0
  0
LINE
  5
3D2
330
18
100
AcDbEntity
  8
TEXT
100
AcDbLine
 10
2.833786472553821
 20
3.560267896575229
 30
0.0
 11
2.803664559760445
 21
3.560267896575229
 31
0.0
  0
LINE
  5
3D3
330
18
100
AcDbEntity
  8
TEXT
100
AcDbLine
 10
2.833786472553821
 20
3.62827937431404
 30
0.0
 11
2.833786472553821
 21
3.560267896575229
 31
0.0
  0
LINE
  5
3D4
330
18
100
AcDbEntity
  8
TEXT
100
AcDbLine
 10
3.391620544648414
 20
3.560267896575229
 30
0.0
 11
3.256788635431355
 21
3.560267896575229
 31
0.0
  0
LWPOLYLINE
  5
3D5
330
18
100
AcDbEntity
  8
TEXT
100
AcDbPolyline
 90
        3
 70
     0
 43
0.0
 10
3.22100694471819
 20
3.560267896575233
 10
3.102706785902146
 20
3.560267896575233
 10
3.102706785902146
 20
3.533100399814337
 42
-1.960274751411753
  0
LWPOLYLINE
  5
3D6
330
18
100
AcDbEntity
  8
TEXT
100
AcDbPolyline
 90
        2
 70
     0
 43
0.0
 10
3.066925095188985
 20
3.560267896575233
 42
-0.3328679258950098
 10
3.102706785902146
 20
3.533100399814337
 42
6.772930709997214
  0
LINE
  5
3D7
330
18
100
AcDbEntity
  8
TEXT
100
AcDbLine
 10
3.256788635431355
 20
3.560267896575229
 30
0.0
 11
3.256788635431355
 21
3.531945350805585
 31
0.0
  0
LWPOLYLINE
  5
3D8
330
18
100
AcDbEntity
  8
TEXT
100
AcDbPolyline
 90
        2
 70
     0
 43
0.0
 10
3.22100694471819
 20
3.560267896575233
 42
-0.3277054968067132
 10
3.256788635431355
 20
3.531945350805589
 42
6.667889725900311
  0
LINE
  5
3D9
330
18
100
AcDbEntity
  8
TEXT
100
AcDbLine
 10
3.534477389822956
 20
3.560267896575229
 30
0.0
 11
3.470580483523455
 21
3.560267896575229
 31
0.0
  0
ARC
  5
3DA
330
18
100
AcDbEntity
  8
TEXT
100
AcDbCircle
 10
3.389593604871347
 20
3.518684329454327
 30
0.0
 40
0.0416329381542859
100
AcDbArc
 50
26.56974201007528
 51
87.20939649401342
  0
LINE
  5
3DB
330
18
100
AcDbEntity
  8
TEXT
100
AcDbLine
 10
3.534477389822956
 20
3.532720246714355
 30
0.0
 11
3.534477389822956
 21
3.560267896575229
 31
0.0
  0
ARC
  5
3DC
330
18
100
AcDbEntity
  8
TEXT
100
AcDbCircle
 10
3.565670206886066
 20
3.529022169292964
 30
0.0
 40
0.0314112657011332
100
AcDbArc
 50
95.88484768694724
 51
173.2388340632136
  0
LINE
  5
3DD
330
18
100
AcDbEntity
  8
TEXT
100
AcDbLine
 10
3.820354213747439
 20
3.560267896575229
 30
0.0
 11
3.745362381017812
 21
3.560267896575229
 31
0.0
  0
LINE
  5
3DE
330
18
100
AcDbEntity
  8
TEXT
100
AcDbLine
 10
3.629949343912553
 20
3.62573210234283
 30
0.0
 11
3.629949343912546
 21
3.560267896575229
 31
0.0
  0
LINE
  5
3DF
330
18
100
AcDbEntity
  8
TEXT
100
AcDbLine
 10
3.698264222461826
 20
3.62573210234283
 30
0.0
 11
3.629949343912553
 21
3.62573210234283
 31
0.0
  0
ENDSEC
  0
SECTION
  2
OBJECTS
  0
DICTIONARY
  5
C
330
0
100
AcDbDictionary
  3
ACAD_GROUP
350
D
  3
ACAD_LAYOUT
350
3E6
  3
ACAD_MLINESTYLE
350
E
  3
ACAD_PLOTSETTINGS
350
3E7
  3
ACAD_PLOTSTYLENAME
350
3E4
  3
ACDBHEADERROUNDTRIPXREC
350
3F2
  3
ACDBVARIABLEDICTIONARY
350
3EF
  0
DICTIONARY
  5
414
330
18
100
AcDbDictionary
280
     1
  3
ACAD_LAYOUTSELFREF
360
415
  0
DICTIONARY
  5
412
330
15
100
AcDbDictionary
280
     1
  3
ACAD_LAYOUTSELFREF
360
413
  0
DICTIONARY
  5
D
102
{ACAD_REACTORS
330
C
102
}
330
C
100
AcDbDictionary
  0
DICTIONARY
  5
3E6
102
{ACAD_REACTORS
330
C
102
}
330
C
100
AcDbDictionary
  0
DICTIONARY
  5
E
102
{ACAD_REACTORS
330
C
102
}
330
C
100
AcDbDictionary
  3
STANDARD
350
1B
  0
DICTIONARY
  5
3E7
102
{ACAD_REACTORS
330
C
102
}
330
C
100
AcDbDictionary
  0
ACDBDICTIONARYWDFLT
  5
3E4
102
{ACAD_REACTORS
330
C
102
}
330
C
100
AcDbDictionary
281
     1
  3
Normal
350
3E5
100
AcDbDictionaryWithDefault
340
3E5
  0
DICTIONARY
  5
3F2
102
{ACAD_REACTORS
330
C
102
}
330
C
100
AcDbDictionary
  3
CEPSNTYPE
350
3FC
  3
FINGERPRINTGUID
350
3FD
  3
HYPERLINKBASE
350
3F5
  3
INSUNITS
350
3FB
  3
LAYOUTDICT
350
3F7
  3
LWETCUNION
350
3FA
  3
PLOTSETDICT
350
3F8
  3
PLOTSTYLNAMDICT
350
3F9
  3
PSVPSCALE
350
3FF
  3
PUCSBASE
350
402
  3
PUCSORGBACK
350
408
  3
PUCSORGBOTTOM
350
404
  3
PUCSORGFRONT
350
407
  3
PUCSORGLEFT
350
405
  3
PUCSORGRIGHT
350
406
  3
PUCSORGTOP
350
403
  3
PUCSORTHOREF
350
400
  3
PUCSORTHOVIEW
350
401
  3
STYLESHEET
350
3F6
  3
TSTACKALIGN
350
3F3
  3
TSTACKSIZE
350
3F4
  3
UCSBASE
350
40B
  3
UCSORGBACK
350
411
  3
UCSORGBOTTOM
350
40D
  3
UCSORGFRONT
350
410
  3
UCSORGLEFT
350
40E
  3
UCSORGRIGHT
350
40F
  3
UCSORGTOP
350
40C
  3
UCSORTHOREF
350
409
  3
UCSORTHOVIEW
350
40A
  3
VERSIONGUID
350
3FE
  0
DICTIONARY
  5
3EF
102
{ACAD_REACTORS
330
C
102
}
330
C
100
AcDbDictionary
  3
DIMASSOC
350
3F0
  0
XRECORD
  5
415
102
{ACAD_REACTORS
330
414
102
}
330
414
100
AcDbXrecord
340
18
  0
XRECORD
  5
413
102
{ACAD_REACTORS
330
412
102
}
330
412
100
AcDbXrecord
340
15
  0
MLINESTYLE
  5
1B
102
{ACAD_REACTORS
330
E
102
}
330
E
100
AcDbMlineStyle
  2
STANDARD
 70
     0
  3

 62
     0
 51
90.0
 52
90.0
 71
     2
 49
0.5
 62
   256
  6
BYLAYER
 49
-0.5
 62
   256
  6
BYLAYER
  0
ACDBPLACEHOLDER
  5
3E5
102
{ACAD_REACTORS
330
3E4
102
}
330
3E4
100
AcDbPlaceHolder
280
     0
  0
XRECORD
  5
3FC
102
{ACAD_REACTORS
330
3F2
102
}
330
3F2
100
AcDbXrecord
 90
        0
  0
XRECORD
  5
3FD
102
{ACAD_REACTORS
330
3F2
102
}
330
3F2
100
AcDbXrecord
  1
{3E1383E0-8DB7-11D6-88E6-0090279574E7}
  0
XRECORD
  5
3F5
102
{ACAD_REACTORS
330
3F2
102
}
330
3F2
100
AcDbXrecord
  1

  0
XRECORD
  5
3FB
102
{ACAD_REACTORS
330
3F2
102
}
330
3F2
100
AcDbXrecord
 90
        0
  0
XRECORD
  5
3F7
102
{ACAD_REACTORS
330
3F2
102
}
330
3F2
100
AcDbXrecord
340
3E6
  0
XRECORD
  5
3FA
102
{ACAD_REACTORS
330
3F2
102
}
330
3F2
100
AcDbXrecord
 90
    14877
  0
XRECORD
  5
3F8
102
{ACAD_REACTORS
330
3F2
102
}
330
3F2
100
AcDbXrecord
340
3E7
  0
XRECORD
  5
3F9
102
{ACAD_REACTORS
330
3F2
102
}
330
3F2
100
AcDbXrecord
340
3E4
  0
XRECORD
  5
3FF
102
{ACAD_REACTORS
330
3F2
102
}
330
3F2
100
AcDbXrecord
 40
0.0
  0
XRECORD
  5
402
102
{ACAD_REACTORS
330
3F2
102
}
330
3F2
100
AcDbXrecord
340
0
  0
XRECORD
  5
408
102
{ACAD_REACTORS
330
3F2
102
}
330
3F2
100
AcDbXrecord
 10
0.0
 20
0.0
 30
0.0
  0
XRECORD
  5
404
102
{ACAD_REACTORS
330
3F2
102
}
330
3F2
100
AcDbXrecord
 10
0.0
 20
0.0
 30
0.0
  0
XRECORD
  5
407
102
{ACAD_REACTORS
330
3F2
102
}
330
3F2
100
AcDbXrecord
 10
0.0
 20
0.0
 30
0.0
  0
XRECORD
  5
405
102
{ACAD_REACTORS
330
3F2
102
}
330
3F2
100
AcDbXrecord
 10
0.0
 20
0.0
 30
0.0
  0
XRECORD
  5
406
102
{ACAD_REACTORS
330
3F2
102
}
330
3F2
100
AcDbXrecord
 10
0.0
 20
0.0
 30
0.0
  0
XRECORD
  5
403
102
{ACAD_REACTORS
330
3F2
102
}
330
3F2
100
AcDbXrecord
 10
0.0
 20
0.0
 30
0.0
  0
XRECORD
  5
400
102
{ACAD_REACTORS
330
3F2
102
}
330
3F2
100
AcDbXrecord
340
0
  0
XRECORD
  5
401
102
{ACAD_REACTORS
330
3F2
102
}
330
3F2
100
AcDbXrecord
 70
     0
  0
XRECORD
  5
3F6
102
{ACAD_REACTORS
330
3F2
102
}
330
3F2
100
AcDbXrecord
  1

  0
XRECORD
  5
3F3
102
{ACAD_REACTORS
330
3F2
102
}
330
3F2
100
AcDbXrecord
 90
        1
  0
XRECORD
  5
3F4
102
{ACAD_REACTORS
330
3F2
102
}
330
3F2
100
AcDbXrecord
 90
       70
  0
XRECORD
  5
40B
102
{ACAD_REACTORS
330
3F2
102
}
330
3F2
100
AcDbXrecord
340
0
  0
XRECORD
  5
411
102
{ACAD_REACTORS
330
3F2
102
}
330
3F2
100
AcDbXrecord
 10
0.0
 20
0.0
 30
0.0
  0
XRECORD
  5
40D
102
{ACAD_REACTORS
330
3F2
102
}
330
3F2
100
AcDbXrecord
 10
0.0
 20
0.0
 30
0.0
  0
XRECORD
  5
410
102
{ACAD_REACTORS
330
3F2
102
}
330
3F2
100
AcDbXrecord
 10
0.0
 20
0.0
 30
0.0
  0
XRECORD
  5
40E
102
{ACAD_REACTORS
330
3F2
102
}
330
3F2
100
AcDbXrecord
 10
0.0
 20
0.0
 30
0.0
  0
XRECORD
  5
40F
102
{ACAD_REACTORS
330
3F2
102
}
330
3F2
100
AcDbXrecord
 10
0.0
 20
0.0
 30
0.0
  0
XRECORD
  5
40C
102
{ACAD_REACTORS
330
3F2
102
}
330
3F2
100
AcDbXrecord
 10
0.0
 20
0.0
 30
0.0
  0
XRECORD
  5
409
102
{ACAD_REACTORS
330
3F2
102
}
330
3F2
100
AcDbXrecord
340
0
  0
XRECORD
  5
40A
102
{ACAD_REACTORS
330
3F2
102
}
330
3F2
100
AcDbXrecord
 70
     0
  0
XRECORD
  5
3FE
102
{ACAD_REACTORS
330
3F2
102
}
330
3F2
100
AcDbXrecord
  1
{3E1383E2-8DB7-11D6-88E6-0090279574E7}
  0
DICTIONARYVAR
  5
3F0
102
{ACAD_REACTORS
330
3EF
102
}
330
3EF
100
DictionaryVariables
280
     0
  1
1
  0
ENDSEC
  0
EOF
